Oops, an error
Loading. Please wait.

Conquer All Tab

ver2
ver2

Whole song

More versions @911Tabs.com
16,008 views 21 this week
7 commentsread comments
1 2 3 4 5
excellent!
x 5
Autoscroll
+/-
esc
set tempo
stop
Contributor
Difficulty
intermediate
WARNING: You are trying to view
                                    content from Ultimate-Guitar.com
                                    in an unauthorized application,
                                    which is prohibited.

                                    Please use an official Ultimate
                                    Guitar Tabs application for iPhone,
                                    iPad or Android to access legitimate
                                    chords, guitar, bass, and drum tabs
                                    from Ultimate-Guitar.com database.

                                    Type "ultimate guitar tabs" in Apple
                                    App Store's or Android Market's
                                    search to find the application.
Behemoth
Conquer All

Intro

Gtr 1
|--------------------------------------------------|
|--------------------------------------------------|
|10-9----------------------------------------------|
|10-9----------------------------------------------|
|-8-7----------------------------------------------|
|-----------------------------------111-444-111-000|
                                    ... ... ... ...|  x2
Gtr 2                                              |
|--------------------------------------------------|
|--------------------------------------------------|
|10-9---------10-9-7-9-10-9------------------------|
|10-9---------10-9-7-9-10-9------------------------|
|-8-7----------8-7-5-7--8-7------------------------|
|-----000-000---------------000-000-111-444-111-000|
      ... ...               ... ... ... ... ... ...

Gtr 1 (Timing may be a little off)
|--------------------------------------------------|
|--------------------------------------------------|
|10-9~--------------------7-7/9-9/10-10~-----------|
|-x-x---------------------x-x---x-----x------------|
|-8-7~--------------------5-5/7-7/-8--8~-----------|
|--------------------------------------------------|
                                                   |
Gtr 2                                              |
|--------------------------------------------------|
|--------------------------------------------------|
|10-9---------10-9-7-9-10-9------------------------|
|10-9---------10-9-7-9-10-9------------------------|
|-8-7----------8-7-5-7--8-7------------------------|
|-----000-000---------------000-000-111-444-111-000|
      ... ...               ... ... ... ... ... ...

Gtr 1
|--------------------------------------------------|
|--------------------------------------------------|
|10-9~---------------------------------------------|
|-x-x----------------------------------------------|
|-8-7~---------------------------------------------|
|-----------------------------------111-444-111-000|
                                    ... ... ... ...|
Gtr 2                                              |
|--------------------------------------------------|
|--------------------------------------------------|
|10-9---------10-9-7-9-10-9------------------------|
|10-9---------10-9-7-9-10-9------------------------|
|-8-7----------8-7-5-7--8-7------------------------|
|-----000-000---------------000-000-111-444-111-000|
      ... ...               ... ... ... ... ... ...

Gtr 1 (Timing may be a little off)
|--------------------------------------------------|
|--------------------------------------------------|
|10-9~--------------------7-7/9-9/12-12~-----------|
|-x-x---------------------x-x---x-----x------------|
|-8-7~--------------------5-5/7-7/10-10~-----------|
|--------------------------------------------------|
                                                   |
Gtr 2                                              |
|--------------------------------------------------|
|--------------------------------------------------|
|10-9---------10-9-7-9-10-9------------------------|
|10-9---------10-9-7-9-10-9------------------------|
|-8-7----------8-7-5-7--8-7------------------------|
|-----000-000---------------000-000-111-444-111-000|
      ... ...               ... ... ... ... ... ...

Gtr 1
|--------------------------------------------------|
|--------------------------------------------------|
|10-9~---------------------------------------------|
|-x-x----------------------------------------------|
|-8-7~---------------------------------------------|
|-----------------------------------111-444-111-000|
                                    ... ... ... ...|
Gtr 2                                              |
|--------------------------------------------------|
|--------------------------------------------------|
|10-9---------10-9-7-9-10-9------------------------|
|10-9---------10-9-7-9-10-9------------------------|
|-8-7----------8-7-5-7--8-7------------------------|
|-----000-000---------------000-000-111-444-111-000|
      ... ...               ... ... ... ... ... ...

Verse Riff

Gtr 1
|--------------------------------------------------|
|--------------------------------------------------|
|10-9---------10-9-7-9-10-9------------------------|
|10-9---------10-9-7-9-10-9------------------------|
|-8-7----------8-7-5-7--8-7------------------------|
|-----000-000---------------000-000-111-444-111-000|
      ... ...               ... ... ... ... ... ...|
Gtr 2                                              |
|--------------------------------------------------|
|--------------------------------------------------|
|10-9---------10-9-7-9-10-9------------------------|
|10-9---------10-9-7-9-10-9------------------------|--------|
|-8-7----------8-7-5-7--8-7------------------------|        |
|-----000-000---------------000-000-111-444-111-000|        |
      ... ...               ... ... ... ... ... ...         |
                                                            |
Gtr 1                                                      x2
|--------------------------------------------------|        |
|--------------------------------------------------|        |
|10-9---------10-9-7-9--7-6------------------------|        |
|10-9---------10-9-7-9--x-x------------------------|        |
|-8-7----------8-7-5-7--5-4------------------------|--------|
|-----000-000---------------000-000-111-444-111-000|
      ... ...               ... ... ... ... ... ...|
Gtr 2                                              |
|--------------------------------------------------|
|--------------------------------------------------|
|10-9---------10-9-7-9-10-9------------------------|
|10-9---------10-9-7-9-10-9------------------------|
|-8-7----------8-7-5-7--8-7------------------------|
|-----000-000---------------000-000-111-444-111-000|
      ... ...               ... ... ... ... ... ...

Pre-Chorus

Gtr 1
|------------------------|
|------------------------|
|------------------------|
|------------------------|
|2----------/6-------/6-3|
|0----0-0-0-/4-0-0-0-/4-1|
      . . .    . . .     | x2
Gtr 2                    |
|------------------------|
|------------------------|
|------------------------|
|------------------------|
|------------------------|
|0---------1-4----0-1-4-1|
 "         " "    " " " "

Gtr 1
|------------------------|
|------------------------|
|9~----------------------|
|x-----------------------|
|7~----------------------|
|------------------------|
Gtr 2                    |
|------------------------|
|------------------------|
|------------------------|
|------------------------|
|------------------------|
|0---------1-4----0-1-4-1|
 "         " "    " " " "

Chorus

Both Gtrs         1,3             2                           4
|--------------------|-------------|----------3#---------------| x2
|--------------------|-------------|-------------3#------------|(Rake N.H.s)
|--------------------|-------------|----------------3#---------|
|--5\4---5\4---5\4---|8-7-5-7-5-4-2|8-7-5-7-5----------3#------|
|2-3\2---3\2---3\2---|6-5-3-5-3-2-0|6-5-3-5-3-------------3#---|
|0-3\2-0-3\2-0-3\2-0-|6-5-3-5-3-2-0|6-5-3-5-3----------------3#|
 .     .     .     .  . . . . . . . . . . . .

Interlude (Second time through verse to chorus, go to Solo & rythem section)

Gtr 1
|--------------------------------------------------|
|--------------------------------------------------|
|10-9~---------------------------------------------|
|-x-x----------------------------------------------|
|-8-7~------------x-x-x--x-x-x--x-x----------------|
|-----------------x-x-x--x-x-x--x-x-111-444-111-000|
                  . . .  . . .  . . ... ... ... ...|  x4
Gtr 2                                              |
|--------------------------------------------------|
|--------------------------------------------------|
|10-9---------10-9-7-9-10-9------------------------|
|10-9---------10-9-7-9-10-9------------------------|
|-8-7----------8-7-5-7--8-7------------------------|
|-----000-000---------------000-000-111-444-111-000|
      ... ...               ... ... ... ... ... 

Gtr 1
|----------------------------------------------|
|----------------------------------------------|
|--10--9-----9------------13-12-10-12-10--9----|
|--------11----11-10-11---------------------11-|
|----------------------------------------------|
|0----------------------0----------------------|
 .                      .                      |
Gtr 2                                          |
|----------------------------------------------|
|----------------------------------------------|
|--13-12----12------------16-15-13-15-13-12----|
|--------14----14-13-14---------------------14-|
|----------------------------------------------|
|0----------------------0----------------------|
 .                      .                      

Gtr 1
|--------------------------------------------|
|--------------------------------------------|
|--10--9-----9------------13-12-10-12-10--9*-|
|--------11----11-10-11----------------------|
|--------------------------------------------|
|0----------------------0--------------------|
 .                      .                    |
Gtr 2                                        |
|--------------------------------------------|
|--------------------------------------------|
|--13-12----12------------16-15-13-15-13-12*-|
|--------14----14-13-14----------------------|
|--------------------------------------------|
|0----------------------0--------------------|
 .                      .

Gtr 1
|----------------------------------------------|
|----------------------------------------------|
|--10--9-----9------------13-12-10-12-10--9----|
|--------11----11-10-11---------------------11-|
|----------------------------------------------|
|0----------------------0----------------------|
 .                      .                      |
Gtr 2                                          |
|----------------------------------------------|
|----------------------------------------------|
|--13-12----12------------16-15-13-15-13-12----|
|--------14----14-13-14---------------------14-|
|----------------------------------------------|
|0----------------------0----------------------|
 .                      .

Gtr 1
|----------------------------------------------|
|----------------------------------------------|
|--10--9-----9---------------------------------|
|--------11----11-10-11-13-12-10-12-10--9-10--7|
|----------------------------------------------|
|0---------------------------------------------|
 .                                             |
Gtr 2                                          |
|----------------------------------------------|
|----------------------------------------------|
|--13-12----12---------------------------------|
|--------14----14-13-14-16-15-13-15-13-12-13-10|
|----------------------------------------------|
|0---------------------------------------------|
 .

Go back to verse and play through to the chorus, after chorus play this.

Solo

Gtr 1
|-------------------------------------|
|-------------------------------------|
|------9~----7--10--9\7-9~----5---10--|
|------x-----x---x--x---x-----x----x--|
|2-2-2-7~----5---8--7\5-7~----3----8--|
|0-0-0--------------------------------|
 . . .

|---------------------------------------------13p12p10h12~--13p12p10h12~|
|---12-12-12~-----12-13-12-13-15-15b--15~-------------------------------|
|14------------14-------------------------------------------------------|
|-----------------------------------------------------------------------|
|-----------------------------------------------------------------------|
|-----------------------------------------------------------------------|

|---12-13-15-b15-b15-b15-b15-13-12-13~----17p13-------------------------|
|15---------------------------------------------15----------------15----|
|--------------------------------------------------14----------14----14-|
|-----------------------------------------------------15----15----------|
|--------------------------------------------------------17-------------|
|-----------------------------------------------------------------------|

|----------------------------------15p12-------------------------------|
|---------15--16-15-13-15-13-12----------13----------------13----------|
|------14-----------------------------------14----------14----14-------|
|---14-----------------------------------------14----14----------14----|
|15-----------------------------------------------15----------------15-|
|----------------------------------------------------------------------|

|-------------------15br-14-12~----12h14h15p14p12---------------------12-|
|------13--16-15-13-------------------------------15-13-12~--------13----|
|---14----------------------------------------------------------14-------|
|14----------------------------------------------------------14----------|
|------------------------------------------------------------------------|
|------------------------------------------------------------------------|

|17p12------------15br--14--12-----------------------15--14--12-------|
|------13---------------------------------------12~--------------12~--|
|---------14---------------------------------12-----------------------|
|------------14~--------------------------12--------------------------|
|--------------------------------------14-----------------------------|
|--------------------------------12h15--------------------------------|

|--------------------------------------------------------------15--14--12-|
|---------------12~--13-12-13-13br-13-12~-----------------12~-------------|
|------------12----------------------------------------12-----------------|
|---------12----------------------------------------12--------------------|
|------14----------------------------------------14-----------------------|
|12h15-------------------------------------12h15--------------------------|

|-------------15br--15br--12~--|
|12~--13--15-------------------|
|------------------------------|
|------------------------------|
|------------------------------|
|------------------------------|

Rythem Section

Gtr 2
|-------------------------------|
|-------------------------------| x4
|------9-9----------------------|
|------9-9----------------------|
|2-2-2-7-7----------------------|
|0-0-0-----0-4-1--0-1-4--1-4-5--|
 . . .     " " "  " " "  " " "

|---------------|
|---------------|
|---------5~----|
|2--------5~----|
|2--------3~----|
|0--------------|
I don't know what's played after this, sorry.

Outro

Gtr 1
|--------------------------------------------------|
|--------------------------------------------------|
|----------------5~--------------------9-9-9-9-9-9-|
|----------------x---------------------x-x-x-x-x-x-|----|
|2~--------------3~----6~--------------7-7-7-7-7-7-|    |
|0~--------------------4~--------------------------|    |
Gtr 2                                                  x2
|--------------------------------------------------|    |
|--------------------------------------------------|    |
|----------------5~--------------------9-9-9-9-9-9-|----|
|----------------5~--------------------9-9-9-9-9-9-|
|2-2--2--2-2-2-2-3~----6-6--6--6-6-6-6-7-7-7-7-7-7-|
|0-0--0--0-0-0-0-------4-4--4--4-4-4-4-------------|
 . .  .  . . . .       . .  .  . . . .

Both Gtrs
|-------------------|
|-------------------| x4
|-------------------|
|-------------------|
|2-2--2--2-2-2-2-2--|
|0-0--0--0-0-0-0-0--|
 . .  .  . . . .

I think most of it's right... I don't know about the tuning,
it's either C or C#.
comments
print report bad tab
7 comments total. Showing first comments.
0 reply
jgilch wrote on September 9 2008, 07:23 pm

wth is #? I have been playin for over a year and never encountered a #.....

0 reply
63Dylan63 wrote on September 13 2008, 01:53 pm

That means natural harmonic. Or if you're talking about the tuning part at the end, it means sharp.

0 reply
metalfreak_6666 wrote on February 22 2009, 03:42 pm

perfect tab man

I want to post or [tab]
guest
You may want to rate the tab now too:
select rating
Please do not post tabs as comments. Select "correction" instead!