Oops, an error
Loading. Please wait.

Decade Of Therion Tab

7,381 views 3 this week
1 commentread comment
1 2 3 4 5
excellent!
x 2
Autoscroll
+/-
esc
set tempo
stop
WARNING: You are trying to view
                                    content from Ultimate-Guitar.com
                                    in an unauthorized application,
                                    which is prohibited.

                                    Please use an official Ultimate
                                    Guitar Tabs application for iPhone,
                                    iPad or Android to access legitimate
                                    chords, guitar, bass, and drum tabs
                                    from Ultimate-Guitar.com database.

                                    Type "ultimate guitar tabs" in Apple
                                    App Store's or Android Market's
                                    search to find the application.
#----------------------------------PLEASE NOTE---------------------------------#
#This file is the author's own work and represents their interpretation of the #
#song. You may only use this file for private study, scholarship, or research. #
#------------------------------------------------------------------------------#
 BEHEMOTH - DECADE OF THERION
 From the Album Satanica
 Copyright 1999 MetalMind Records

 Version 5.0 - April 4, 2002

First version (1.0): November 19, 2001
Transcribed by: benton_glen
For questions, comments, corrections: benton_glen@hotmail.com
You can visit my Website: www.behemoth.ht.st


Notation:
[m] = Artificial Harmonic
~~~ = Vibrato
PM_ = Palm Mute



Tuning: D, G, C, F, A, d




INTRO:

 (1x)
   Guitar 1 (Havoc)
 d[----------------------------------------------------------]
 A[----------------------------------------------------------]
 F[----------------------------------------------------------]
 C[----------9-9-9---------10-10-10---------9-9-9------------]
 G[------7-7-----------8-8--------------7-7------------------]
 D[--0-0-----------0-0--------------0-0-----------0-1-3-1-3--]
  |                                               PM_______
  |Guitar 2 (Nergal)
 d[----------------------------------------------------------]
 A[----------------------------------------------------------]
 F[----------------------------------------------------------]
 C[--2-------------------------------------------------------]
 G[--2-------------------------------------------------------]
 D[--0--------------------------------------------0-1-3-1-3--]
                                                  PM_______

   Guitar 1
 d[----------------------------------------------------------]
 A[----------------------------------------------------------]
 F[----------------------------------------------------------]
 C[----------9-9-9---------12-12-12---------9-9-9------------]
 G[------7-7-----------8-8--------------7-7------------------]
 D[--0-0-----------0-0--------------0-0-----------0-1-3-1-3--]
  |                                               PM_______
  |Guitar 2
 d[----------------------------------------------------------]
 A[----------------------------------------------------------]
 F[----------------------------------------------------------]
 C[--2-2-----------3-3--------------2-2----------------------]
 G[--2-2-----------3-3--------------2-2----------------------]
 D[--0-0-----------1-1--------------0-0-----------0-1-3-1-3--]
                                                  PM_______

 (2x)
   Guitars 1 & 2
 d[----------------------------------------------------------]
 A[----------------------------------------------------------]
 F[----------------------------------------------------------]
 C[----------9-9-9---------10-10-10---------9-9-9------------]
 G[------7-7-----------8-8--------------7-7------------------]
 D[--0-0-----------0-0--------------0-0-----------0-1-3-1-3--]
                                                  PM_______

 d[----------------------------------------------------------]
 A[----------------------------------------------------------]
 F[----------------------------------------------------------]
 C[----------9-9-9---------12-12-12---------9-9-9------------]
 G[------7-7-----------8-8--------------7-7------------------]
 D[--0-0-----------0-0--------------0-0-----------0-1-3-1-3--]
                                                  PM_______


VERSE (2x):

   Guitar 1 & 2
 d[------------------------------------------------]
 A[-°----------------------------------------------]
 F[------------------------------------------------]
 C[------------------------------------------------]
 G[-°--------10---9-7---3-2----7---10-7-9----------]
 D[---0--0-0----0-----0-----0----0-----------------]

 d[------------------------------------------------]
 A[----------------------------------------------°-]
 F[------------------------------------------------]
 C[--------------------------------9---------------]
 G[----------10---9-7-----------------7-----7----°-]
 D[---0--0-0----0-----0-0-0-0-0-0--------0---------]



CHORUS:

 (1x)
   Guitar 1 (Havoc)
 d[----------------------------------------------------------]
 A[----------------------------------------------------------]
 F[----------------------------------------------------------]
 C[----------9-9-9---------10-10-10---------9-9-9------------]
 G[------7-7-----------8-8--------------7-7------------------]
 D[--0-0-----------0-0--------------0-0-----------0-1-3-1-3--]
  |                                               PM_______
  |Guitar 2 (Nergal)
 d[----------------------------------------------------------]
 A[----------------------------------------------------------]
 F[----------------------------------------------------------]
 C[--2-------------------------------------------------------]
 G[--2-------------------------------------------------------]
 D[--0--------------------------------------------0-1-3-1-3--]
                                                  PM_______

   Guitar 1 (Havoc)
 d[----------------------------------------------------------]
 A[----------------------------------------------------------]
 F[----------------------------------------------------------]
 C[----------9-9-9---------12-12-12---------9-9-9------------]
 G[------7-7-----------8-8--------------7-7------------------]
 D[--0-0-----------0-0--------------0-0-----------0-1-3-1-3--]
  |                                               PM_______
  |Guitar 2 (Nergal)
 d[----------------------------------------------------------]
 A[----------------------------------------------------------]
 F[----------------------------------------------------------]
 C[--2-2-----------3-3--------------2-2----------------------]
 G[--2-2-----------3-3--------------2-2----------------------]
 D[--0-0-----------1-1--------------0-0-----------0-1-3-1-3--]
                                                  PM_______

 (2x)
   Guitars 1 & 2
 d[----------------------------------------------------------]
 A[----------------------------------------------------------]
 F[----------------------------------------------------------]
 C[----------9-9-9---------10-10-10---------9-9-9------------]
 G[------7-7-----------8-8--------------7-7------------------]
 D[--0-0-----------0-0--------------0-0-----------0-1-3-1-3--]
                                                  PM_______

 d[----------------------------------------------------------]
 A[----------------------------------------------------------]
 F[----------------------------------------------------------]
 C[----------9-9-9---------12-12-12---------9-9-9------------]
 G[------7-7-----------8-8--------------7-7------------------]
 D[--0-0-----------0-0--------------0-0-----------0-1-3-1-3--]
                                                  PM_______


VERSE:

 (2x)
   Guitar 1
 d[-------------------------------------------------------------]
 A[-°---------------------------------------------------------°-]
 F[----------------------9-9-9-10-10-10-------------------------]
 C[----------------9-9-9----------------10-10-10----------------]
 G[-°--7-7-7-7-7-7-------------------------------8-8-8-8-8-8--°-]
 D[-------------------------------------------------------------]
  |
  |Guitar 2
 d[-------------------------------------------------------------]
 A[-°---------------------------------------------------------°-]
 F[-----------------------------5-------------------------------]
 C[----2------------------------5-------------------------------]
 G[-°--2------------------------3-----------------------------°-]
 D[----0--------------------------------------------------------]

   Guitar 1
 d[-------------------------------------------------------------]
 A[-°---------------------------------------------------------°-]
 F[----------------------9-9-9-10-10-10-------------------------]
 C[----------------9-9-9----------------10-10-10----------------]
 G[-°--7-7-7-7-7-7-------------------------------8-8-8-8-8-8--°-]
 D[-------------------------------------------------------------]
  |
  |Guitar 2
 d[-------------------------------------------------------------]
 A[-°---------------------------------------------------------°-]
 F[-----------------------------5-------------------------------]
 C[----2------------------------5----------------3--------------]
 G[-°--2------------------------3----------------3------------°-]
 D[----0-----------------------------------------1--------------]

 (4x)
   Guitar 1 & 2
 d[-------------------------------------------------------]
 A[-°---------------------------------------------------°-]
 F[----------------5-------------------------5------------]
 C[----2-----------5-----------2-------------5------3-----]
 G[-°--2-----------3-----------2-------------3------3---°-]
 D[----0-----------------------0--------------------1-----]


 (4x)
   Guitar 1
 d[-------------------------------------------------------------]
 A[-°---------------------------------------------------------°-]
 F[----------------------9-9-9-10-10-10-------------------------]
 C[----------------9-9-9----------------10-10-10----------------]
 G[-°--7-7-7-7-7-7-------------------------------8-8-8-8-8-8--°-]
 D[-------------------------------------------------------------]
  |
  |Guitar 2
 d[-------------------------------------------------------------]
 A[-°---------------------------------------------------------°-]
 F[-----------------------------5-------------------------------]
 C[----2------------------------5-------------------------------]
 G[-°--2------------------------3-----------------------------°-]
 D[----0--------------------------------------------------------]

   Guitar 1
 d[-------------------------------------------------------------]
 A[-°---------------------------------------------------------°-]
 F[----------------------9-9-9-10-10-10-------------------------]
 C[----------------9-9-9----------------10-10-10----------------]
 G[-°--7-7-7-7-7-7-------------------------------8-8-8-8-8-8--°-]
 D[-------------------------------------------------------------]
  |
  |Guitar 2
 d[-------------------------------------------------------------]
 A[-°---------------------------------------------------------°-]
 F[-----------------------------5-------------------------------]
 C[----2------------------------5----------------3--------------]
 G[-°--2------------------------3----------------3------------°-]
 D[----0-----------------------------------------1--------------]



BREAK:

 (3x)
   Guitars 1 & 2
 d[-----------------------------------------------------------]
 A[-°---------------------------------------------------------]
 F[-------------------------------9-9-9-9-9-------------------]
 C[----2-2-2-2-2--------2-2-2-2-2-9-9-9-9-9--------2-2-2-2-2--]
 G[-°--2-2-2-2-2--------2-2-2-2-2-7-7-7-7-7--------2-2-2-2-2--]
 D[----0-0-0-0-0--------0-0-0-0-0------------------0-0-0-0-0--]

 d[-----------------------------------------------------------]
 A[---------------------------------------------------------°-]
 F[--10-10-10-10-10-------------------------------------------]
 C[--10-10-10-10-10--------2-2-2-2-2--------------------------]
 G[---8--8--8--8--8--------2-2-2-2-2------------------------°-]
 D[------------------------0-0-0-0-0-5--------8--------1------]


   Guitar 1
 d[-----------------------|----------------------]
 A[-°---------------------|----------------------]
 F[-----------------------|----------------------]
 C[-----------------------|----------------------]
 G[-°--2-2--7-7~------3-3-|-2-2--7~---2~---3~----]
 D[----0-0------------1-1-|-0-0------------------]
  |    PM_            PM_   PM_
  |
  |Guitar 2
 d[-----------------------|----------------------]
 A[-----------------------|--------------------°-]
 F[-----------------------|----------------------]
 C[-----------------------|----------------------]
 G[----2-2------------3-3-|-2-2------------3-3-°-]
 D[----0-0------------1-1-|-0-0------------1-1---]
       PM_            PM_   PM_            PM_


 d[-----------------------|----------------------]
 A[-----------------------|--------------------°-]
 F[-----------------------|----------------------]
 C[-----------------------|----------------------]
 G[----2-2--7-7~------3-3-|----5----8----------°-]
 D[----0-0------------1-1-|----------------------]
  |    PM_            PM_
  |
  |Guitar 2
 d[-----------------------|----------------------]
 A[-----------------------|--------------------°-]
 F[-----------------------|----------------------]
 C[-----------------------|----------------------]
 G[----2-2------------3-3-|-----------3-3--2-2-°-]
 D[----0-0------------1-1-|-----------1-1--0-0---]
       PM_            PM_             PM______

   Guitars 1 & 2
 d[-----------------------------------------------------------]
 A[-°---------------------------------------------------------]
 F[-----------------------------------------------------------]
 C[----2-2-2-2-2--------2-2-2-2-2-2-2-2-2-2--------2-2-2-2-2--]
 G[-°--2-2-2-2-2--------2-2-2-2-2-2-2-2-2-2--------2-2-2-2-2--]
 D[----0-0-0-0-0--------0-0-0-0-0-0-0-0-0-0--------0-0-0-0-0--]

 d[--------------------------------------------------------------------]
 A[------------------------------------------------------------------°-]
 F[--------------------------------------------------------------------]
 C[---2-2-2-2-2--------2-2-2-2-2-2-2-2-2-2-----------------2-2-2-2-2---]
 G[---2-2-2-2-2--------2-2-2-2-2-2-2-2-2-2-----------------2-2-2-2-2-°-]
 D[---0-0-0-0-0--------0-0-0-0-0-0-0-0-0-0-----------------0-0-0-0-0---]

 (1x)
   Guitars 1 & 2
 d[-----------------------------------------------------------]
 A[-°---------------------------------------------------------]
 F[-------------------------------9-9-9-9-9-------------------]
 C[----2-2-2-2-2--------2-2-2-2-2-9-9-9-9-9--------2-2-2-2-2--]
 G[-°--2-2-2-2-2--------2-2-2-2-2-7-7-7-7-7--------2-2-2-2-2--]
 D[----0-0-0-0-0--------0-0-0-0-0------------------0-0-0-0-0--]

 d[-----------------------------------------------------------]
 A[---------------------------------------------------------°-]
 F[--10-10-10-10-10-------------------------------------------]
 C[--10-10-10-10-10--------2-2-2-2-2--------------------------]
 G[---8--8--8--8--8--------2-2-2-2-2------------------------°-]
 D[------------------------0-0-0-0-0-5--------8--------1------]


BREAK 2:

   Guitar 1 (1x) (In fact this is a tapping but you can do this, it's almost the same!)
 d[-------------------------------------------------------------]
 A[-°---------------------------------------------------------°-]
 F[----------------9-9-9-9-9-9-10-10-10-------------------------]
 C[----------9-9-9----------------------10-10-10----------------]
 G[-°--7-7-7-------------------------------------8-8-8-8-8-8--°-]
 D[-------------------------------------------------------------]

 (2x)
   Guitar 1
 d[-------------------------------------------------------------]
 A[-°---------------------------------------------------------°-]
 F[----------------------9-9-9-10-10-10-------------------------]
 C[----------------9-9-9----------------10-10-10----------------]
 G[-°--7-7-7-7-7-7-------------------------------8-8-8-8-8-8--°-]
 D[-------------------------------------------------------------]
  |
  |Guitar 2
 d[-------------------------------------------------------------]
 A[-°---------------------------------------------------------°-]
 F[-----------------------------5-------------------------------]
 C[----2------------------------5-------------------------------]
 G[-°--2------------------------3-----------------------------°-]
 D[----0--------------------------------------------------------]

   Guitar 1
 d[-------------------------------------------------------------]
 A[-°---------------------------------------------------------°-]
 F[----------------------9-9-9-10-10-10-------------------------]
 C[----------------9-9-9----------------10-10-10----------------]
 G[-°--7-7-7-7-7-7-------------------------------8-8-8-8-8-8--°-]
 D[-------------------------------------------------------------]
  |
  |Guitar 2
 d[-------------------------------------------------------------]
 A[-°---------------------------------------------------------°-]
 F[-----------------------------5-------------------------------]
 C[----2------------------------5----------------3--------------]
 G[-°--2------------------------3----------------3------------°-]
 D[----0-----------------------------------------1--------------]


   Guitar 1
 d[-------------------------|-------------------------]
 A[-°-----------------------|-----------------------°-]
 F[--------10--9~~----------|--------10--9~~----------]
 C[----2---------------2-3--|--2---------------2-3----]
 G[-°--2---------------2-3--|--2---------------2-3--°-]
 D[----0---------------0-1--|--0---------------0-1----]
  |
  |Guitar 2
 d[---------------------------------------------------]
 A[-°-----------------------------------------------°-]
 F[----------------5-----------------------5----------]
 C[----2-----------5-----------2-----------5-----3----]
 G[-°--2-----------3-----------2-----------3-----3--°-]
 D[----0-----------------------0-----------------1----]



END (2x):

   Guitars 1 & 2
 d[----------------------------------------------------------]
 A[----------------------------------------------------------]
 F[----------------------------------------------------------]
 C[----------9-9-9---------10-10-10---------9-9-9------------]
 G[------7-7-----------8-8--------------7-7------------------]
 D[--0-0-----------0-0--------------0-0-----------0-1-3-1-3--]
                                                  PM_______

 d[----------------------------------------------------------]
 A[----------------------------------------------------------]
 F[----------------------------------------------------------]
 C[----------9-9-9---------12-12-12---------9-9-9------------]
 G[------7-7-----------8-8--------------7-7------------------]
 D[--0-0-----------0-0--------------0-0-----------0-1-3-1-3--]
                                                  PM_______
comments
We did not receive enough feedback on this tab! Please rate:
print report bad tab
1 2 3 4 5
1 comment total.
0 reply
Patdi wrote on May 23 2007, 10:41 pm

im not sure kus i dont play guitar but isnt there a tapping part in the song?

I want to post or [tab]
guest
You may want to rate the tab now too:
select rating
Please do not post tabs as comments. Select "correction" instead!