Oops, an error
Loading. Please wait.

Retribution Tab

142 views 1 this week
no commentswrite comment
1 2 3 4 5
please rate
Autoscroll
+/-
esc
set tempo
stop
Contributor
Tabbers playing skills
beginner
WARNING: You are trying to view
                                    content from Ultimate-Guitar.com
                                    in an unauthorized application,
                                    which is prohibited.

                                    Please use an official Ultimate
                                    Guitar Tabs application for iPhone,
                                    iPad or Android to access legitimate
                                    chords, guitar, bass, and drum tabs
                                    from Ultimate-Guitar.com database.

                                    Type "ultimate guitar tabs" in Apple
                                    App Store's or Android Market's
                                    search to find the application.
-------------------------------------------------------------------------------
Retribution - Behind Enemy Lines
One Nation Under The Iron Fist Of God
-------------------------------------------------------------------------------
Tabbed by: axeslash
Email: holmzito@yahoo.com

Tuning: Both guitars tune down 2 steps CFA#D#GC

Guitar 1:                                                 ----      
e|------------------------------------------------------|     |
B|------------------------------------------------------|     |
G|------------------------------------------------------|     |
D|-2--2--2--------------------2--2--2-------------------|     |
A|-2--2--2--------------------2--2--2-------------------|     |
E|-0--0--0--------------------0--0--0-------------------|     |
  [X--X--X]                  [X--X--X]                        |
Guitar 2:                                                     |
e|-------------------------------------------------------|    |
B|-------------------------------------------------------|    |
G|---------------------------------------5-5-5-5-5-5-5-5-|    |
D|-2--2--2----2-2-2-2-2-2-2-2-2--2--2--------------------|    |
A|-2--2--2--------------------2--2--2--------------------|    |
E|-0--0--0--------------------0--0--0--------------------|     \
  [X--X--X]                  [X--X--X]                          \
                                                                 Play 2 Times
Guitar 1:                                                       /
e|----------------------------------------------------|        /
B|----------------------------------------------------|       |
G|----------------------------------------------------|       |
D|-2--2--2--------------------8---7---5---7--5--7--5--|       |
A|-0--0--0--------------------8---7---5---7--5--7--5--|       |
E|-0--0--0--------------------6---5---3---5--3--5--3--|       |
  [X--X--X]                                                   |
Guitar 2:                                                     |
e|----------------------------------------------------|       |
B|----------------------------------------------------|       |
G|----------------------------------------------------|       |
D|-2--2--2----2-2-2-2-2-2-2-2-8---7---5---7--5--7--5--|       |
A|-2--2--2--------------------8---7---5---7--5--7--5--|       |
E|-0--0--0--------------------6---5---3---5--3--5--3--|       |
  [X--X--X]                                               ----

Guitars 1 & 2:                                               ---
e|---------------------------------------------------------|    |
B|---------------------------------------------------------|    |
G|-----------------------------------------3-3-3-3-3-3-3-3-|    |
D|-2--2--2--2--5-5-5-5-5-5-5-5-2--2--2--2------------------|    |
A|-2--2--2--2------------------2--2--2--2------------------|    |
E|-0--0--0--0------------------0--0--0--0------------------|     \
  [X--X--X--X]                [X--X--X--X]                        \
                                                                   Play 3 Times
Guitars 1 & 2:                                                    /
e|-----------------------------------------------------|         /
B|-----------------------------------------------------|        |
G|-----------------------------------------------------|        |
D|-2--2--2--2--5-5-5-5-5-5-5-5-8---7---5---7--5--7--5--|        |
A|-2--2--2--2------------------8---7---5---7--5--7--5--|        |
E|-0--0--0--0------------------6---5---3---5--3--5--3--|        |
  [X--X--X--X]                                               ---

Guitars 1 & 2:                                            
e|---------------------------------------------------------|
B|---------------------------------------------------------|
G|-----------------------------------------3-3-3-3-3-3-3-3-|
D|-2--2--2--2--5-5-5-5-5-5-5-5-2--2--2--2------------------|
A|-2--2--2--2------------------2--2--2--2------------------|
E|-0--0--0--0------------------0--0--0--0------------------|
  [X--X--X--X]                [X--X--X--X]

Guitars 1 & 2:
e|-----------------------------------------------------|
B|-----------------------------------------------------|
G|-----------------------------------------------------|
D|-2--2--2--2--5-5-5-5-5-5-5-5-8---7---5---7---5---7---|
A|-2--2--2--2------------------8---7---5---7---5---7---|
E|-0--0--0--0------------------6---5---3---5---3---5---|
  [X--X--X--X]

Guitars 1 & 2:
e|----------------------------------------------------------------------------|
B|----------------------------------------------------------------------------|
G|----------------------------------------------------------------------------|
D|-2--------------------------------------------------------------------X\\\\-|
A|-2--------------------------------------------------------------------X\\\\-|
E|-0--------------------------------------------------------------------X\\\\-|

Guitars 1 & 2:
e|------------------------------|
B|------------------------------|
G|-9-9--9-9-9--9-9-9--9---------|
D|-9-9--9-9-9--9-9-9--9-8-7-5-7-|
A|-7-7--7-7-7--7-7-7--7-8-7-5-7-|
E|----------------------6-5-3-5-| x3

Guitars 1 & 2:
e|---------------------------------------------------------|
B|---------------------------------------------------------|
G|-9-9--9-9-9--9-9-9--9------------------------------------|
D|-9-9--9-9-9--9-9-9--9-8-7-5-7-5-5--5-5-5--5-5-5--5-8--8--|
A|-7-7--7-7-7--7-7-7--7-8-7-5-7-5-5--5-5-5--5-5-5--5-8--8--|
E|----------------------6-5-3-5-3-3--3-3-3--3-3-3--3-6--6--|

Guitars 1 & 2:
e|------------------------------|
B|------------------------------|
G|-9-9--9-9-9--9-9-9--9---------|
D|-9-9--9-9-9--9-9-9--9-8-7-5-7-|
A|-7-7--7-7-7--7-7-7--7-8-7-5-7-|
E|----------------------6-5-3-5-| x3

Guitars 1 & 2:
e|---------------------------------------------------------|
B|---------------------------------------------------------|
G|-9-9--9-9-9--9-9-9--9------------------------------------|
D|-9-9--9-9-9--9-9-9--9-8-7-5-7-5-5--5-5-5--5-5-5--5-8--8--|
A|-7-7--7-7-7--7-7-7--7-8-7-5-7-5-5--5-5-5--5-5-5--5-8--8--|
E|----------------------6-5-3-5-3-3--3-3-3--3-3-3--3-6--6--|

Guitars 1 & 2:
e|---------------------------------------------------------------------------------------|
B|---------------------------------------------------------------------------------------|
G|-9-9--9-9-9--9-9-9--9-9-9--9-----------------------------------------------------------|
D|-9-9--9-9-9--9-9-9--9-9-9--9-8-8--8-8-8--8-8-8--8-8-8--8-5-5--5-5-5--5-8-8--8-5--9--9--|
A|-7-7--7-7-7--7-7-7--7-7-7--7-8-8--8-8-8--8-8-8--8-8-8--8-5-5--5-5-5--5-8-8--8-5--9--9--|
E|-----------------------------6-6--6-6-6--6-6-6--6-6-6--6-3-3--3-3-3--3-6-6--6-3--7--7--|

Guitars 1 & 2:
e|------------------------------|
B|------------------------------|
G|--9-9--9-9-9--9-9-9--9-9-9--9-|
D|--9-9--9-9-9--9-9-9--9-9-9--9-|
A|--7-7--7-7-7--7-7-7--7-7-7--7-|
E|------------------------------|

Guitars 1 & 2:
e|---------------------------------------------------------------------------------------|
B|---------------------------------------------------------------------------------------|
G|-9-9--9-9-9--9-9-9--9-9-9--9-----------------------------------------------------------|
D|-9-9--9-9-9--9-9-9--9-9-9--9-8-8--8-8-8--8-8-8--8-8-8--8-5-5--5-5-5--5-8-8--8-5--9--9--|
A|-7-7--7-7-7--7-7-7--7-7-7--7-8-8--8-8-8--8-8-8--8-8-8--8-5-5--5-5-5--5-8-8--8-5--9--9--|
E|-----------------------------6-6--6-6-6--6-6-6--6-6-6--6-3-3--3-3-3--3-6-6--6-3--7--7--|

Guitars 1 & 2:                                               ---
e|---------------------------------------------------------|    |
B|---------------------------------------------------------|    |
G|-----------------------------------------3-3-3-3-3-3-3-3-|    |
D|-2--2--2--2--5-5-5-5-5-5-5-5-2--2--2--2------------------|    |
A|-2--2--2--2------------------2--2--2--2------------------|    |
E|-0--0--0--0------------------0--0--0--0------------------|     \
  [X--X--X--X]                [X--X--X--X]                        \
                                                                   Play 4 Times
Guitars 1 & 2:                                                    /
e|-----------------------------------------------------|         /
B|-----------------------------------------------------|        |
G|-----------------------------------------------------|        |
D|-2--2--2--2--5-5-5-5-5-5-5-5-8---7---5---7---5---7---|        |
A|-2--2--2--2------------------8---7---5---7---5---7---|        |
E|-0--0--0--0------------------6---5---3---5---3---5---|        |
  [X--X--X--X]                                               ---

Guitars 1 & 2:
e|---------------------------------------------------------------------------------------|
B|---------------------------------------------------------------------------------------|
G|-9-9--9-9-9--9-9-9--9-9-9--9-----------------------------------------------------------|
D|-9-9--9-9-9--9-9-9--9-9-9--9-8-8--8-8-8--8-8-8--8-8-8--8-5-5--5-5-5--5-8-8--8-5--9--9--|
A|-7-7--7-7-7--7-7-7--7-7-7--7-8-8--8-8-8--8-8-8--8-8-8--8-5-5--5-5-5--5-8-8--8-5--9--9--|
E|-----------------------------6-6--6-6-6--6-6-6--6-6-6--6-3-3--3-3-3--3-6-6--6-3--7--7--|

Guitars 1 & 2:
e|------------------------------|
B|------------------------------|
G|--9-9--9-9-9--9-9-9--9-9-9--9-|
D|--9-9--9-9-9--9-9-9--9-9-9--9-|
A|--7-7--7-7-7--7-7-7--7-7-7--7-|
E|------------------------------|

Guitars 1 & 2:
e|---------------------------------------------------------------------------------------|
B|---------------------------------------------------------------------------------------|
G|-9-9--9-9-9--9-9-9--9-9-9--9-----------------------------------------------------------|
D|-9-9--9-9-9--9-9-9--9-9-9--9-8-8--8-8-8--8-8-8--8-8-8--8-5-5--5-5-5--5-8-8--8-5--9--9--|
A|-7-7--7-7-7--7-7-7--7-7-7--7-8-8--8-8-8--8-8-8--8-8-8--8-5-5--5-5-5--5-8-8--8-5--9--9--|
E|-----------------------------6-6--6-6-6--6-6-6--6-6-6--6-3-3--3-3-3--3-6-6--6-3--7--7--|

Guitars 1 & 2:                                               ---
e|---------------------------------------------------------|    |
B|---------------------------------------------------------|    |
G|-----------------------------------------3-3-3-3-3-3-3-3-|    |
D|-2--2--2--2--5-5-5-5-5-5-5-5-2--2--2--2------------------|    |
A|-2--2--2--2------------------2--2--2--2------------------|    |
E|-0--0--0--0------------------0--0--0--0------------------|     \
  [X--X--X--X]                [X--X--X--X]                        \
                                                                   Play 4 Times
Guitars 1 & 2:                                                    /
e|-----------------------------------------------------|         /
B|-----------------------------------------------------|        |
G|-----------------------------------------------------|        |
D|-2--2--2--2--5-5-5-5-5-5-5-5-8---7---5---7---5---7---|        |
A|-2--2--2--2------------------8---7---5---7---5---7---|        |
E|-0--0--0--0------------------6---5---3---5---3---5---|        |
  [X--X--X--X]                                               ---

Guitars 1 & 2
e|----------------------------------------------------------------------------|
B|----------------------11-11--11-10-10--10-10-10--10-------------------------|
G|-9-9--9-9-9--9-9-9--9-10-10--10--9--9---9--9--9---9-------------------------|
D|-9-9--9-9-9--9-9-9--9--8--8---8--7--7---7--7--7---7-8---7---5---7---5---7---|
A|-7-7--7-7-7--7-7-7--7-------------------------------8---7---5---7---5---7---|
E|----------------------------------------------------6---5---3---5---3---5---| x4

Guitars 1 & 2:
e|---------------------------------------------------------------------------------------|
B|---------------------------------------------------------------------------------------|
G|-9-9--9-9-9--9-9-9--9-9-9--9-----------------------------------------------------------|
D|-9-9--9-9-9--9-9-9--9-9-9--9-8-8--8-8-8--8-8-8--8-8-8--8-5-5--5-5-5--5-8-8--8-5--9--9--|
A|-7-7--7-7-7--7-7-7--7-7-7--7-8-8--8-8-8--8-8-8--8-8-8--8-5-5--5-5-5--5-8-8--8-5--9--9--|
E|-----------------------------6-6--6-6-6--6-6-6--6-6-6--6-3-3--3-3-3--3-6-6--6-3--7--7--|

Guitars 1 & 2:
e|------------------------------|
B|------------------------------|
G|--9-9--9-9-9--9-9-9--9-9-9--9-|
D|--9-9--9-9-9--9-9-9--9-9-9--9-|
A|--7-7--7-7-7--7-7-7--7-7-7--7-|
E|------------------------------|

Guitars 1 & 2:
e|---------------------------------------------------------------------------------------|
B|---------------------------------------------------------------------------------------|
G|-9-9--9-9-9--9-9-9--9-9-9--9-----------------------------------------------------------|
D|-9-9--9-9-9--9-9-9--9-9-9--9-8-8--8-8-8--8-8-8--8-8-8--8-5-5--5-5-5--5-8-8--8-5--9--9--|
A|-7-7--7-7-7--7-7-7--7-7-7--7-8-8--8-8-8--8-8-8--8-8-8--8-5-5--5-5-5--5-8-8--8-5--9--9--|
E|-----------------------------6-6--6-6-6--6-6-6--6-6-6--6-3-3--3-3-3--3-6-6--6-3--7--7--|

Guitars 1 & 2:                                               ---
e|---------------------------------------------------------|    |
B|---------------------------------------------------------|    |
G|-----------------------------------------3-3-3-3-3-3-3-3-|    |
D|-2--2--2--2--5-5-5-5-5-5-5-5-2--2--2--2------------------|    |
A|-2--2--2--2------------------2--2--2--2------------------|    |
E|-0--0--0--0------------------0--0--0--0------------------|     \
  [X--X--X--X]                [X--X--X--X]                        \
                                                                   Play 3 Times
Guitars 1 & 2:                                                    /
e|-----------------------------------------------------|         /
B|-----------------------------------------------------|        |
G|-----------------------------------------------------|        |
D|-2--2--2--2--5-5-5-5-5-5-5-5-8---7---5---7---5---7---|        |
A|-2--2--2--2------------------8---7---5---7---5---7---|        |
E|-0--0--0--0------------------6---5---3---5---3---5---|        |
  [X--X--X--X]                                               ---

Guitars 1 & 2:                                            
e|---------------------------------------------------------|
B|---------------------------------------------------------|
G|-----------------------------------------3-3-3-3-3-3-3-3-|
D|-2--2--2--2--5-5-5-5-5-5-5-5-2--2--2--2------------------|
A|-2--2--2--2------------------2--2--2--2------------------|
E|-0--0--0--0------------------0--0--0--0------------------|
  [X--X--X--X]                [X--X--X--X]

Guitars 1 & 2:
e|-----------------------------------------------------|
B|-----------------------------------------------------|
G|-----------------------------------------------------|
D|-2--2--2--2--5-5-5-5-5-5-5-5-8---7---5---7---5---7---|
A|-2--2--2--2------------------8---7---5---7---5---7---|
E|-0--0--0--0------------------6---5---3---5---3---5---|
  [X--X--X--X]

Guitars 1 & 2:
e|---------------------------------------|
B|---------------------------------------|
G|---------------------------------------|
D|-2--------------------------------2----|
A|-2--------------------------------2----|
E|-0--------------------------------0----|


|[x] palm mute
| /  slide up
| \  slide down
| h  hammer-on
| p  pull-off
| ~  vibrato
| +  harmonic
| x  Mute note
===============================================================================
comments
We did not receive enough feedback on this tab! Please rate:
print report bad tab
1 2 3 4 5
I want to post or [tab]
guest
You may want to rate the tab now too:
select rating
Please do not post tabs as comments. Select "correction" instead!