Oops, an error
Loading. Please wait.

The Global Cannibal Tab

564 views 3 this week
no commentswrite comment
1 2 3 4 5
worth learning
x 2
Autoscroll
+/-
esc
set tempo
stop
Contributor
Tabbers playing skills
beginner
Hey! There's an official Ultimate Guitar app which is ideal
for learning songs when you're away from computer. Get the app
WARNING: You are trying to view
                                    content from Ultimate-Guitar.com
                                    in an unauthorized application,
                                    which is prohibited.

                                    Please use an official Ultimate
                                    Guitar Tabs application for iPhone,
                                    iPad or Android to access legitimate
                                    chords, guitar, bass, and drum tabs
                                    from Ultimate-Guitar.com database.

                                    Type "ultimate guitar tabs" in Apple
                                    App Store's or Android Market's
                                    search to find the application.
-------------------------------------------------------------------------------
The Global Cannibal - Behind Enemy Lines
The Global Cannibal
-------------------------------------------------------------------------------
Tabbed by: axeslash
Email: holmzito@yahoo.com

Tuning: Both guitars tune down 1 and a half steps C#F#BEG#C#

Guitars 1 & 2:
e|-----------------------------------------------------------------|
B|-7-7-7-9-9-9-7-7-7-7-7-9-9-9-7-9-6-6-6-9-9-9-6-6-6-6-6-9-9-9-6-9-|
G|-8-8-8-8-8-8-8-8-8-8-8-8-8-8-8-8-7-7-7-7-7-7-7-7-7-7-7-7-7-7-7-7-|
D|-----------------------------------------------------------------|
A|-----------------------------------------------------------------|
E|-----------------------------------------------------------------|

Guitars 1 & 2:
e|-----------------------------------------------------------------|
B|-7-7-7-9-9-9-7-7-7-7-7-9-9-9-7-9-6-6-6-9-9-9-6-6-6-6-6-9-9-9-6-9-|
G|-8-8-8-8-8-8-8-8-8-8-8-8-8-8-8-8-7-7-7-7-7-7-7-7-7-7-7-7-7-7-7-7-|
D|-----------------------------------------------------------------|
A|-----------------------------------------------------------------|
E|-----------------------------------------------------------------|
Guitar 2:
e|-----------------------------------------------------------------|
B|-----------------------------------------------------------------|
G|-8-8\----------------------------7-7\\---------------------------|
D|-8-8\----------------------------7-7\\---------------------------|
A|-6-6\----------------------------5-5\\---------------------------|
E|-----------------------------------------------------------------| x2

Guitars 1 & 2:
e|-----------------------------------------------------------------|
B|-7-7-7-9-9-9-7-7-7-7-7-9-9-9-7-9-6-6-6-9-9-9-6-6-6-6-6-9-9-9-6-9-|
G|-8-8-8-8-8-8-8-8-8-8-8-8-8-8-8-8-7-7-7-7-7-7-7-7-7-7-7-7-7-7-7-7-|
D|-----------------------------------------------------------------|
A|-----------------------------------------------------------------|
E|-----------------------------------------------------------------|
Guitar 2:
e|-----------------------------------------------------------------|
B|-----------------------------------------------------------------|
G|-8-8-8-8-8-8-8-8-8-8-8-8-8-8-8-8-7-7\\---------------------------|
D|-8-8-8-8-8-8-8-8-8-8-8-8-8-8-8-8-7-7\\---------------------------|
A|-6-6-6-6-6-6-6-6-6-6-6-6-6-6-6-6-5-5\\---------------------------|
E|-----------------------------------------------------------------| x2

Guitar 1:
Guitars 1 & 2:
e|-----------------------------------------------------------------|
B|-7-7-7-9-9-9-7-7-7-7-7-9-9-9-7-9-6-6-6-9-9-9-6-6-6-6-6-9-9-9-6-9-|
G|-8-8-8-8-8-8-8-8-8-8-8-8-8-8-8-8-7-7-7-7-7-7-7-7-7-7-7-7-7-7-7-7-|
D|-----------------------------------------------------------------|
A|-----------------------------------------------------------------|
E|-----------------------------------------------------------------|
Guitar 2:
e|-----------------------------------------------------------------|
B|-----------------------------------------------------------------|
G|-8-8-8-8-8-8-8-8-8-8-8-8-8-8-8-8-7-7-7-7-7-7-7-7-7-7-7-7-7-7-7-7-|
D|-8-8-8-8-8-8-8-8-8-8-8-8-8-8-8-8-7-7-7-7-7-7-7-7-7-7-7-7-7-7-7-7-|
A|-6-6-6-6-6-6-6-6-6-6-6-6-6-6-6-6-5-5-5-5-5-5-5-5-5-5-5-5-5-5-5-5-|
E|-----------------------------------------------------------------| x4

Guitars 1 & 2:
e|------------------------|
B|------------------------|
G|-8-8----8-8----8--------|
D|-8-8----8-8----8--------|
A|-6-6----6-6----6--------|
E|------------------------|

Guitars 1 & 2:
e|----------------------------------------------------------------|
B|----------------------------------------------------------------|
G|-8-8--8-8-8--8-8-8--8-11---8---11---7-7--7-7-7--7-7-7--7-7-7--7-|
D|-8-8--8-8-8--8-8-8--8-11---8---11---7-7--7-7-7--7-7-7--7-7-7--7-|
A|-6-6--6-6-6--6-6-6--6--9---6----9---5-5--5-5-5--5-5-5--5-5-5--5-|
E|----------------------------------------------------------------|

Guitars 1 & 2:
e|-----------------------------------------------------------------|
B|---------------------------------------------------------10--10--|
G|-8-8--8-8-8--8-8-8--8-11---8---11---7-7--7-7-7--7-7-7--7--9---9--|
D|-8-8--8-8-8--8-8-8--8-11---8---11---7-7--7-7-7--7-7-7--7--7---7--|
A|-6-6--6-6-6--6-6-6--6--9---6----9---5-5--5-5-5--5-5-5--5---------|
E|-----------------------------------------------------------------|

Guitars 1 & 2:
e|----------------------------------------------------------------|
B|----------------------------------------------------------------|
G|-8-8--8-8-8--8-8-8--8-11---8---11---7-7--7-7-7--7-7-7--7-7-7--7-|
D|-8-8--8-8-8--8-8-8--8-11---8---11---7-7--7-7-7--7-7-7--7-7-7--7-|
A|-6-6--6-6-6--6-6-6--6--9---6----9---5-5--5-5-5--5-5-5--5-5-5--5-|
E|----------------------------------------------------------------|

Guitars 1 & 2:
e|-----------------------------------------------------------------|
B|---------------------------------------------------------10--10--|
G|-8-8--8-8-8--8-8-8--8-11---8---11---7-7--7-7-7--7-7-7--7--9---9--|
D|-8-8--8-8-8--8-8-8--8-11---8---11---7-7--7-7-7--7-7-7--7--7---7--|
A|-6-6--6-6-6--6-6-6--6--9---6----9---5-5--5-5-5--5-5-5--5---------|
E|-----------------------------------------------------------------|

Guitars 1 & 2:
e|----------------|
B|----------------|
G|-8--11--8-8-9-8-|
D|-8--11--8-8-7-6-|
A|-6---9--6-6-----|
E|----------------| x8

Guitars 1 & 2:
e|----------------------------------------------------------------|
B|----------------------------------------------------------------|
G|-8-8--8-8-8--8-8-8--8-11---8---11---7-7--7-7-7--7-7-7--7-7-7--7-|
D|-8-8--8-8-8--8-8-8--8-11---8---11---7-7--7-7-7--7-7-7--7-7-7--7-|
A|-6-6--6-6-6--6-6-6--6--9---6----9---5-5--5-5-5--5-5-5--5-5-5--5-|
E|----------------------------------------------------------------|

Guitars 1 & 2:
e|-----------------------------------------------------------------|
B|---------------------------------------------------------10--10--|
G|-8-8--8-8-8--8-8-8--8-11---8---11---7-7--7-7-7--7-7-7--7--9---9--|
D|-8-8--8-8-8--8-8-8--8-11---8---11---7-7--7-7-7--7-7-7--7--7---7--|
A|-6-6--6-6-6--6-6-6--6--9---6----9---5-5--5-5-5--5-5-5--5---------|
E|-----------------------------------------------------------------|

Guitars 1 & 2:
e|----------------------------------------------------------------|
B|----------------------------------------------------------------|
G|-8-8--8-8-8--8-8-8--8-11---8---11---7-7--7-7-7--7-7-7--7-7-7--7-|
D|-8-8--8-8-8--8-8-8--8-11---8---11---7-7--7-7-7--7-7-7--7-7-7--7-|
A|-6-6--6-6-6--6-6-6--6--9---6----9---5-5--5-5-5--5-5-5--5-5-5--5-|
E|----------------------------------------------------------------|

Guitars 1 & 2:
e|-----------------------------------------------------------------|
B|---------------------------------------------------------10--10--|
G|-8-8--8-8-8--8-8-8--8-11---8---11---7-7--7-7-7--7-7-7--7--9---9--|
D|-8-8--8-8-8--8-8-8--8-11---8---11---7-7--7-7-7--7-7-7--7--7---7--|
A|-6-6--6-6-6--6-6-6--6--9---6----9---5-5--5-5-5--5-5-5--5---------|
E|-----------------------------------------------------------------|

Guitars 1 & 2:
e|----------------|
B|----------------|
G|-8--11--8-8-9-8-|
D|-8--11--8-8-7-6-|
A|-6---9--6-6-----|
E|----------------| x8

Guitars 1 & 2:
e|--------------------------------------------------------|
B|--------------------------------------------------------|
G|-8-8--8-8-8--8-8-8--8-8-8--8---------------6-6--6-------|
D|-8-8--8-8-8--8-8-8--8-8-8--8-4-4--4-4-4--4-6-6--6-2--2--|
A|-6-6--6-6-6--6-6-6--6-6-6--6-4-4--4-4-4--4-4-4--4-2--2--|
E|-----------------------------2-2--2-2-2--2--------0--0--|

Guitars 1 & 2:
e|---------------------------------------------------------|
B|---------------------------------------------------------|
G|-8-8--8-8-8--8-8-8--8-8-8--8---------------6-6--6-7-7--7-|
D|-8-8--8-8-8--8-8-8--8-8-8--8-4-4--4-4-4--4-6-6--6-7-7--7-|
A|-6-6--6-6-6--6-6-6--6-6-6--6-4-4--4-4-4--4-4-4--4-5-5--5-|
E|-----------------------------2-2--2-2-2--2---------------|

Guitars 1 & 2:
e|--------------------------------------------------------|
B|--------------------------------------------------------|
G|-8-8--8-8-8--8-8-8--8-8-8--8---------------6-6--6-------|
D|-8-8--8-8-8--8-8-8--8-8-8--8-4-4--4-4-4--4-6-6--6-2--2--|
A|-6-6--6-6-6--6-6-6--6-6-6--6-4-4--4-4-4--4-4-4--4-2--2--|
E|-----------------------------2-2--2-2-2--2--------0--0--|

Guitars 1 & 2:
e|---------------------------------------------------------|
B|---------------------------------------------------------|
G|-8-8--8-8-8--8-8-8--8-8-8--8---------------6-6--6-7-7--7-|
D|-8-8--8-8-8--8-8-8--8-8-8--8-4-4--4-4-4--4-6-6--6-7-7--7-|
A|-6-6--6-6-6--6-6-6--6-6-6--6-4-4--4-4-4--4-4-4--4-5-5--5-|
E|-----------------------------2-2--2-2-2--2---------------|

Guitars 1 & 2:
e|----------------------------------------------------------------|
B|----------------------------------------------------------------|
G|-8-8--8-8-8--8-8-8--8-11---8---11---7-7--7-7-7--7-7-7--7-7-7--7-|
D|-8-8--8-8-8--8-8-8--8-11---8---11---7-7--7-7-7--7-7-7--7-7-7--7-|
A|-6-6--6-6-6--6-6-6--6--9---6----9---5-5--5-5-5--5-5-5--5-5-5--5-|
E|----------------------------------------------------------------|

Guitars 1 & 2:
e|-----------------------------------------------------------------|
B|---------------------------------------------------------10--10--|
G|-8-8--8-8-8--8-8-8--8-11---8---11---7-7--7-7-7--7-7-7--7--9---9--|
D|-8-8--8-8-8--8-8-8--8-11---8---11---7-7--7-7-7--7-7-7--7--7---7--|
A|-6-6--6-6-6--6-6-6--6--9---6----9---5-5--5-5-5--5-5-5--5---------|
E|-----------------------------------------------------------------|

Guitars 1 & 2:
e|----------------------------------------------------------------|
B|----------------------------------------------------------------|
G|-8-8--8-8-8--8-8-8--8-11---8---11---7-7--7-7-7--7-7-7--7-7-7--7-|
D|-8-8--8-8-8--8-8-8--8-11---8---11---7-7--7-7-7--7-7-7--7-7-7--7-|
A|-6-6--6-6-6--6-6-6--6--9---6----9---5-5--5-5-5--5-5-5--5-5-5--5-|
E|----------------------------------------------------------------|

Guitars 1 & 2:
e|-----------------------------------------------------------------|
B|---------------------------------------------------------10--10--|
G|-8-8--8-8-8--8-8-8--8-11---8---11---7-7--7-7-7--7-7-7--7--9---9--|
D|-8-8--8-8-8--8-8-8--8-11---8---11---7-7--7-7-7--7-7-7--7--7---7--|
A|-6-6--6-6-6--6-6-6--6--9---6----9---5-5--5-5-5--5-5-5--5---------|
E|-----------------------------------------------------------------|

Guitars 1 & 2:
e|----------------|
B|----------------|
G|-8--11--8-8-9-8-|
D|-8--11--8-8-7-6-|
A|-6---9--6-6-----|
E|----------------| x7

Guitars 1 & 2:
e|---------------------|
B|---------------------|
G|-8--11--8-8-9-8-8----|
D|-8--11--8-8-7-6-8----|
A|-6---9--6-6-----6----|
E|---------------------|


| /  slide up
| \  slide down
| h  hammer-on
| p  pull-off
| ~  vibrato
| +  harmonic
| x  Mute note
===============================================================================
comments
We did not receive enough feedback on this tab! Please rate:
print report bad tab
1 2 3 4 5
I want to post or [tab]
guest
You may want to rate the tab now too:
select rating
Please do not post tabs as comments. Select "correction" instead!