Oops, an error
Loading. Please wait.

Nantes Tab

ver1
ver1

Whole song

More versions @911Tabs.com
19,553 views 15 this week
1 commentread comment
1 2 3 4 5
excellent!
x 3
Autoscroll
+/-
esc
set tempo
stop
Contributor
WARNING: You are trying to view
                                    content from Ultimate-Guitar.com
                                    in an unauthorized application,
                                    which is prohibited.

                                    Please use an official Ultimate
                                    Guitar Tabs application for iPhone,
                                    iPad or Android to access legitimate
                                    chords, guitar, bass, and drum tabs
                                    from Ultimate-Guitar.com database.

                                    Type "ultimate guitar tabs" in Apple
                                    App Store's or Android Market's
                                    search to find the application.
Nantes ~ Beirut

You can just use a pick for this song, but it's pretty fun to use your middle finger to 
strings while playing with a pick simueltaneously.

Intro:

    Am            G          C
|------5------5------3----3-----3-----3------3---3---|
|------5------5------3----3-----5-----5------5---5---|
|------5------5------4----4-----5-----5------5---5---|
|---7-------7---7-5-------------5-----5------5---5---|
|----------------------------3------3---3-3----------|
|----------------------------------------------------|

slowly run your pick up the chord to hit the notes quickly but individually
|---5-----5-5--5-5--3-----3-3--3-3------3---3-3--3---3------3-3--3-------|
|--------5--5----5-------3--3----3---------5--5----5-------5--5----5-----|
|-------5--------5------4--------4--------5--------5------5--------5-----|
|---7--7-------7--7-5--5-------5---5-----5---------5-----5---------5-----|
|------------------------------------3--3--------3---3--3--------3---3---|
|------------------------------------------------------------------------|

Alternative chords:
    Am    G     C
|---5-----7-----8---|
|---5-----8-----8---|
|---5-----7-----9---|
|---7-----9-----10--|
|---------10--------|
|-------------------|

Horn part:
|----------------------------------------------------|
|------------5-----------5--8--5--------8--5---------|
|------5--7--------5--7-----------7--5--------7--5---|
|---7-----------7------------------------------------|
|----------------------------------------------------|
|----------------------------------------------------|

Violin part(same time as horn)
|--------------------------------|
|---5~~~-------10--5------5~~~---|
|----------5h7--------7----------|
|--------------------------------|
|--------------------------------|
|--------------------------------|

Accordian part during some singing
|-----------------------------------------------------------------8-------|
|-------5-----5---------8-----8---8------8------8---8------8--------8-----|
|-----5-----5-----5---7-----7---7------9------9---9------9------9-----9---|
|---7-----7-----7---9-----9---------10-----10---------10-----10-----------|
|-------------------------------------------------------------------------|
|-------------------------------------------------------------------------|

Bassline:
|--------------------------------------------------|
|--------------------------------------------------|
|---0-------0---2-------2--3-------2---3-------3---|
|-------0-0---0-----3-3--------3-3---3-----3-3-----|

you can play it an octave up if it's too deep.
comments
We did not receive enough feedback on this tab! Please rate:
1 2 3 4 5
1 comment total.
0 reply
captainpanic wrote on July 20 2009, 04:23 pm

Capo VI

I want to post or [tab]
guest
You may want to rate the tab now too:
select rating
Please do not post tabs as comments. Select "correction" instead!