Oops, an error
Loading. Please wait.

Treaste Tab

ver1
ver1

Whole song

Interactive

More versions @911Tabs.com
757 views 3 this week
no commentswrite comment
1 2 3 4 5
excellent!
x 1
Autoscroll
+/-
esc
set tempo
stop
Contributor
Difficulty
intermediate
WARNING: You are trying to view
                                    content from Ultimate-Guitar.com
                                    in an unauthorized application,
                                    which is prohibited.

                                    Please use an official Ultimate
                                    Guitar Tabs application for iPhone,
                                    iPad or Android to access legitimate
                                    chords, guitar, bass, and drum tabs
                                    from Ultimate-Guitar.com database.

                                    Type "ultimate guitar tabs" in Apple
                                    App Store's or Android Market's
                                    search to find the application.
Be'Lakor
Tre'Aster
The Frail Tide
nice-beard@hotmail.com

Guitar 1 (EBGDAE)
Guitar 2 (EBGDAE)

This is all done by ear and originally I played it in Drop C but tabbed it to it's 
correct tunning.
The solo might not be 100% correct and some of the parts I haven't quite figured it out 
yet, but everything else is pretty much correct.

E-mail me for mistakes.

Hope you enjoy.


Intro

Guitar: 1 EBGDAE

E|-------------------------------------------------------------------|
B|-------------------------------------------------------------------|
G|-------------------------------------------------------------------|
D|-5-5----5-5-5----5-5----5-5-5--------------------------------------|
A|-5-5----5-5-5----5-5----5-5-5--------------------------------------|
E|-3-3----3-3-3----3-3----3-3-3--------------------------------------|
   . .    . . .    . .    . . .

E|------------------------------------------------------------------|
B|------------------------------------------------------------------|
G|------------------------------------------------------------------|
D|-5-5----5-5-5----5-5----5-----------------------------------------|
A|-5-5----5-5-5----5-5----5-----------------------------------------|
E|-3-3----3-3-3----3-3----3-----------------------------------------|
   . .    . . .    . .    .


E|-------------------------------------------------------------------|
B|-------------------------------------------------------------------|
G|-------------------------------------------------------------------|
D|-2~~~--------------------------------------------------------------|
A|-2~~~--------------------------------------------------------------|
E|-0~~~--------------------------------------------------------------|




E|-------------------------------------------------------------------|
B|-------------------------------------------------------------------|
G|-------------------------------------------------------------------|
D|-2-2-2-2-2-2-2-2-2-2-2-2-2-2-2-2-----------------------------------|
A|-2-2-2-2-2-2-2-2-2-2-2-2-2-2-2-2-----------------------------------|
E|-0-0-0-0-0-0-0-0-0-0-0-0-0-0-0-0-----------------------------------| X4
   . . . . . . . . . . . . .   .



Both Guitars

E|-------------------------------------------------------------------------|
B|-------------------------------------------------------------------------|
G|------------------5-5-5-5-5-5-5-5--7-7-7-7-7-7-7-7-----------------------|
D|-2-2-2-2-2-2-2-2--5-5-5-5-5-5-5-5--7-7-7-7-7-7-7-7--5--2-2-2-2-2-2-2-2---|
A|-2-2-2-2-2-2-2-2--3-3-3-3-3-3-3-3--5-5-5-5-5-5-5-5--5--2-2-2-2-2-2-2-2---|
E|-0-0-0-0-0-0-0-0------------------------------------3--0-0-0-0-0-0-0-0---| X2




Verse


Guitar: 2

E|-------------------------------------------------------------------|
B|-------------------------------------------------------------------|
G|--11-11-11-11-12-12-12-12-9-9-9-9-9-9-9-9-9-9-9-9-9-9--------------|
D|--x--x--x--x--x--x--x--x--x-x-x-x-x-x-x-x-x-x-x-x-x-x--------------|
A|--9--9--9--9--10-10-10-10-7-7-7-7-7-7-7-7-7-7-7-7-7-7--------------|
E|-------------------------------------------------------------------|X3
       .  .  .     .  .  .    . .   . . .   . . .   . .



E|-------------------------------------------------------------------|
B|-------------------------------------------------------------------|
G|--11-11-11-11-12-12-12-12-8-8-8-8-8-8-8-8-8-8-8-8-8-8--------------|
D|--x--x--x--x--x--x--x--x--x-x-x-x-x-x-x-x-x-x-x-x-x-x--------------|
A|--9--9--9--9--10-10-10-10-6-6-6-6-6-6-6-6-6-6-6-6-6-6--------------|
E|-------------------------------------------------------------------|
       .  .  .     .  .  .    . .   . . .   . . .   . .



E|-------------------------------------------------------------------|
B|-------------------------------------------------------------------|
G|--11-11-11-11-12-12-12-12-9-9-9-9-14-14-14-14-14-14-7-7------------|
D|--x--x--x--x--x--x--x--x--x-x-x-x-x--x--x--x--x--x--x-x------------|
A|--9--9--9--9--10-10-10-10-7-7-7-7-12-12-12-12-10-10-9-9------------|
E|-------------------------------------------------------------------|X3

E|-------------------------------------------------------------------|
B|-------------------------------------------------------------------|
G|--11-11-11-11-12-12-12-12-8-8-8-8-8-8-8-8-8------------------------|
D|--x--x--x--x--x--x--x--x--x-x-x-x-x-x-x-x-x------------------------|
A|--9--9--9--9--10-10-10-10-6-6-6-6-6-6-6-6-6------------------------|
E|-------------------------------------------------------------------|


Both Guitars

E|-------------------------------------------------------------------|
B|-------------------------------------------------------------------|
G|-------------------------------------------------------------------|
D|-2--2--------------------------------------------------------------|
A|-2--2--------------------------------------------------------------|
E|-0--0--------------------------------------------------------------|



Guitar: 1

E|-------------------------------------------------------------------|
B|-------------------------------------------------------------------|
G|----------------------------------------4--------------------------|
D|-----2---4--5---4---------------------------5---4---2--------------|
A|-------------------------------------------------------------------|
E|-0-0---0--0---0------0-0-0-0-0-0----0-0---0---0---0---0-0-0-0-0-0--|
   . .   .  .   .      . . . . . .    . .   .   .   .   . . . . . .

E|-------------------------------------------------------------------|
B|-------------------------------------------------------------------|
G|-----2---4---5---4----------------------4--------------------------|
D|--------------------------------------------5---4------------------|
A|-3-3---3---3---3-----3-3-3-3-3-3----5-5---5---5---5--6-6-6-6-6-----|
E|-------------------------------------------------------------------|X2
   . .   .   .   .     . . . . . .    . .   .   .   .


Chorus

Guitar: 1

E|-------------------------------------------------------------------|
B|-------------------------------------------------------------------|
G|-----------------------------5-------------7--8--------------------|
D|-2---------------------------5-------------7--8--------------------|
A|-2---------------------------3-------------5--6--------------------|
E|-0-----------------------------------------------------------------|

Guitar: 2

E|------3-5-7-5-3----8-7-5--7----3-5-7-5-3----3-5-7-5/8--------------|
B|-------------------------------------------------------------------|
G|-------------------------------------------------------------------|
D|-------------------------------------------------------------------|
A|-------------------------------------------------------------------|
E|-------------------------------------------------------------------|X2


Solo

Guitar: 2

E|-52222222-42222222-52222222-42222222-52222222----------------------|
B|-------------------------------------------------------------------|
G|-------------------------------------------------------------------|
D|-------------------------------------------------------------------|
A|-------------------------------------------------------------------|
E|-------------------------------------------------------------------|

E|-7777777777777777--10--10h12h14p12p10h12----17^--17^--17^--17^--17^-|
B|--------------------------------------------------------------------|
G|--------------------------------------------------------------------|
D|--------------------------------------------------------------------|
A|--------------------------------------------------------------------|
E|--------------------------------------------------------------------|

E|15h16p15h16p15h16p15h16p15h16p15h16----13h15h16p15p14--13h15h16p15p13--|
B|-----------------------------------------------------------------------|
G|-----------------------------------------------------------------------|
D|-----------------------------------------------------------------------|
A|-----------------------------------------------------------------------|
E|-----------------------------------------------------------------------|

E|-15----------------------------------------------------------------|
B|-------------------------------------------------------------------|
G|----------------------14-------------------------------------------|
D|-------14----14-16-17----17-16-14-16-16---17----16-----------------|
A|-------------------------------------------------------------------|
E|-------------------------------------------------------------------|

E|-------------------------------------------------------17-----|
B|-------------------------------------16-17-19-17-19-20----20--|
G|----------14-16-17-16-17-19-17-19-21--------------------------|
D|-14-16-17-----------------------------------------------------|
A|--------------------------------------------------------------|
E|--------------------------------------------------------------|

E|-17-19-17-19-20-19-20-22-20-19-20-22^-22^-22^-22^-22^--|
B|-------------------------------------------------------|
G|-------------------------------------------------------|
D|-------------------------------------------------------|
A|-------------------------------------------------------|
E|-------------------------------------------------------|






Guitar: 1

E|-------------------------------------------------------------------|
B|-------------------------------------------------------------------|
G|----------------------------------------4--------------------------|
D|-----2---4--5---4---------------------------5---4---2--------------|
A|-------------------------------------------------------------------|
E|-0-0---0--0---0------0-0-0-0-0-0----0-0---0---0---0---0-0-0-0-0-0--|
   . .   .  .   .      . . . . . .    . .   .   .   .   . . . . . .

E|-------------------------------------------------------------------|
B|-------------------------------------------------------------------|
G|-----2---4---5---4----------------------4--------------------------|
D|--------------------------------------------5---4------------------|
A|-3-3---3---3---3-----3-3-3-3-3-3----5-5---5---5---5--6-6-6-6-6-----|
E|-------------------------------------------------------------------|X2
   . .   .   .   .     . . . . . .    . .   .   .   .


Chorus

Guitar: 1

E|-------------------------------------------------------------------|
B|-------------------------------------------------------------------|
G|-----------------------------5-------------7---8-------------------|
D|-2---------------------------5-------------7---8-------------------|
A|-2---------------------------3-------------5---6-------------------|
E|-0-----------------------------------------------------------------|

Guitar: 2

E|------3-5-7-5-3----8-7-5--7----3-5-7-5-3----3-5-7-5/8--------------|
B|-------------------------------------------------------------------|
G|-------------------------------------------------------------------|
D|-------------------------------------------------------------------|
A|-------------------------------------------------------------------|
E|-------------------------------------------------------------------|X2


E|-------------------------|
B|-------------------------|
G|-------------------------|
D|-2-----------------------|
A|-2-----------------------|
E|-0-----------------------|


E|-8-----------------------|
B|-------------------------|
G|-------------------------|
D|-------------------------|
A|-------------------------|
E|-------------------------|



Piano


Bridge:

E|-------------------------|
B|-------------------------|
G|-------------------------|
D|-2----5----4-------------|
A|-2----5----4-------------|
E|-0----3----2-------------|X2


E|-------------------------------------------------------------------|
B|-------------------------------------------------------------------|
G|-------------------------------------------------------------------|
D|-2-2-2-2-2-2-2---5-5-5-5-5-5-5-5--4-4-4-4-4-4-4-4-4-4-4-4-4-4-4-4--|
A|-2-2-2-2-2-2-2---5-5-5-5-5-5-5-5--4-4-4-4-4-4-4-4-4-4-4-4-4-4-4-4--|
E|-0-0-0-0-0-0-0---3-3-3-3-3-3-3-3--2-2-2-2-2-2-2-2-2-2-2-2-2-2-2-2--|X2
     . . . . . .     . . . . . . .    . . . . . . . . . . . . . . .

E|-------------------------------------------------------------------|
B|-------------------------------------------------------------------|
G|-------------------------------------------------------------------|
D|-2-2-2-2-2-2-2---5-5-5-5-5-5-5-5--4-4-4-4-4-4-4-4-4-4-4-4-4-4-4-4--|
A|-2-2-2-2-2-2-2---5-5-5-5-5-5-5-5--4-4-4-4-4-4-4-4-4-4-4-4-4-4-4-4--|
E|-0-0-0-0-0-0-0---3-3-3-3-3-3-3-3--2-2-2-2-2-2-2-2-2-2-2-2-2-2-2-2--|X2


Verse(2)


Guitar: 2


E|-------------------------------------------------------------------|
B|-------------------------------------------------------------------|
G|--11-11-11-11-12-12-12-12-9-9-9-9-14-14-14-14-14-14-7-7------------|
D|--x--x--x--x--x--x--x--x--x-x-x-x-x--x--x--x--x--x--x-x------------|
A|--9--9--9--9--10-10-10-10-7-7-7-7-12-12-12-12-10-10-9-9------------|
E|-------------------------------------------------------------------|X3

E|-------------------------------------------------------------------|
B|-------------------------------------------------------------------|
G|--11-11-11-11-12-12-12-12-8-8-8-8-8-8-8-8-8------------------------|
D|--x--x--x--x--x--x--x--x--x-x-x-x-x-x-x-x-x------------------------|
A|--9--9--9--9--10-10-10-10-6-6-6-6-6-6-6-6-6------------------------|
E|-------------------------------------------------------------------|



Outro:

Guitar: 2

E|-0-0--8--0-0--7--0-0--5--0-0--5--0-0--5h7--|
B|-------------------------------------------|
G|-------------------------------------------|
D|-------------------------------------------|
A|-------------------------------------------|
E|-------------------------------------------|X5
   . .     . .     . .     . .     . .

Both Guitars End On:

E|-------------------------|
B|-------------------------|
G|-------------------------|
D|-2-----------------------|
A|-2-----------------------|
E|-0-----------------------|

Song Order:

Intro
Verse
Chorus
Solo
Second Part of Verse
Chorus
Bridge
Verse(2)
Outro
comments
We did not receive enough feedback on this tab! Please rate:
print report bad tab
1 2 3 4 5
I want to post or [tab]
guest
You may want to rate the tab now too:
select rating
Please do not post tabs as comments. Select "correction" instead!