Oops, an error
Loading. Please wait.

Belle And Sebastian Bass Tab

1,050 views 3 this week
no commentswrite comment
1 2 3 4 5
please rate
add to favorites launch autoscroll
font size
0
reset
Autoscroll
+/-
esc
set tempo
stop
Contributor
WARNING: You are trying to view
                                    content from Ultimate-Guitar.com
                                    in an unauthorized application,
                                    which is prohibited.

                                    Please use an official Ultimate
                                    Guitar Tabs application for iPhone,
                                    iPad or Android to access legitimate
                                    chords, guitar, bass, and drum tabs
                                    from Ultimate-Guitar.com database.

                                    Type "ultimate guitar tabs" in Apple
                                    App Store's or Android Market's
                                    search to find the application.
Belle & Sebastian: Belle & Sebastian

    G                               C
 ---1-+-2-+-3-+-4-+-1-+-2-+-3-+-4-+-1-+-2-+-3-+-4-+-1-+-2-+-3-+-4-+-|
G-------------------------------------------------------------------|
D-------------------------------------------------------------------|
A-------------------------------------------------------------------|
E-------------------------------------------------------------------|

    G                               C
 ---1-+-2-+-3-+-4-+-1-+-2-+-3-+-4-+-1-+-2-+-3-+-4-+-1-+-2-+-3-+-4-+-|
G-------------------------------------------------------------------|
D-------------------------------------------------------------------|
A-------------------------------------------------------------------|
E---3---------------------------------------------------------------|

    G                               C
 ---1-+-2-+-3-+-4-+-1-+-2-+-3-+-4-+-1-+-2-+-3-+-4-+-1-+-2-+-3-+-4-+-|
G---------------------------------------------------5-------4-------|
D-------------------------5-----------------------------------------|
A-----------------------------------3-------------------------------|
E---3---------------3-----------------------------------------------|

    G                               C
 ---1-+-2-+-3-+-4-+-1-+-2-+-3-+-4-+-1-+-2-+-3-+-4-+-1-+-2-+-3-+-4-+-|
G---------------------------------------------------5-------4-------|
D---5---------------------------------------------------------------|
A-----------------------------------3-------------------------------|
E-------------------------3-----------------------------------------|

    Am              F#              Bm              C
 ---1-+-2-+-3-+-4-+-1-+-2-+-3-+-4-+-1-+-2-+-3-+-4-+-1-+-2-+-3-+-4-+-|
G-------------------------------------------------------------------|
D-------------------4-----------------------------------------------|
A---0-------------------------------2---------------3---------------|
E-------------------------2-----------------------------------------|

    C
 ---1-+-2-+-3-+-4-+-|
G-------------------|
D-------------------|
A---3-------------5-|
E-------------------|

    G                               C
 ---1-+-2-+-3-+-4-+-1-+-2-+-3-+-4-+-1-+-2-+-3-+-4-+-1-+-2-+-3-+-4-+-|
G-------------------------------------------------------------------|
D---5-5-----5-5-----5-5-----5-5-------------------------------------|
A---------5-------5-------5---------3-3-----3-3-----3-3-----3-3---5-|
E---------------------------------3-------3-------3-------3---------|

    G                               C
 ---1-+-2-+-3-+-4-+-1-+-2-+-3-+-4-+-1-+-2-+-3-+-4-+-1-+-2-+-3-+-4-+-|
G-------------------------------------------------------------------|
D---5-5-----5-5-----5-5-----5-5-------------------------------------|
A---------5-------5-------5---------3-3-----3-3-----3-3-----3-3-----|
E---------------------------------3-------3-------3-------3-------0-|

    Am
 ---1-+-2-+-3-+-4-+-1-+-2-+-3-+-4-+-|
G-----------------------------------|
D-----------------------------------|
A---0-0-----0-0-----0-0-----0-0-----|
E---------0-------0-------0-------0-|

    D               C               Bm              Am...let ring for 1 bar
 ---1-+-2-+-3-+-4-+-1-+-2-+-3-+-4-+-1-+-2-+-3-+-4-+-1-+-2-+-3-+-4---|
G---------7---------------5---------------4-------------------------|
D-------------7---------------5---------------4---------------------|
A---5---5-------5---3---3-------3---2---2-------2---0-----0---------|
E-------------------------------------------------------------------|

    G                               C
 ---1-+-2-+-3-+-4-+-1-+-2-+-3-+-4-+-1-+-2-+-3-+-4-+-1-+-2-+-3-+-4-+-|
G---------------------------------------------------5-------4-------|
D-------------------------5-----------------------------------------|
A-----------------------------------3-------------------------------|
E---3---------------------------------------------------------------|

    G                               C
 ---1-+-2-+-3-+-4-+-1-+-2-+-3-+-4-+-1-+-2-+-3-+-4-+-1-+-2-+-3-+-4-+-|
G---------------------------------------------------5-------4-------|
D---5---------------------------------------------------------------|
A-----------------------------------3-------------------------------|
E-------------------------3-----------------------------------------|

    Am                              D
 ---1-+-2-+-3-+-4-+-1-+-2-+-3-+-4-+-1-+-2-+-3-+-4-+-1-+-2-+-3-+-4-+-|
G-------------------------------------------------------------------|
D---------------------------------------------------------------7---|
A---0---------------0---------------5---------------5---------------|
E-------------------------------------------------------------------|

    Am                              D
 ---1-+-2-+-3-+-4-+-1-+-2-+-3-+-4-+-1-+-2-+-3-+-4-+-1-+-2-+-3-+-4-+-|
G-------------------------------------------------------------7-7-7-|
D-------------------------------------------------------------------|
A---0---------------0---------------5---------------5---------------|
E-------------------------------------------------------------------|

    G                               C
 ---1-+-2-+-3-+-4-+-1-+-2-+-3-+-4-+-1-+-2-+-3-+-4-+-1-+-2-+-3-+-4-+-|
G---------------------------------------------------5-------4-------|
D-------------------------5-----------------------------------------|
A-----------------------------------3-------------------------------|
E---3---------------------------------------------------------------|

    G                               C
 ---1-+-2-+-3-+-4-+-1-+-2-+-3-+-4-+-1-+-2-+-3-+-4-+-1-+-2-+-3-+-4-+-|
G---------------------------------------------------5-------4-------|
D---5---------------5-----------------------------------------------|
A-----------------------------------3-------------------------------|
E-------------------------3-----------------------------------------|

    Am              F#              Bm              C
 ---1-+-2-+-3-+-4-+-1-+-2-+-3-+-4-+-1-+-2-+-3-+-4-+-1-+-2-+-3-+-4-+-|
G-------------------------------------------------------------------|
D-------------------4-----------------------------------------------|
A---0-------------------------------2---------------3---3-3---3-3/5-|
E-------------------------------------------------------------------|

    G                               C
 ---1-+-2-+-3-+-4-+-1-+-2-+-3-+-4-+-1-+-2-+-3-+-4-+-1-+-2-+-3-+-4-+-|
G-------------------------------------------------------------------|
D---5-5-----5-5-----5-5-----5-5-------------------------------------|
A---------5-------5-------5---------3-3-----3-3-----3-3-----3-3---5-|
E---------------------------------3-------3-------3-------3---------|

    G                               C
 ---1-+-2-+-3-+-4-+-1-+-2-+-3-+-4-+-1-+-2-+-3-+-4-+-1-+-2-+-3-+-4-+-|
G-------------------------------------------------------------------|
D---5-5-----5-5-----5-5-----5-5-------------------------------------|
A---------5-------5-------5---------3-3-----3-3-----3-3-----3-3---5-|
E---------------------------------3-------3-------3-------3---------|

    G                               C
 ---1-+-2-+-3-+-4-+-1-+-2-+-3-+-4-+-1-+-2-+-3-+-4-+-1-+-2-+-3-+-4-+-|
G-------------------------------------------------------------------|
D---5-5-----5-5-----5-5-----5-5-------------------------------------|
A---------5-------5-------5---------3-3-----3-3-----3-3-----3-3-----|
E---------------------------------3-------3-------3-------3-------0-|

    Am
 ---1-+-2-+-3-+-4-+-1-+-2-+-3-+-4-+-|
G-----------------------------------|
D-----------------------------------|
A---0-0-----0-0-----0-0-----0-0-----|
E---------0-------0-------0-------0-|

    D               C               Bm              Am
 ---1-+-2-+-3-+-4-+-1-+-2-+-3-+-4-+-1-+-2-+-3-+-4-+-1-+-2-+-3-+-4---|
G---------7---------------5---------------4-------------------------|
D-------------7---------------5---------------4---------------------|
A---5---5-------5---3---3-------3---2---2-------2---0-----0---------|
E-------------------------------------------------------------------|

    D               C               Bm              Am
 ---1-+-2-+-3-+-4-+-1-+-2-+-3-+-4-+-1-+-2-+-3-+-4-+-1-+-2-+-3-+-4---|
G---------7---------------5---------------4-------------------------|
D-------------7---------------5---------------4---------------------|
A---5---5-------5---3---3-------3---2---2-------2---0-----0---------|
E-------------------------------------------------------------------|

    C               D               G               C
 ---1-+-2-+-3-+-4-+-1-+-2-+-3-+-4-+-1-+-2-+-3-+-4-+-1-+-2-+-3-+-4-+-|
G-------------------------------------------------------------------|
D---------5---------------------------------------------------5-----|
A---3---3-------3-/-5---5-5-----5---------5---------3---3-3-----3---|
E-----------------------------------3-----------3-------------------|

    C               G               A               C
 ---1-+-2-+-3-+-4-+-1-+-2-+-3-+-4-+-1-+-2-+-3-+-4-+-1-+-2-+-3-+-4-+-|
G---------5---------------------------------------------------------|
D---------------5---------------------------------------------------|
A---3---------------------5---------0-----0---------3---------------|
E-------------------3-----------3-----------------------------------|

    G                               C
 ---1-+-2-+-3-+-4-+-1-+-2-+-3-+-4-+-1-+-2-+-3-+-4-+-1-+-2-+-3-+-4-+-|
G---------------------------------------------------5-------4-------|
D-------------------------5-----------------------------------------|
A-----------------------------------3-------------------------------|
E---3---------------------------------------------------------------|

    G                               C
 ---1-+-2-+-3-+-4-+-1-+-2-+-3-+-4-+-1-+-2-+-3-+-4-+-1-+-2-+-3-+-4-+-|
G---------------------------------------------------5-------4-------|
D---5---------------------------------------------------------------|
A-----------------------------------3-------------------------------|
E-------------------------3-----------------------------------------|

    Am                              D
 ---1-+-2-+-3-+-4-+-1-+-2-+-3-+-4-+-1-+-2-+-3-+-4-+-1-+-2-+-3-+-4-+-|
G-------------------------------------------------------------------|
D---------------------------------------------------7-----7---------|
A---0---------------------------0---5-------------5-----5-------5---|
E-------------------------------------------------------------------|

    Am                              D
 ---1-+-2-+-3-+-4-+-1-+-2-+-3-+-4-+-1-+-2-+-3-+-4-+-1-+-2-+-3-+-4-+-|
G---------------------------------------------------7-----7-----7---|
D-------------------------------------------------------------------|
A---0---------------0---------------5-------------5-----5-----------|
E-------------------------------------------------------------------|

    Am              F#              Bm              C
 ---1-+-2-+-3-+-4-+-1-+-2-+-3-+-4-+-1-+-2-+-3-+-4-+-1-+-2-+-3-+-4-+-|
G---------------------------------------------------5---------------|
D-------------------4-----------------------------------------------|
A---0-------------------------------2-------------3---------------5-|
E-------------------------------------------------------------------|

    G                               C
 ---1-+-2-+-3-+-4-+-1-+-2-+-3-+-4-+-1-+-2-+-3-+-4-+-1-+-2-+-3-+-4-+-|
G-------------------------------------------------------------------|
D---5-5-----5-5-----5-5-----5-5-------------------------------------|
A---------5-------5-------5---------3-3-----3-3-----3-3-----3-3---5-|
E---------------------------------3-------3-------3-------3---------|

    G                               C
 ---1-+-2-+-3-+-4-+-1-+-2-+-3-+-4-+-1-+-2-+-3-+-4-+-1-+-2-+-3-+-4-+-|
G-------------------------------------------------------------------|
D---5-5-----5-5-----5-5-----5-5-------------------------------------|
A---------5-------5-------5---------3-3-----3-3-----3-3-----3-3---5-|
E---------------------------------3-------3-------3-------3---------|

    G                               C
 ---1-+-2-+-3-+-4-+-1-+-2-+-3-+-4-+-1-+-2-+-3-+-4-+-1-+-2-+-3-+-4-+-|
G-------------------------------------------------------------------|
D---5-5-----5-5-----5-5-----5-5-------------------------------------|
A---------5-------5-------5---------3-3-----3-3-----3-3-----3-3-----|
E---------------------------------3-------3-------3-------3-------0-|

    Am
 ---1-+-2-+-3-+-4-+-1-+-2-+-3-+-4-+-|
G-----------------------------------|
D-----------------------------------|
A---0-0-----0-0-----0-0-----0-0-----|
E---------0-------0-------0-------0-|

    D               C               Bm              Am
 ---1-+-2-+-3-+-4-+-1-+-2-+-3-+-4-+-1-+-2-+-3-+-4-+-1-+-2-+-3-+-4---|
G---------7---------------5---------------4-------------------------|
D-------------7---------------5---------------4---------------------|
A---5---5-------5---3---3-------3---2---2-------2---0-----0---------|
E-------------------------------------------------------------------|

    D               C               Bm              Am
 ---1-+-2-+-3-+-4-+-1-+-2-+-3-+-4-+-1-+-2-+-3-+-4-+-1-+-2-+-3-+-4---|
G---------7---------------5---------------4-------------------------|
D-------------7---------------5---------------4---------------------|
A---5---5-------5---3---3-------3---2---2-------2---0-----0---------|
E-------------------------------------------------------------------|

    C               D               G               C
 ---1-+-2-+-3-+-4-+-1-+-2-+-3-+-4-+-1-+-2-+-3-+-4-+-1-+-2-+-3-+-4-+-|
G-------------------------------------------------------------------|
D-------------------------------------------------------------5-----|
A---3---3-3---3-3---5------5----5-------------------3---3-3-----3---|
E-----------------------------------3------3--3-3-------------------|

    C               G               A               C
 ---1-+-2-+-3-+-4-+-1-+-2-+-3-+-4-+-1-+-2-+-3-+-4-+-1-+-2-+-3-+-4-+-|
G-------------------------------------------------------------------|
D---------------5---------------------------------------------------|
A---3---3-3-------------------------0-----0---------3---------------|
E-------------------3-----3---3-------------------------------------|


I think I got it right! It's very easy and pleasant to play, quite repetitive but you 
to pay attention to the small variations across the song. If you need any info about the 
or spot a mistake, please contact me at sarogatorp@hotmail.fr
comments
We did not receive enough feedback on this tab! Please rate:
print report bad tab
1 2 3 4 5
I want to post or [tab]
guest
You may want to rate the tab now too:
select rating
Please do not post tabs as comments. Select "correction" instead!