Oops, an error
Loading. Please wait.

Lazy Line Painter Jane Tab

452 views 3 this week
1 commentread comment
1 2 3 4 5
excellent!
x 1
Autoscroll
+/-
esc
set tempo
stop
Contributor
NEW! There's an official Ultimate Guitar app which is ideal
for learning songs when you're away from computer. Get the app
WARNING: You are trying to view
                                    content from Ultimate-Guitar.com
                                    in an unauthorized application,
                                    which is prohibited.

                                    Please use an official Ultimate
                                    Guitar Tabs application for iPhone,
                                    iPad or Android to access legitimate
                                    chords, guitar, bass, and drum tabs
                                    from Ultimate-Guitar.com database.

                                    Type "ultimate guitar tabs" in Apple
                                    App Store's or Android Market's
                                    search to find the application.
Lazy Line Painter Jane – Belle & Sebastian
-----------------------------------------------------------------------------
Tabbed by: ThreeLionsRyan
E-mail: ryanrichbrown@gmail.com
Tuning: Standard 
Guitar 1: Capo on 2nd fret (all chords relative to capo)
Guitar 2: Open standard tuning

Intro
G1          Strum
e|---------0----------------------------------------------------------------|
B|---------0----------------------------------------------------------------|
G|---------1----------------------------------------------------------------|
D|---------2----------------------------------------------------------------|
A|---------2----------------------------------------------------------------|
E|---------0----------------------------------------------------------------|

G2              Strum
e|-------------2------------------------------------------------------------|
B|-------------3------------------------------------------------------------|
G|-------------3------------------------------------------------------------|
D|-------2-----4---------------------------------------------------------2--|
A|-2-H-4-----------------------------------------------------------2-H-4----|
E|---------2----------------------------------------------------------------|

Verse 1
G1
e|--0-----------------------4-------------------4---------------------------|
B|--0-----------------------4-------------------5---------------------------|
G|--1-----------------------5-------------------6---------------------------|
D|--2-----------------------6-------------------6---------------------------|
A|--2-----------------------6-------------------4---------------------------|
E|--0-----------------------4-----------------------------------------------|
   Working the village shop Putting a poster up Dreaming of anything
G2
e|--2-----------------------6-------------------6---------------------------|
B|--2-----------------------6-------------------7---------------------------|
G|--3-----------------------7-------------------8---------------------------|
D|--4-----------------------8-------------------8---------------------------|
A|--4-----------------------8-------------------6---------------------------|
E|--2-----------------------6-----------------------------------------------|

G1
e|--0---------------5-----------------4-----------------2-------------------|
B|--0---------------5-----------------4-----------------2-------------------|
G|--1---------------6-----------------5-----------------3-------------------|
D|--2---------------7-----------------6-----------------4-------------------|
A|--2---------------7-----------------6-----------------4-------------------|
E|--0---------------5-----------------4-----------------2-------------------|
    Dreaming of the Time when you are Free from all the Trouble you,re in
G2
e|--2---------------7-----------------6-----------------4-------------------|
B|--2---------------7-----------------6-----------------4-------------------|
G|--3---------------8-----------------7-----------------5-------------------|
D|--4---------------9-----------------8-----------------6-----------------2-|
A|------------------9-----------------8-----------------6-----------2-H-4---|
E|------------------7-----------------6-----------------4-------------------|

Verse 2
G1
e|--0-------------------------4-------------------------4-------------------|
B|--0-------------------------4-------------------------5-------------------|
G|--1-------------------------5-------------------------6-------------------|
D|--2-------------------------6-------------------------6-------------------|
A|--2-------------------------6-------------------------4-------------------|
E|--0-------------------------4---------------------------------------------|
    In the mud, on your knees Trying hard not to please Anyone all the time
G2
e|--2-------------------------6-------------------------6-------------------|
B|--2-------------------------6-------------------------7-------------------|
G|--3-------------------------7-------------------------8-------------------|
D|--4-------------------------8-------------------------8-------------------|
A|----------------------------8-------------------------6-------------------|
E|----------------------------6---------------------------------------------|

G1
e|--0---------------5---------------5--------------0------------------------|
B|--0---------------5---------------5--------------0------------------------|
G|--1---------------6---------------5--------------1------------------------|
D|--2---------------7---------------5--------------2------------------------|
A|--2---------------7---------------7--------------2------------------------|
E|--0---------------5---------------5--------------0------------------------|
    Being a rebel,s fine but you go all the way to being brutal
G2
e|--2---------------7---------------7--------------2------------------------|
B|--2---------------7---------------7--------------2------------------------|
G|--3---------------8---------------7--------------3------------------------|
D|--4---------------9---------------9--------------4------------------------|
A|--------------------------------------------------------------------------|
E|--------------------------------------------------------------------------|

Chorus 1
G1   Strum
e|-7------------------------------------------------------------------------|
B|-7------------------------------------------------------------------------|
G|-8------------------------------------------------------------------------|
D|-9------------------------------------------------------------------------|
A|-9------------------------------------------------------------------------|
E|-7------------------------------------------------------------------------|
        You will have a boy tonight      you will have a boy tonight
G2
e|-4-4-Let Ring--------------------4-4-Let Ring-----------------------------|
B|-6-4-----------------------------6-4--------------------------------------|
G|-5-5-----------------------------5-5--------------------------------------|
D|-6-6-----------------------------6-6--------------------------------------|
A|--------------------------------------------------------------------------|
E|--------------------------------------------------------------------------|







G1          Strum
e|--------5----------------------------------------------------3-----0-----0|
B|--------5----------------------------------------------------3-----2-----0|
G|--------6----------------------------------------------------4-----2-----1|
D|--------7----------------------------------------------------5-----2-----2|
A|--------7----------------------------------------------------5-----0-----2|
E|--------5----------------------------------------------------3-----------0|
   On the first bus out of town  On the first bus out of town
G2
e|-2-2-Let Ring------------------2-2 Let Ring-------------------------------|
B|-2-2---------------------------2-2----------------------------------------|
G|-3-3---------------------------3-3----------------------------------------|
D|-4-4---------------------------4-4----------------------------------------|
A|--------------------------------------------------------------------------|
E|-------------------------------------------------------------5-4-2-0-2-0-2|

Verse 3 (same chord progression as Verse 1)

So let,s see your kit for games
All the girls look the same
You are challenging style for running miles
You,re running miles in some boys jumper

Verse 4 (same chord progression as Verse 2)

Boo to the business world!
You know a girl who,s tax free on her back and making
Plenty cash
While you are working for the joy of giving

Chorus 2
G1         Strum
e|--------7-----------------------------------------------------------------|
B|--------7-----------------------------------------------------------------|
G|--------8-----------------------------------------------------------------|
D|--------9-----------------------------------------------------------------|
A|--------9-----------------------------------------------------------------|
E|--------7-----------------------------------------------------------------|
           You will have a boy tonight     You will have a boy tonight
G2
e|-------9-----9--------------------------9-----9---------------------------|
B|--------9----9---------------------------9----9---------------------------|
G|-10H11------10--------------------10H11-------10--------------------------|
D|------------11--------------------------------11--------------------------|
A|--------------------------------------------------------------------------|
E|--------------------------------------------------------------------------|

G1                  Strum
e|-----------------5--------------------------------------------------------|
B|-----------------5--------------------------------------------------------|
G|-----------------6--------------------------------------------------------|
D|-----------------7--------------------------------------------------------|
A|-----------------7--------------------------------------------------------|
E|-----------------5--------------------------------------------------------|
           And you hope that she will see    And you hope that she will see  

G2
e|-----7-----7------------------------------7-----7-------------------------|
B|------7----7-------------------------------7----7-------------------------|
G|-8H9-------8--------------------------8H9-------8-------------------------|
D|-----------9------------------------------------9-------------------------|
A|--------------------------------------------------------------------------|
E|--------------------------------------------------------------------------|

Chorus 2 continues with the same chord progression above

You will have a boy tonight
Or maybe you will have a girl tonight
And you hope that she will see
And you hope that she will see

G1
e|-3-----0-----0------| 
B|-3-----2-----0------|
G|-4-----2-----1------|         
D|-5-----2-----2------|         
A|-5-----0-----2------|
E|-3-----------0------|
          X4
G2                                           
e|----------------2---|          
B|----------------2---| 
G|----------------3---| 
D|----------------4---|         
A|--------------------|         
E|-5-4-2-0-2-0-2------| 

G1 Claps while G2 plays the phrase below

G2
e|-----------2-------------2-2-----------| 
B|-----------2-------------4-2-Let Ring--|
G|-----------3-------------3-3-----------|
D|------2----4-------------4-4-----------|
A|-2-H-4---------------------------------|
E|---------------------------------------|
                             X4
Verse 4 (G1 plays very lightly, same progression as Verse 1)

You are in two minds
Tossing a coin to decide whether you should tell your mum
About a dose of thrush you got while licking railings

Verse 5 (Bass line only, same progression as Verse 2)

But you read in a book
That you got free in Boots
There are lotions, there are potions
You can take to hide your shame from all those prying eyes




Verse 6 (Both guitars, same progression as Verse 2)

Lazy Jane, all the time
Painting lines
You are sleeping at bus stops
Wondering how you got your name
And what you’re going to do about it

Chorus (Same progression as Chorus 2)

You will have a boy tonight
You will have a boy tonight
And you hope that she will see
And you hope that she will see

Ending 

G1
e|-3-----0-----0------| 
B|-3-----2-----0------|
G|-4-----2-----1------|         
D|-5-----2-----2------|         
A|-5-----0-----2------|
E|-3-----------0------|
          X4
G2                                           
e|----------------2---|          
B|----------------2---| 
G|----------------3---| 
D|----------------4---|         
A|--------------------|         
E|-5-4-2-0-2-0-2------|


************************************

| /   slide up
| \   slide down
| h   hammer-on
| p   pull-off
| ~   vibrato
| +   harmonic
| x   Mute note
| b   Bend
| pb  Pre-bend
| br  Bend release
| pbr Pre-bend release
| brb Bend release bend

************************************
comments
We did not receive enough feedback on this tab! Please rate:
print report bad tab
1 2 3 4 5
1 comment total.
0 reply
kjt1981 wrote on April 5 2014, 05:51 pm

Good tab. I love this song!!!

"Being a rebel's fine, but you go all the way to being brutal"

I want to post or [tab]
guest
You may want to rate the tab now too:
select rating
Please do not post tabs as comments. Select "correction" instead!