Oops, an error
Loading. Please wait.

Your Covers Blown Bass Tab

3,333 views 9 this week
2 commentsread comments
1 2 3 4 5
excellent!
x 2
Autoscroll
+/-
esc
set tempo
stop
Contributor
WARNING: You are trying to view
                                    content from Ultimate-Guitar.com
                                    in an unauthorized application,
                                    which is prohibited.

                                    Please use an official Ultimate
                                    Guitar Tabs application for iPhone,
                                    iPad or Android to access legitimate
                                    chords, guitar, bass, and drum tabs
                                    from Ultimate-Guitar.com database.

                                    Type "ultimate guitar tabs" in Apple
                                    App Store's or Android Market's
                                    search to find the application.
BELLE AND SEBASTIAN - YOUR COVER'S BLOWN
           (Tabbed by w7w7w7)



Verse
G|                                        |--------------|
D|              Intro                     |--------------|
A|            (no bass)                   |------0--2--4-|
E|                                        |----2---------|

G|----------------------------------|     |--------------|
D|-2--3--4-----------------2--3--4--|     |--------------|
A|----------2\----3-----4-----------| x2  |------0--2--4-|
E|----------------------------------|     |---2----------|

G|----------------------------------|     |-----4--4-2---|
D|-2--3--4-----------------2--3--4--|     |------------4-|
A|----------2\----3-----4-----------| x2  |--------------|
E|----------------------------------|     |--------------|

G|----------------------------------|     |--------------|
D|-2--3--4-----------------2--3--4--|     |--------------|
A|----------2\----3-----4-----------| x2  |------0--2--4-|
E|----------------------------------|     |---2----------|

G|----------------------------------|     |--------------|
D|-2--3--4-----------------2--3--4--|     |--------------|
A|----------2\----3-----4-----------| x2  |------0--2--4-|
E|----------------------------------|     |---2----------|

G|----------------------------------|     |--------------|
D|-2--3--4-----------------2--3--4--|     |--------------|
A|----------2\----3-----4-----------| x2  |------0--2--4-|
E|----------------------------------|     |---2----------|



Chorus
G|------------------------------------------------------------|
D|---------9--7----------------12--11-------------------------|
A|-----7---------9-7------11-----------12-11------------------|
E|-5------------------9---------------------------------------|

G|------------------------------------------------------------|
D|-----11-----7-----------------------------------------------|
A|-9--------9---9-7-5-5-7-7-9-9-11-11-------------------------|
E|------------------------------------------------------------|

G|------------------------------------------------------------|
D|----------9--7----------------12--11------------------------|
A|-12---7---------9-7------11-----------12-11-----------------|
E|---------------------9--------------------------------------|

G|------------------------------------------------------------|
D|-----11-----7-----------------------------------------------|
A|-9--------9---9-7-5-5-7-7-9-9-11-11-12---7-------7---4-4-4--|
E|---------------------------------------------5--------------|



Verse
G|                                        |--------------|
D|                                        |------------2-|
A|                                        |-----2--2-4---|
E|                                        |--------------|

G|----------------------------------|     |--------------|
D|-2--3--4-----------------2--3--4--|     |--------------|
A|----------2\----3-----4-----------| x2  |------0--2--4-|
E|----------------------------------|     |---2----------|

G|----------------------------------|     |--------------|
D|-2--3--4-----------------2--3--4--|     |--------------|
A|----------2\----3-----4-----------| x2  |------0--2--4-|
E|----------------------------------|     |---2----------|

G|----------------------------------|     |-----4--4-2---|
D|-2--3--4-----------------2--3--4--|     |------------4-|
A|----------2\----3-----4-----------| x2  |--------------|
E|----------------------------------|     |--------------|

G|----------------------------------|     |--------------|
D|-2--3--4-----------------2--3--4--|     |--------------|
A|----------2\----3-----4-----------| x2  |------0--2--4-|
E|----------------------------------|     |---2----------|

G|----------------------------------|     |--------------|
D|-2--3--4-----------------2--3--4--|     |--------------|
A|----------2\----3-----4-----------| x2  |------0--2--4-|
E|----------------------------------|     |---2----------|

G|-------------------------------------------------------|
D|-2--3--4-----------------2--3--4-----------------------|
A|----------2\----3-----4--------------------------------|
E|-------------------------------------------------------|

G|-------------------------------------------------------|
D|-2--3--4-----------------4---4---4---4---4---4---4---4-|
A|----------2\----3-----4--------------------------------|
E|-------------------------------------------------------|



Bridge (synth bass)
G|-----------------------------------------------------------------------|
D|-----2--------------------5------7--5----------------------------------|
A|--------------0--1--2------------------7-5-----------------------------|
E|-0-------0-3----------3------------------------------------------------|

G|-----------------------------------------------------------------------|
D|-----7-----9--7--------------------------------------------------------|
A|---------7-------9-7-----2---------------------------------------------|
E|-5--------------------------2--222222-5--------------------------------|

G|-----------------------------------------------------------------------|
D|-----2--------------------5------7--5----------------------------------|
A|--------------0--1--2------------------7-5-----------------------------|
E|-0-------0-3----------3------------------------------------------------|

G|-----------------------------------------------------------------------|
D|-----7-----9--7--------------------------------------------------------|
A|---------7-------9-7-----2---------------------------------------------|
E|-5--------------------------2-------3-------5--3--1--0-------5---------|



Bridge #2
G|----------------|     |----------------------------|
D|----------------|     |----------------------------|
A|----------------| x6  |----------------------------| x2
E|5-555-555-555-55|     |10-101010-101010-101010-1010|

G|----------------------------|     |-----------------------------------|
D|----------------------------|     |-----------------------------------|
A|----------------------------| x2  |-----------------------------------|
E|12-121212-121212-121212-1212|     |5-555-555-555-555-555-555-555-0-3-0|

G|----------------|     |----------------------------|
D|----------------|     |----------------------------|
A|----------------| x2  |----------------------------| x2
E|5-555-555-555-55|     |10-101010-101010-101010-1010|

G|----------------------------|     |-----------------------------|
D|----------------------------|     |------------2---2------------|
A|----------------------------| x2  |-----------------------------|
E|12-121212-121212-121212-1212|     |5-5-5-5-3-1---------0--3--4--|

G|----------------|     |----------------------------|
D|----------------|     |----------------------------|
A|----------------| x2  |----------------------------| x2
E|5-555-555-555-55|     |10-101010-101010-101010-1010|

G|----------------------------|     |-----------------------------------|
D|----------------------------|     |-----------------------------------|
A|----------------------------| x2  |-----------------------------------|
E|12-121212-121212-121212-1212|     |5-555-555-555-555-555-555-555-0-3-0|

G|----------------|     |----------------------------|
D|----------------|     |----------------------------|
A|----------------| x2  |----------------------------| x2
E|5-555-555-555-55|     |10-101010-101010-101010-1010|

G|----------------------------|     |-----------------------------|
D|----------------------------|     |------------2---2------------|
A|----------------------------| x2  |-----------------------------|
E|12-121212-121212-121212-1212|     |5-5-5-5-3-1---------0--3--4--|

G|----------------------------|
D|----------------------------|
A|----------------------------|
E|5-5-5-5-3-1-0---------------|



Chorus #2
G|---------9--7---------------9--7----------------------------|
D|-------9-------9-7--------9-------9-7-----------------------|
A|-7------------------7---------------------------------------|
E|------------------------------------------------------------|

G|------------------------------------------------------------|
D|---------7--5---------------7--5----------------------------|
A|-------5-------7-5--------5-------7-4-----------------------|
E|-3------------------3---------------------------------------|

G|---------7--5---------------7--5----------------------------|
D|-------7-------7-5--------7-------7-------------------------|
A|-5------------------5---------------6-----------------------|
E|------------------------------------------------------------|

G|---------9--7---------------9--7----------------------------|
D|-------9-------9-7--------9-------9-7-----------------------|
A|-7------------------7---------------------------------------|
E|------------------------------------------------------------|

G|---------5--5--4------------5--5--4-------------------------|
D|-------5---------5--------5---------------------------------|
A|-3------------------3---------------------------------------|
E|------------------------------------2-----------------------|

G|------------------------------------------------------------|
D|---------7--5---------------10--9---------------------------|
A|-----5---------7-5------9----------10-----------------------|
E|-3------------------7-----------------9---------------------|
                                                               -
G|------------------------------------------------------------| |
D|-----9-----5------------------------------------------------| |
A|-7-------7---7-5-3-3-5-5-7-7-9-9----------------------------| |
E|------------------------------------------------------------| |
                                                                > x6
G|------------------------------------------------------------| |
D|----------7--5---------------10--9--------------------------| |
A|-10---5---------7-5------9----------10-9--------------------| |
E|---------------------7--------------------------------------| |
                                                               -
G|------------------------------------------------------------|
D|-----9-----5------------------------------------------------|
A|-7-------7---7-5-3-3-----5-5-6-6-7--------------------------|
E|---------------------3-3------------------------------------|



Outro
G|------------------------------------------------------------|
D|------------------------------------------------------------|
A|-7---7--------6---6--------3---3--------0------------7------|
E|------------------------------------------------------------|
comments
We did not receive enough feedback on this tab! Please rate:
print report bad tab
1 2 3 4 5
2 comments total.
0 reply
Ltl_Antsi wrote on April 14 2009, 04:44 pm

this song rocks and the tab is great! tks

0 reply
michieb wrote on October 29 2010, 02:25 am

i love this song! is there anyway you can add the chords for a guitar to follow along?

I want to post or [tab]
guest
You may want to rate the tab now too:
select rating
Please do not post tabs as comments. Select "correction" instead!