Oops, an error
Loading. Please wait.

Morning Yearning Tab

ver4
ver4

Interactive

More versions @911Tabs.com
24,857 views 9 this week
2 commentsread comments
1 2 3 4 5
excellent!
x 4
Autoscroll
+/-
esc
set tempo
stop
Contributor
Difficulty
Tuning
intermediate
D A D G B E
Hey! There's an official Ultimate Guitar app which is ideal
for learning songs when you're away from computer. Get the app
WARNING: You are trying to view
                                    content from Ultimate-Guitar.com
                                    in an unauthorized application,
                                    which is prohibited.

                                    Please use an official Ultimate
                                    Guitar Tabs application for iPhone,
                                    iPad or Android to access legitimate
                                    chords, guitar, bass, and drum tabs
                                    from Ultimate-Guitar.com database.

                                    Type "ultimate guitar tabs" in Apple
                                    App Store's or Android Market's
                                    search to find the application.
Tabbed by: BRguitar
Email: 

Tuning: Drop D (DADGBe)

INTRO X 2:
e|---------------------------------------------------|
B|---------5-------------5--------5--------5---------|
G|-------------------0-------0---------0-------------|
D|-----------------7-------7---------7---------------|
A|-------0-------------0--------0--------0-----------|
D|---------------------------------------------------|

e|---------------------------------------------------|
B|---------5-------------5--------5------------------|
G|-------------------0-------0---------0-------------|
D|-----------------5-------5---------5----5/7--------|
A|---------------------------------------------------|
D|-------5-------------5--------5--------------------|

e|---------------------------------------------------|
B|-------------6---------6--------6--------6---------|
G|-----------0-------0-------0---------0-------------|
D|---------7-------7-------7---------7---------------|
A|---------------------------------------------------|
D|-------0-------------0--------0--------0-----------|

e|---------------------------------------------------|
B|------------1P0---0---0H1------1P0-----------------|
G|------------------0---0H2-----------2--------------|
D|----------3-------3---3----------------------------|
A|---------------------------------------------------|
D|-------3--------------------3----------------------|


VERSE 1:
           My       fingers        touch 
e|---------------------------------------------------|
B|---------5-------------5--------5--------5---------|
G|-------------------0-------0---------0-------------|
D|-----------------7-------7---------7---------------|
A|-------0-------------0--------0--------0-----------|
D|---------------------------------------------------|
         Upon       my        lips.    It's a
e|---------------------------------------------------|
B|---------5-------------5--------5------------------|
G|-------------------0-------0---------0-------------|
D|-----------------5-------5---------5----5/7--------|
A|---------------------------------------------------|
D|-------5-------------5--------5--------------------|
         morning yearning.             It's a
e|---------------------------------------------------|
B|-------------6---------6--------6--------6---------|
G|-----------0-------0-------0---------0-------------|
D|---------7-------7-------7---------7---------------|
A|---------------------------------------------------|
D|-------0-------------0--------0--------0-----------|
         morning     yearning. 
e|---------------------------------------------------|
B|------------1P0---0---0H1------1P0-----------------|
G|------------------0---0H2-----------2--------------|
D|----------3-------3---3----------------------------|
A|---------------------------------------------------|
D|-------3--------------------3----------------------|
             Pull    the    curtains    shut
e|---------------------------------------------------|
B|---------5-------------5--------5--------5---------|
G|-------------------0-------0---------0-------------|
D|-----------------7-------7---------7---------------|
A|-------0-------------0--------0--------0-----------|
D|---------------------------------------------------|
          try to keep it dark.        But the
e|---------------------------------------------------|
B|---------5-------------5--------5------------------|
G|-------------------0-------0---------0-------------|
D|-----------------5-------5---------5----5/7--------|
A|---------------------------------------------------|
D|-------5-------------5--------5--------------------|
          sun   is   burning.            The
e|---------------------------------------------------|
B|-------------6---------6--------6--------6---------|
G|-----------0-------0-------0---------0-------------|
D|---------7-------7-------7---------7---------------|
A|---------------------------------------------------|
D|-------0-------------0--------0--------0-----------|
          sun     is         b--u--r--n-
e|---------------------------------------------------|
B|------------1P0---0---0H1------1P0-----------------|
G|------------------0---0H2-----------2--------------|
D|----------3-------3---3----------------------------|
A|---------------------------------------------------|
D|-------3--------------------3----------------------|
         -i--n--g. 
e|---------------------------------------------------|
B|---------5-------------5--------5--------5---------|
G|-------------------0-------0---------0-------------|
D|-----------------7-------7---------7---------------|
A|-------0-------------0--------0--------0-----------|
D|---------------------------------------------------|

e|---------------------------------------------------|
B|---------5-------------5--------5------------------|
G|-------------------0-------0---------0-------------|
D|-----------------5-------5---------5----5/7--------|
A|---------------------------------------------------|
D|-------5-------------5--------5--------------------|

e|---------------------------------------------------|
B|-------------6---------6--------6--------6---------|
G|-----------0-------0-------0---------0-------------|
D|---------7-------7-------7---------7---------------|
A|---------------------------------------------------|
D|-------0-------------0--------0--------0-----------|

e|---------------------------------------------------|
B|------------1P0---0---0H1------1P0-----------------|
G|------------------0---0H2-----------2--------------|
D|----------3-------3---3----------------------------|
A|---------------------------------------------------|
D|-------3--------------------3----------------------|

VERSE 2:
          The        world         awakens
e|---------------------------------------------------|
B|---------5-------------5--------5--------5---------|
G|-------------------0-------0---------0-------------|
D|-----------------7-------7---------7---------------|
A|-------0-------------0--------0--------0-----------|
D|---------------------------------------------------|
         on      the     run.     And we'll
e|---------------------------------------------------|
B|---------5-------------5--------5------------------|
G|-------------------0-------0---------0-------------|
D|-----------------5-------5---------5----5/7--------|
A|---------------------------------------------------|
D|-------5-------------5--------5--------------------|
         soon     be    earning.       We'll  
e|---------------------------------------------------|
B|-------------6---------6--------6--------6---------|
G|-----------0-------0-------0---------0-------------|
D|---------7-------7-------7---------7---------------|
A|---------------------------------------------------|
D|-------0-------------0--------0--------0-----------|
         soon      be      earning.
e|---------------------------------------------------|
B|------------1P0---0---0H1------1P0-----------------|
G|------------------0---0H2-----------2--------------|
D|----------3-------3---3----------------------------|
A|---------------------------------------------------|
D|-------3--------------------3----------------------|
          With     hopes     of       better
e|---------------------------------------------------|
B|---------5-------------5--------5--------5---------|
G|-------------------0-------0---------0-------------|
D|-----------------7-------7---------7---------------|
A|-------0-------------0--------0--------0-----------|
D|---------------------------------------------------|
         days     to    come         That's a
e|---------------------------------------------------|
B|---------5-------------5--------5------------------|
G|-------------------0-------0---------0-------------|
D|-----------------5-------5---------5----5/7--------|
A|---------------------------------------------------|
D|-------5-------------5--------5--------------------|
         morning       yearning.      Just a
e|---------------------------------------------------|
B|-------------6---------6--------6--------6---------|
G|-----------0-------0-------0---------0-------------|
D|---------7-------7-------7---------7---------------|
A|---------------------------------------------------|
D|-------0-------------0--------0--------0-----------|
         morning       y--e--a--r--n-
e|---------------------------------------------------|
B|------------1P0---0---0H1------1P0-----------------|
G|------------------0---0H2-----------2--------------|
D|----------3-------3---3----------------------------|
A|---------------------------------------------------|
D|-------3--------------------3----------------------|
         -i--n--g.
e|---------------------------------------------------|
B|---------5-------------5--------5--------5---------|
G|-------------------0-------0---------0-------------|
D|-----------------7-------7---------7---------------|
A|-------0-------------0--------0--------0-----------|
D|---------------------------------------------------|
                                    Morning
e|---------------------------------------------------|
B|---------5-------------5--------5------------------|
G|-------------------0-------0---------0-------------|
D|-----------------5-------5---------5----5/7--------|
A|---------------------------------------------------|
D|-------5-------------5--------5--------------------|
         yearning.
e|---------------------------------------------------|
B|-------------6---------6--------6--------6---------|
G|-----------0-------0-------0---------0-------------|
D|---------7-------7-------7---------7---------------|
A|---------------------------------------------------|
D|-------0-------------0--------0--------0-----------|

e|---------------------------------------------------|
B|------------1P0---0---0H1------1P0-----------------|
G|------------------0---0H2-----------2--------------|
D|----------3-------3---3----------------------------|
A|---------------------------------------------------|
D|-------3--------------------3----------------------|

VERSE 3:
          Another         day         another 
e|---------------------------------------------------|
B|---------5-------------5--------5--------5---------|
G|-------------------0-------0---------0-------------|
D|-----------------7-------7---------7---------------|
A|-------0-------------0--------0--------0-----------|
D|---------------------------------------------------|
         chance to get it right.       Must I
e|---------------------------------------------------|
B|---------5-------------5--------5------------------|
G|-------------------0-------0---------0-------------|
D|-----------------5-------5---------5----5/7--------|
A|---------------------------------------------------|
D|-------5-------------5--------5--------------------|
         still    be   learning?       Must I
e|---------------------------------------------------|
B|-------------6---------6--------6--------6---------|
G|-----------0-------0-------0---------0-------------|
D|---------7-------7-------7---------7---------------|
A|---------------------------------------------------|
D|-------0-------------0--------0--------0-----------|
         still    be   learning?
e|---------------------------------------------------|
B|------------1P0---0---0H1------1P0-----------------|
G|------------------0---0H2-----------2--------------|
D|----------3-------3---3----------------------------|
A|---------------------------------------------------|
D|-------3--------------------3----------------------|
           Baby     crying      kept      us
e|---------------------------------------------------|
B|---------5-------------5--------5--------5---------|
G|-------------------0-------0---------0-------------|
D|-----------------7-------7---------7---------------|
A|-------0-------------0--------0--------0-----------|
D|---------------------------------------------------|
          up       all   night.      With her
e|---------------------------------------------------|
B|---------5-------------5--------5------------------|
G|-------------------0-------0---------0-------------|
D|-----------------5-------5---------5----5/7--------|
A|---------------------------------------------------|
D|-------5-------------5--------5--------------------|
         morning    yearning.        With her
e|---------------------------------------------------|
B|-------------6---------6--------6--------6---------|
G|-----------0-------0-------0---------0-------------|
D|---------7-------7-------7---------7---------------|
A|---------------------------------------------------|
D|-------0-------------0--------0--------0-----------|
         morning         yearning. 
e|---------------------------------------------------|
B|------------1P0---0---0H1------1P0-----------------|
G|------------------0---0H2-----------2--------------|
D|----------3-------3---3----------------------------|
A|---------------------------------------------------|
D|-------3--------------------3----------------------|

e|---------------------------------------------------|
B|---------5-------------5--------5--------5---------|
G|-------------------0-------0---------0-------------|
D|-----------------7-------7---------7---------------|
A|-------0-------------0--------0--------0-----------|
D|---------------------------------------------------|
                                   Morning 
e|---------------------------------------------------|
B|---------5-------------5--------5------------------|
G|-------------------0-------0---------0-------------|
D|-----------------5-------5---------5----5/7--------|
A|---------------------------------------------------|
D|-------5-------------5--------5--------------------|
         yearning. 
e|---------------------------------------------------|
B|-------------6---------6--------6--------6---------|
G|-----------0-------0-------0---------0-------------|
D|---------7-------7-------7---------7---------------|
A|---------------------------------------------------|
D|-------0-------------0--------0--------0-----------|

e|---------------------------------------------------|
B|------------1P0---0---0H1------1P0-----------------|
G|------------------0---0H2-----------2--------------|
D|----------3-------3---3----------------------------|
A|---------------------------------------------------|
D|-------3--------------------3----------------------|


GUITAR SOLO:
e|---------------------------------------------------|
B|---------8-------------8---------8H10-8------------|
G|------------------0---------0----------------------|
D|---------------10--------10------------------------|
A|---------------------------------------------------|
D|------10------------10--------10-------------------|

e|---------------------------------------------------|
B|---------6-------------6---------6H8--6------------|
G|------------------0---------0----------------------|
D|----------------8---------8------------------------|
A|---------------------------------------------------|
D|-------8-------------8---------8-------------------|

e|---------0-----------------------------------------|
B|-----------6---------6---------6--------6----------|
G|----------------5---------5--------5---------------|
D|--------------0---------0--------0-----------------|
A|---------------------------------------------------|
D|-------0-----------0---------0--------0------------|

e|---------------------------------------------------|
B|---------8-----------8---------8---------8---------|
G|----------------0---------0---------0--------------|
D|-------------10--------10--------10----------------|
A|---------------------------------------------------|
D|------10----------10--------10--------10-----------|

e|---------------------------------------------------|
B|---------8-------------8---------8H10-8------------|
G|------------------0---------0----------------------|
D|---------------10--------10------------------------|
A|---------------------------------------------------|
D|------10------------10--------10-------------------|

e|---------------------------------------------------|
B|---------6-------------6---------6H8--6------------|
G|------------------0---------0----------------------|
D|----------------8---------8------------------------|
A|---------------------------------------------------|
D|-------8-------------8---------8-------------------|

e|---------0-----------------------------------------|
B|-----------6---------6---------6--------6----------|
G|----------------5---------5--------5---------------|
D|--------------0---------0--------0-----------------|
A|---------------------------------------------------|
D|-------0-----------0---------0--------0------------|

e|---------------------------------------------------|
B|---------0H3--------------0--------0---------------|
G|-----------------0----5--------5--------5----------|
D|--------------0-----0--------0--------0------------|
A|---------------------------------------------------|
D|-------5----------------5--------5-----------------|

e|---------------------------------------------------|
B|---------0H3--------------0--------0---------------|
G|-----------------0----5--------5--------5----------|
D|--------------0-----0--------0--------0------------|
A|---------------------------------------------------|
D|-------5----------------5--------5-----------------|

e|---------------------------------------------------|
B|---------0H3--------------0--------0---------------|
G|-----------------0----5--------5--------5----------|
D|--------------0-----0--------0--------0------------|
A|---------------------------------------------------|
D|-------5----------------5--------5-----------------|

e|---------------------------------------------------|
B|---------0H3--------------0--------0---------------|
G|-----------------0----5--------5--------5----------|
D|--------------0-----0--------0--------0------------|
A|---------------------------------------------------|
D|-------5----------------5--------5-----------------|

e|---------------------------------------------------|
B|---------0H3--------------0--------0---------------|
G|-----------------0----5--------5--------5----------|
D|--------------0-----0--------0--------0------------|
A|---------------------------------------------------|
D|-------5----------------5--------5-----------------|

e|---------------------------------------------------|
B|---------0H3--------------0----------------0-------|
G|-----------------0----5--------5---5---5-------5---|
D|--------------0-----0--------0---0---0-------0-----|
A|---------------------------------------------------|
D|-------5----------------5----------------5---------|

e|---------------------------------------------------|
B|---------5-------------5--------5--------5---------|
G|-------------------0-------0---------0-------------|
D|-----------------7-------7---------7---------------|
A|-------0-------------0--------0--------0-----------|
D|---------------------------------------------------|

e|---------------------------------------------------|
B|---------5-------------5--------5------------------|
G|-------------------0-------0---------0-------------|
D|-----------------5-------5---------5----5/7--------|
A|---------------------------------------------------|
D|-------5-------------5--------5--------------------|

e|---------------------------------------------------|
B|-------------6---------6--------6--------6---------|
G|-----------0-------0-------0---------0-------------|
D|---------7-------7-------7---------7---------------|
A|---------------------------------------------------|
D|-------0-------------0--------0--------0-----------|

e|---------------------------------------------------|
B|------------1P0---0---0H1------1P0-----------------|
G|------------------0---0H2-----------2--------------|
D|----------3-------3---3----------------------------|
A|---------------------------------------------------|
D|-------3--------------------3----------------------|


VERSE 4:
         Like    a    summer   rose   I'm  a
e|---------------------------------------------------|
B|---------5-------------5--------5--------5---------|
G|-------------------0-------0---------0-------------|
D|-----------------7-------7---------7---------------|
A|-------0-------------0--------0--------0-----------|
D|---------------------------------------------------|
        victim   of   the   fall.   But am
e|---------------------------------------------------|
B|---------5-------------5--------5------------------|
G|-------------------0-------0---------0-------------|
D|-----------------5-------5---------5----5/7--------|
A|---------------------------------------------------|
D|-------5-------------5--------5--------------------|
         soon          returning. 
e|---------------------------------------------------|
B|-------------6---------6--------6--------6---------|
G|-----------0-------0-------0---------0-------------|
D|---------7-------7-------7---------7---------------|
A|---------------------------------------------------|
D|-------0-------------0--------0--------0-----------|
         Soon          returning.
e|---------------------------------------------------|
B|------------1P0---0---0H1------1P0-----------------|
G|------------------0---0H2-----------2--------------|
D|----------3-------3---3----------------------------|
A|---------------------------------------------------|
D|-------3--------------------3----------------------|
         Your   love's   the   warmest  place
e|---------------------------------------------------|
B|---------5-------------5--------5--------5---------|
G|-------------------0-------0---------0-------------|
D|-----------------7-------7---------7---------------|
A|-------0-------------0--------0--------0-----------|
D|---------------------------------------------------|
         the    sun    ever    shines.  My
e|---------------------------------------------------|
B|---------5-------------5--------5------------------|
G|-------------------0-------0---------0-------------|
D|-----------------5-------5---------5----5/7--------|
A|---------------------------------------------------|
D|-------5-------------5--------5--------------------|
         morning       yearning.        My
e|---------------------------------------------------|
B|-------------6---------6--------6--------6---------|
G|-----------0-------0-------0---------0-------------|
D|---------7-------7-------7---------7---------------|
A|---------------------------------------------------|
D|-------0-------------0--------0--------0-----------|
         morning       yearning.
e|---------------------------------------------------|
B|------------1P0---0---0H1------1P0-----------------|
G|------------------0---0H2-----------2--------------|
D|----------3-------3---3----------------------------|
A|---------------------------------------------------|
D|-------3--------------------3----------------------|

e|---------------------------------------------------|
B|---------5-------------5--------5--------5---------|
G|-------------------0-------0---------0-------------|
D|-----------------7-------7---------7---------------|
A|-------0-------------0--------0--------0-----------|
D|---------------------------------------------------|
                                   Morning
e|---------------------------------------------------|
B|---------5-------------5--------5------------------|
G|-------------------0-------0---------0-------------|
D|-----------------5-------5---------5----5/7--------|
A|---------------------------------------------------|
D|-------5-------------5--------5--------------------|
          yearning.
e|---------------------------------------------------|
B|-------------6---------6--------6--------6---------|
G|-----------0-------0-------0---------0-------------|
D|---------7-------7-------7---------7---------------|
A|---------------------------------------------------|
D|-------0-------------0--------0--------0-----------|

e|---------------------------------------------------|
B|------------1P0---0---0H1------1P0-----------------|
G|------------------0---0H2-----------2--------------|
D|----------3-------3---3----------------------------|
A|---------------------------------------------------|
D|-------3--------------------3----------------------|
         (play slower)          
e|-----------------------------------------0---------|
B|---------5-------------5--------5--------5---------|
G|-------------------0-------0---------0---0---------|
D|-----------------7-------7---------7-----7---------|
A|-------0-------------0--------0----------0---------|
D|---------------------------------------------------|



| /  slide up
| \  slide down
| h  hammer-on
| p  pull-off
| ~  vibrato
| +  harmonic
| x  Mute note
============================================================================
comments
print report bad tab
2 comments total.
0 reply
AKH wrote on February 23 2009, 10:36 am

Thanks a lot for the great tab to this beautifull song. It's actually unexpectedly easy! Great work my (wo-)man!

0 reply
AKH wrote on February 24 2009, 05:23 pm

I've been practicing, and i couldn;t help noticing there are a couple of mistakes. One or two of them i managed to decipher myself, but it just isn't guite right, especially the interlude is a bit sloppy. Still a nice job though! It's quite difficult to make out all of the notes, perhaps because of the awkward rythm, it's so frustrating, cause i wanna learn to play this song so badly!

I want to post or [tab]
guest
You may want to rate the tab now too:
select rating
Please do not post tabs as comments. Select "correction" instead!