Oops, an error
Loading. Please wait.

Roses From My Friends Tab

7,517 views 6 this week
no commentswrite comment
1 2 3 4 5
worth learning
x 2
Autoscroll
+/-
esc
set tempo
stop
WARNING: You are trying to view
                                    content from Ultimate-Guitar.com
                                    in an unauthorized application,
                                    which is prohibited.

                                    Please use an official Ultimate
                                    Guitar Tabs application for iPhone,
                                    iPad or Android to access legitimate
                                    chords, guitar, bass, and drum tabs
                                    from Ultimate-Guitar.com database.

                                    Type "ultimate guitar tabs" in Apple
                                    App Store's or Android Market's
                                    search to find the application.
ROSES FROM MY FRIENDS
BY BEN HARPER

In standard tuning


--3---3------------------------------------------------------------|
--0---2---1--0-1-1---1--------3--1---------------------------------|
--0---2---2--0-2-2?2-2-slide--4--2---------------------------------|
--0---x---2--0-2-2-2-2--------4--2---------------------------------|
--2---x------------------------------------------------------------|
--3---x------------------------------------------------------------|

In between, throw this kind of trademark Harper stuff in


---------------------------------------------------------------------|
---------------------------------------------------------------------|
---------------------------------------------------------------------|
----0-2-2-0----2-0---------------------------------------------------|
-------------3-----2-2-3-2-0-----------------------------------------|
-----------------------------3---------------------------------------|


Lyrics

I could have treated you better
But you couldn't have treated me worse
But it's he who laughs last
Is he who cries first

Sometimes I feel I know strangers
Better than I know my friends
Why must a beginning
Be the means to an end

The stones from my enemies
These wounds will mend
But I cannot survive
the roses from my friends

When the last word has been spoken
And we've beared witness to the final setting sun
All that shall remain is a token
Of what we've said and done

When all we've had has been forsaken
Distant church bells no longer ring
That's the sound of a heart taken
And the story of tears from a king

The stones from my enemies
These wounds will mend
But I cannot survive
The roses from my friends

This may be the last time I see you
Forgive me for holding you close
This may be the last time that I see you
So of this moment I will make the most

This may be the last time I see you
But if you keep me in your heart
Together we shall be eternal
If you believe
We shall never part

The stones from my enemies
These wounds will mend
But I cannot survive the roses from my friends

That?s it. Enjoy!

Smacky53@hotmail.com
comments
We did not receive enough feedback on this tab! Please rate:
1 2 3 4 5
I want to post or [tab]
guest
You may want to rate the tab now too:
select rating
Please do not post tabs as comments. Select "correction" instead!