Oops, an error
Loading. Please wait.

Burgh Island Tab

11,392 views 105 this week
1 commentread comment
1 2 3 4 5
excellent!
x 11
Autoscroll
+/-
esc
set tempo
stop
Contributor
Difficulty
Tuning
intermediate
D G C F A D
WARNING: You are trying to view
                                    content from Ultimate-Guitar.com
                                    in an unauthorized application,
                                    which is prohibited.

                                    Please use an official Ultimate
                                    Guitar Tabs application for iPhone,
                                    iPad or Android to access legitimate
                                    chords, guitar, bass, and drum tabs
                                    from Ultimate-Guitar.com database.

                                    Type "ultimate guitar tabs" in Apple
                                    App Store's or Android Market's
                                    search to find the application.
Ben Howard - Burgh Island
tabbed by Jasper121

live version: http://www.youtube.com/watch?v=4TIAM5rM6b8

I'm not so sure about the lyrics I found on the internet, I corrected them where I
could but some parts don't sound right to me.

Tuning: D A D A A D
Capo on 3th fret not covering the low E string

Intro/Verse
d|------------------------------------------------------|
A|-----12/9--7--5----12/9--7--0-------------------------|
A|-----12/9--7--5----12/9--7--0-------------------------| = part A
D|-----0---------------------------7---7-----7--7-------|
A|---------------------------------7---7-----7--7-------|
D|--0---------------0------------7---7---7-7---7--7-----|

d|--------------------------9-----------------------------------|
A|-----12/9--7--5/14-9-12-----9---------------------------------|
A|-----12/9--7--5/14-9-12--------0------------------------------|
D|-----0---------------------------0-----7---7-----7--7---------| = Part B
A|---------------------------------------7---7-----7--7---------|
D|--0----------------------------------7---7---7-7---7--7-------|

d|-----------------------------------------------|
A|-----------------------------------------------|
A|-----------------------------------------------|
D|-----------------------7----7-----7---7--------|
A|---5/4/2---2---2p0-----7----7-----7---7--------|
D|--0------0-0-0-0-----7----7---7-7---7---7------|

d|-----------------------------------------------|
A|-----------2/4/5/4/2p0-------------------------|
A|-----------2/4/5/4/2p0-------------------------|
D|-------------------------7--7----7--7----------|
A|----5/4/2--2/4/5/4/2p0---7--7----7--7----------|
D|--0---------------------7--7--7-7--7--7--------|

Verse I = Part A + Part B x2

brown eyes shining short light on the way to go,
And the sun tries you're reeling home, against your glow
And we lost sight of it, and breath tied up in someone's hold,
And your eyes screamed it, Burgh Island, in sepia tones.

d|----------------9-----------------------------------|
A|-----14-9-12------9---------------------------------|
A|-----14-9-12--------0-------------------------------|
D|-----------------------0-----7---7-----7--7---------|
A|-----------------------------7---7-----7--7---------|
D|---------------------------7---7---7-7---7--7-------|
    Burgh Island in sepia tones

Chorus
d|-----------------------------------------------|
A|--------------------------5--4-----------------|
A|--------------------------5--4-----------------|
D|---9------/12-----/7---------------------------|
A|---9------/12-----/7---------------------------|
D|---9------/12-----/7---------------------------|
And if was ever to leave, I'll say before I go

d|-----------------------------------------------|
A|-----------------------------------------------|
A|-----------------------------------------------|
D|-----------------------7----7-----7---7--------|
A|---5/4/2---2---2p0-----7----7-----7---7--------|
D|--0------0-0-0-0-----7----7---7-7---7---7------|
That you're the best woman I have ever known.

d|-----------------------------------------------|
A|-----------2/4/5/4/2p0-------------------------|
A|-----------2/4/5/4/2p0-------------------------|
D|-------------------------7--7----7--7----------|
A|----5/4/2--2/4/5/4/2p0---7--7----7--7----------|
D|--0---------------------7--7--7-7--7--7--------|

d|-----------------------------------------------|
A|-----------2/4/5/7/9-0-------------------------|
A|-----------2/4/5/7/9-0-------------------------|
D|-------------------------7--7----7--7----------|
A|----5/4/2--2/4/5/7/9-0---7--7----7--7----------|
D|--0---------------------7--7--7-7--7--7--------|

Verse II (same as verse I)

Repeat chorus

Outro (here you play above the capo)
d|-----------------------------------------------|
A|--------0----------2----------0----------0-----|
A|-----------------------------------------------|
D|----0------0---2------2---0------0---0------0--| repeat till end
A|--2---2---2--0---0---0--0---0---0--0---0---0---|
D|-0-0-0-0-0--2-2-2-2-2--3-3-3-3-3--3-3-3-3-3----|

I bite my tongue
that you may be the first to ruin
Cause I heard its song
the man is a fickkled child that the wind blew in
comments
print report bad tab
1 comment total.
0 reply
tspain wrote on July 15 2013, 10:16 pm

great start mate

I want to post or [tab]
guest
You may want to rate the tab now too:
select rating
Please do not post tabs as comments. Select "correction" instead!