Oops, an error
Loading. Please wait.

Something Borrowed Something Blue Tab

1,753 views 1 this week
4 commentsread comments
1 2 3 4 5
accurate
x 7
Autoscroll
+/-
esc
set tempo
stop
Contributor
Hey! There's an official Ultimate Guitar app which is ideal
for learning songs when you're away from computer. Get the app
WARNING: You are trying to view
                                    content from Ultimate-Guitar.com
                                    in an unauthorized application,
                                    which is prohibited.

                                    Please use an official Ultimate
                                    Guitar Tabs application for iPhone,
                                    iPad or Android to access legitimate
                                    chords, guitar, bass, and drum tabs
                                    from Ultimate-Guitar.com database.

                                    Type "ultimate guitar tabs" in Apple
                                    App Store's or Android Market's
                                    search to find the application.
-------------------------------------------------------------------------------
                  Something Borrowed Something Blue - BEN LEE
-------------------------------------------------------------------------------

Tabbed by: Anthony Chmiel (rhcp_guitarist@ Ultmate Guitar)
Email: anthony320chmiel
Key: b = bend   rb = reverse bend
Tuning:Standard (high to low - ebgdae)
Main Riff (repeat many times)
e|----------------------------------|
B|---3-3b4rb3---1-----1-------------|
G|----------------------------------|
D|----------------------------------|
A|-3----------1---0-----------------|
E|-----------------1----------------|

then when he is about to end a verse, you play:
e|-------------|
B|---1------1--|
G|-------------|
D|-------------|
A|-1---0-------|
E|-------1-----|

Chorus (heavy fuzz distortion)
   C5        Bb5  F5
e|----------------------------|
B|----------------------------|
G|-55555555--3333-------------|
D|-55555555--3333-3333--------| 3 times
A|-33333333--1111-3333--------|
E|----------------1111--------|
(I get the feeling i could leave you on the interstate)

then on the "Something Borrowed Something Bluee" bit, play:
   Bb5   F5
e|-------------------|
B|-------------------|
G|-3333--------------|
D|-3333-3333---------|
A|-1111-3333---------|
E|------1111---------|

repeat verses and chorus again, only this time
on the "something Borrowed Something Blue" bit, play this
over the Bb5 and F5 powerchords a few times. 
B|-3b4-rb3----|

there is no guitar in the interlude

play the main riff a few more times, 
then the chorus a few times (with the b string bends
from the d to the d#)
End by playing the main riff over a C5 power chord. 
Thats it....pretty easy. Enjoy! -Anthony
comments
print report bad tab
4 comments total. Showing first comments.
0 reply
rhcp_guitarist wrote on December 27 2004, 12:00 am

main riff shud actually be
e|----------------------------------|
B|---3-3b4rb3---1-----1-------------|
G|----------------------------------|
D|----------------------------------|
A|-3--3-------1---0-----------------|
E|-----------------1----------------|
sorry

0 reply
TheFat1 wrote on May 15 2006, 11:33 pm

Main riff should also be Hammer-ons! Not just bending the string!

0 reply
tyler_j wrote on June 27 2007, 04:29 am

fantastic tab!

I want to post or [tab]
guest
You may want to rate the tab now too:
select rating
Please do not post tabs as comments. Select "correction" instead!