Oops, an error
Loading. Please wait.

Ants Of The Sky Tab

ver2
ver2

Intro

Whole song

Interactive

More versions @911Tabs.com
123 views 6 this week
1 commentread comment
1 2 3 4 5
worth learning
x 2
Autoscroll
+/-
esc
set tempo
stop
Contributor
Difficulty
Tuning
advanced
C F A# D# G C
Hey! There's an official Ultimate Guitar app which is ideal
for learning songs when you're away from computer. Get the app
WARNING: You are trying to view
                                    content from Ultimate-Guitar.com
                                    in an unauthorized application,
                                    which is prohibited.

                                    Please use an official Ultimate
                                    Guitar Tabs application for iPhone,
                                    iPad or Android to access legitimate
                                    chords, guitar, bass, and drum tabs
                                    from Ultimate-Guitar.com database.

                                    Type "ultimate guitar tabs" in Apple
                                    App Store's or Android Market's
                                    search to find the application.
I know that in the info, it says C-Tuning, That's just because there wasn't BTBAM's C#-standard 
tuning in the list. You can see the right tuning here:

Gtr I (C# F# B E G# C#) - 'Paul'
Gtr II (C# F# B E G# C#) - 'Dustie'
Gtr III (C# F# B E G# C#) - 'Paul Overdrive'
Gtr IV (C# F# B E G# C#) - 'Dustie Clean'
Gtr V (C# F# B E G# C#) - 'Paul Clean'
Gtr VI (C# F# B E G# C#) - 'Tommy'

Secondly, I want to note that I didn't tab this out. I converted it from Power Tab into ASCII for 
all the ones who don't have Power Tab, Guitar Pro etc. I just corrected some rhythmic mistakes.
The notes where all perfect, as they were taken from Paul Waggoner's tab book.

(Where the notes are tied to the previous, I removed the tab number because it looked very confusing
with the numbers all over the place that you couldn't differ when the notes are tied or really
struck.)


00:00

  Q=180
 4/4
  Gtrs I, II
            PM        PM          PM---|
   Q        E   E     E     E     E     E
|--------------------------------------------|
|--------------------------------------------|
|--------------------------------------------|
|--------------------------------------------|
|--2--------1---------1-----------1-----1----|
|--0--------0---------0-----------0-----0----|
|
| Gtr III
|  S S S S  S S S  S  S  S  S  S  S  S  S  S
|-12-7---------------------------------------|
|------8---11-8------------11-14-17-14-------|
|--------9------9-------12-------------15----|
|-----------------11-14-------------------17-|
|--------------------------------------------|
|--------------------------------------------|


               PM          PM
   Q           E     E     E     Q.
|------------------------------------------|
|------------------------------------------|
|------------------------------------------|
|--------------------------------7---------|
|--------------1-----------1-----6---------|
|--------------0-----------0-----5---------|
|
|  S  S  S  S  S  S  S  S  S  S  S   S  Q
|------------------------------------------|
|-------17-20-17----------17-20-16---------|
|----18----------18----18-----------17-----|
|-20----------------20-----------------19--|
|------------------------------------------|
|------------------------------------------|


   E     E     Q           E     Q           E
|----------------------------------------------|
|----------------------------------------------|
|----------------------------------------------|
|--9-----------------------------9-----------7-|
|--7-----------------------------7-----------5-|
|----------------------------------------------|
|
|  S  S  S  S  S  S  S  S  S  S  S  S  S  S  E
|-------------15-19-15----------15-19-15-14----|
|----------17----------17----17-------------15-|
|-------16----------------16-------------------|
|----17----------------------------------------|
|-19-------------------------------------------|
|----------------------------------------------|


   E     Q           E     E     Q           E
|--------------------------------------------------|
|--------------------------------------------------|
|--------------------------------------------------|
|--9----12----------12----12-----7-----------9-----|
|--7----10----------10-----9-----5-----------7-----|
|--------------------------------------------------|
|
|                                         T  T
|  S  S  S  S  S  S  S  S  S  S  S  S  S  S  S  S
|-------------------14-15-17-14----14-17-20p19p15p=|
|----------13-15-17-------------15-----------------|
|-12-14-16-----------------------------------------|
|--------------------------------------------------|
|--------------------------------------------------|
|--------------------------------------------------|


     PM-------------|          PM------------|
   E S S S  S S S S S Q  E   E S S S S S S S S Q  E
|--------------------------|------------------------|
|--------------------------|------------------------|
|--------------------------|------------------------|
|--9------------------9--7-|-9-----------------9--7-|
|--7-7-7-7--7-7-7-7-7-7--5-|-7-7-7-7-7-7-7-7-7-7--5-|
|--------------------------|------------------------|
|
|  E E   H.                  W
|-12-----------------------|------------------------|
|--------------------------|------------------------|
|--------------------------|------------------------|
|--------------------------|------------------------|
|--------------------------|------------------------|
|--------------------------|------------------------|


    PM------------|
  E S S S S S S S S Q  E   E  Q   E  E Q  E
|------------------------|------------------|
|------------------------|------------------|
|------------------------|------------------|
|-9-----------------9--7-|-9-12--12-12-7--9-|
|-7-7-7-7-7-7-7-7-7-7--5-|-7-10--10--9-5--7-|
|------------------------|------------------|
|
| W                        W
|------------------------|------------------|
|------------------------|------------------|
|------------------------|------------------|
|------------------------|------------------|
|------------------------|------------------|
|------------------------|------------------|


    PM------------|          PM------------|
  E S S S S S S S S Q  E   E S S S S S S S S Q  E
|------------------------|------------------------|
|------------------------|------------------------|
|------------------------|------------------------|
|-9-----------------9--7-|-9-----------------9--7-|
|-7-7-7-7-7-7-7-7-7-7--5-|-7-7-7-7-7-7-7-7-7-7--5-|
|-7-7-7-7-7-7-7-7-7-7--5-|-7-7-7-7-7-7-7-7-7-7--5-|


    PM------------|
  E S S S S S S S S Q  E   E  Q   E  E Q  E
|------------------------|------------------|
|------------------------|------------------|
|------------------------|------------------|
|-9-----------------9--7-|-9-12--12-12-7--9-|
|-7-7-7-7-7-7-7-7-7-7--5-|-7-10--10--9-5--7-|
|-7-7-7-7-7-7-7-7-7-7--5-|-7-10--10-10-5--7-|


  Gtrs I, II
   W                                     E  E   E   E   E   E   E   E
|--------------------------------------|-------------------------------|
|--------------------------------------|-------------------------------|
|--------------------------------------|----------------4--(-)-(-)-(-)-|
|--5-----------------------------------|--------5--(-)-(-)--5--(-)-(-)-|
|--3-----------------------------------|----5--(-)--5--(-)-(-)--5--(-)-|
|--3-----------------------------------|-3-(-)-(-)-(-)-(-)-(-)-(-)--3--|
|
| Gtr III
|  E   E    E    E    E    E    E   E    E  E   E   E   E   E   E   E
|---------------------8---(-)--(-)-(-)-|----------------7--(-)-(-)-(-)-|
|-----------8---(-)--(-)---8---(-)-(-)-|--------8--(-)-(-)--8--(-)-(-)-|
|------9---(-)---9---(-)--(-)---9--(-)-|----7--(-)--7--(-)-(-)--7--(-)-|
|-10--(-)--(-)--(-)--(-)--(-)--(-)-10--|-9-(-)-(-)-(-)-(-)-(-)-(-)--9--|
|--------------------------------------|-------------------------------|
|--------------------------------------|-------------------------------|


                                                    PM--------|
   W                                       Q        E    S  S  E  Q.
|---------------------------------------|---------------------------------------|
|---------------------------------------|---------------------------------------|
|---------------------------------------|---------------------------------------|
|--7------------------------------------|--9--------9----9--9--9--7-------------|
|--5------------------------------------|--7--------7----7--7--7--5-------------|
|--5------------------------------------|--7--------7----7--7--7--5-------------|
|
|  E   E    E    E    E    E    E    E     E   E    E    E     E  E    E    E
|--------------------10---(-)--(-)--(-)-|---------------------------------------|
|----------10---(-)--(-)--10---(-)--(-)-|----------12---(-)----------------10---|
|-----11---(-)--11---(-)--(-)--11---(-)-|-----12---(-)--12------------11---(-)--|
|-12--(-)--(-)--(-)--(-)--(-)--(-)--12--|-14--(-)--(-)--(-)---14s12---(-)--(-)--|
|---------------------------------------|---------------------------------------|
|---------------------------------------|---------------------------------------|


   W                                     W
|--------------------------------------|-------------------------------|
|--------------------------------------|-------------------------------|
|--------------------------------------|-4-----------------------------|
|--5-----------------------------------|-5-----------------------------|
|--3-----------------------------------|-5-----------------------------|
|--3-----------------------------------|-3-----------------------------|
|
|  E   E    E    E    E    E    E   E    E  E   E   E   E   E   E   E
|---------------------8---(-)--(-)-(-)-|----------------7--(-)-(-)-(-)-|
|-----------8---(-)--(-)---8---(-)-(-)-|--------8--(-)-(-)--8--(-)-(-)-|
|------9---(-)---9---(-)--(-)---9--(-)-|----7--(-)--7--(-)-(-)--7--(-)-|
|-10--(-)--(-)--(-)--(-)--(-)--(-)-10--|-9-(-)-(-)-(-)-(-)-(-)-(-)--9--|
|--------------------------------------|-------------------------------|
|--------------------------------------|-------------------------------|


            PM-------------------|
   Q        S  S   S  S   S  S S S Q        +H.                Q
|-----------------------------------------|-------------------------|
|-----------------------------------------|-------------------------|
|----------------------------------8------|-(8)----------------8----|
|--7-------------------------------7------|-(7)----------------7----|
|--5--------5--5---5--5---5--5-5-5-6------|-(6)----------------6----|
|-----------------------------------------|-------------------------|
|
|                                  |-3--|    |-3--| |--3--|
|  E   E    E      E      Q        E  E E    E E  E E  E  E Q  Q
|-------------------------8-------------8-|-11p8--------------------|
|----------10-----(-)----(-)---------10---|------10-----------------|
|-----11---(-)----11-----(-)-------8------|---------8---------------|
|-10--(-)--(-)----(-)----(-)--------------|-----------10------------|
|-----------------------------------------|--------------12-9--6----|
|-----------------------------------------|-------------------------|


00:27

  E E Q.    Q   E    E  Q   E  E  Q   E
|-----------------|---------------------|
|-----------------|---------------------|
|-----------------|---------------------|
|-9---------9---7-|--9-12--12-12--7---9-|
|-7---------7---5-|--7-10--10--9--5---7-|
|-----------------|---------------------|
|
| E E Q.    Q   E    E  Q   E  E  Q   E
|-----------------|---------------------|
|-----------------|---------------------|
|-9--------12--11-|-12-16--16-14-11--12-|
|-----------------|---------------------|
|-7--------10---9-|-10-14--14-12--9--10-|
|-----------------|---------------------|


  E E E   E   H               Q   E    E     Q        Q
|--------------------------|-------------------------------|
|--------------------------|-------------------------------|
|--------------------------|------8-------------------8----|
|-9---9--------------------|--9---7-------------------7----|
|-7---7--------------------|--7---6-------------------6----|
|--------------------------|-------------------------------|
|
|     |--3--| |-3-| |-3--|        |---3---|  |--3--|
| E E E E   E E E E E E  E    Q   E  E    E  E  E  E  Q
|-----------7-8p7----------|-------------------------------|
|-------8---------8--------|-------------------------------|
|-9---9-------------9------|-------------------------14----|
|---------------------9----|-------------------13-16-------|
|-7---------------------10-|-------------12-15-------------|
|--------------------------|-12--11-14---------------------|


  Q=140
   E     E     E     E     E     E     E     E
|-------------------------------------------------|
|-------------------------------------------------|
|-------------------------------------------------|
|-------------------------------------------------|
|-------------------------------------------------|
|--7-----7-----7-----7-----7-----7-----7-----7----|
|
|  S  S  S  S  S  S  S  S  S  S  S  S  S  S  S  S
|-------------------------------------------------|
|-------------------------------------------------|
|-------------------------------------------------|
|-12-12-13-13-14-14-------------------17-17-14-14-|
|-------------------12-12-13-13-14-14-------------|
|-------------------------------------------------|


                                                  Q=130
   E     E     E     E     E     E     E     E
|-------------------------------------------------|
|-------------------------------------------------|
|-------------------------------------------------|
|--9-----9-----9-----9-----9-----9-----9-----9----|
|-------------------------------------------------|
|-------------------------------------------------|
|
|  S  S  S  S  S  S  S  S  S  S  S  S  S  S  S  S
|-------------------------------------------------|
|-------------------------------------------------|
|-16-16-------------------14-14-------16-16-------|
|-------17-17-16-16-13-13-------13-13-------14-14-|
|-------------------------------------------------|
|-------------------------------------------------|


   E     E     H.         S  S  S  S  S  S  S  S  S  S  S  S  S  S  E
|----------------------|----------------------------------------------|
|----------------------|-------------------------------10-10----------|
|----------------------|--8--8--------------------8--8-------11-11--8-|
|----------------------|--------------7--7-10-10----------------------|
|--9-----9-----6-------|--------9--9----------------------------------|
|----------------------|----------------------------------------------|
|
|  S  S  S  S  H.         S  S  S  S  S  S  S  S  S  S  S  S  S  S  E
|----------------------|-17p14----------------------------------------|
|----------------------|-------16----16-------------------------------|
|-17----------20-------|----------14----14----------------------------|
|----17-16-16----------|-------------------16----------------------16-|
|----------------------|----------------------18-15----------15-18----|
|----------------------|----------------------------17-14-17----------|


00:38

     PM---------------------|
     E     E     E     E     E     S  S  E     E
||--------------------------------------------------|
||o-------------------------------------------------|
||---------------9----------------11h12p11----------|
||---------9-----------9----------------------12----|
||o--7----------------------10----------------------|
||--------------------------------------------------|
|
|    S  S  S  S  S  S  S  S  S  S  S  S  S  S  S  S
||--------------------------------------------------|
||o----------------19----20-15----------------------|
||--------16-21-16----16-------16-14----14h16h17----|
||-----17----------------------------17----------16-|
||o-19----------------------------------------------|
||--------------------------------------------------|


   PM---------------------|
   E     E     E     E     E     S  S  E     E
|--------------------------------------------------|
|--------------------------------------------------|
|--------------9-----------------7h=9p=7-----------|
|--------9-----------9-----------------------7-----|
|--7----------------------10-----------------------|
|--------------------------------------------------|
|
|  S  S  S  S  S  S  S  S  S  S  S  S  S  S  S  S
|--------------------------------------------------|
|----------------19----20-15-----------------------|
|-------16-21-16----16-------16--------------------|
|----17-------------------------16h17p16-19p16-----|
|-19-------------------------------------------17--|
|--------------------------------------------------|


   PM---------------------|
   E     E     E     E     E     S  S  E     E
|-------------------------------------------------|
|-------------------------------------------------|
|--------------9----------------11h12p11----------|
|--------9-----------9----------------------12----|
|--7----------------------10----------------------|
|-------------------------------------------------|
|
|  S  S  S  S  S  S  S  S  S  S  S  S  S  S  S  S
|-------------------------------------------------|
|----------------19----20-15----------------------|
|-------16-21-16----16-------16-14----14h16h17----|
|----17----------------------------17----------16-|
|-19----------------------------------------------|
|-------------------------------------------------|


   S  S  S  S  S  S  S  S  S  S  S  S  S  S  S  S  4x
|--------------------------------------------------||
|----------------------------------13-15-17-15----o||
|-16-14-12----------------12-14-16-------------14--||
|----------16-14-12-14-16--------------------------||
|-------------------------------------------------o||
|--------------------------------------------------||
|
|  S  S  S  S  S  S  S  S  S  S  S  S  S  S  S  S  4x
|--------------------------------------------------||
|----------------------------------17-19-20-19-15-o||
|-19-17-16----------------16-17-19-----------------||
|----------19-17-16-17-19--------------------------||
|-------------------------------------------------o||
|--------------------------------------------------||


01:08

  Q=120
  Gtrs IV, V
   W          W           W           H     +E   Q.
|-----------|----------|-----------|------------------|
|--8--------|-8--------|-10--------|-12-----(-)-10----|
|--9--------|-7--------|-11--------|-12-----(-)-11----|
|-10--------|-9--------|-12--------|-14-----(-)-12----|
|-----------|----------|-----------|------------------|
|-----------|----------|-----------|------------------|


                                    2/4
   W          W           W           +H
|-----------|----------|-----------|---------|
|--8--------|-8--------|-10--------|--(-)----|
|--9--------|-7--------|-11--------|--(-)----|
|-10--------|-9--------|-10--------|--(-)----|
|-----------|----------|-----------|---------|
|-----------|----------|-----------|---------|

01:23

  Q.=90
 3/8          6/8
  Gtr II
   E  Q         E  E  E  E  E  E    E  E  E  E  E  E
|----------||--------------------|-------------------|
|----------||o-------------------|-------------------|
|----------||--------------------|-------------------|
|--7-------||---5--5--5--5--5--5-|--7--7--7--7--7--7-|
|--5-------||o--5--5--5--5--5--5-|--5--5--5--5--5--5-|
|--5-------||---3--3--3--3--3--3-|--5--5--5--5--5--5-|
|
| Gtr III
|  E  E  E      E  E  E  E  E  E    E  E  E  E  E  E
|----------||--------------------|-------------------|
|----------||o-------------------|-15-13-12----------|
|-11-12-14-||--16-12-14-16-12-14-|----------14-12-11-|
|----------||--------------------|-------------------|
|----------||o-------------------|-------------------|
|----------||--------------------|-------------------|


   E  E        E  E  E  E    E  E  E  E  E  E
|-------------------------|-------------------|
|-------------------------|-------------------|
|-------------------------|-------------------|
|--9--9--------9--9--9--9-|--5--5--5--5--5--5-|
|--7--7--------7--7--7--7-|--5--5--5--5--5--5-|
|--7--7--------7--7--7--7-|--3--3--3--3--3--3-|
|
|  E  T  T  S  E  E  E  E    E  E  E  E  E  E
|-------------------------|-------------------|
|----------------12-10----|----10-12-------10-|
|-12-11h12p11----------11-|-12-------11-------|
|-------------12----------|-------------12----|
|-------------------------|-------------------|
|-------------------------|-------------------|


   E  E E  E E  E   E  E  E  E  E  E
|-----------------|------------------|
|-----------------|------------------|
|-----------------|------------------|
|--9--9-9--9-9--9-|-4--4--4--4--4--4-|
|--7--7-7--7-7--7-|-2--2--2--2--2--2-|
|--7--7-7--7-7--7-|-2--2--2--2--2--2-|
|
|  E  E E  E E  E   E  E  E  E  E  E
|-----------------|------------------|
|-----------------|------------12-15-|
|-12-11-9----9-11-|------11-12-------|
|---------12------|-9-12-------------|
|-----------------|------------------|
|-----------------|------------------|


   E  E  E  E  E  E    E     E     E     E  E  E
|-------------------|-----------------------------||
|-------------------|----------------------------o||
|-------------------|-----------------------------||
|--5--5--5--5--5--5-|--7-----7-----7-----7--7--7--||
|--3--3--3--3--3--3-|--5-----5-----5-----5--5--5-o||
|--3--3--3--3--3--3-|--5-----5-----5-----5--5--5--||
|
|  E  E  E  E  E  E    S  S  S  S  S  S  E  E  E
|----12-15-15-12----|-14h17p14--------------------||
|-13-------------13-|----------15----------------o||
|-------------------|-------------14----------14--||
|-------------------|----------------16----16-----||
|-------------------|-------------------17-------o||
|-------------------|-----------------------------||


01:45

  Q.=120
 4/4
   H                   H
|---------------------------------------|
|---------------------------------------|
|--8-------------------5----------------|
|--7-------------------4----------------|
|--6-------------------3----------------|
|---------------------------------------|
|
|  S  S  S  S  S  S  E S  S S  S S  S E
|---------------------------------------|
|-13h16p13------------------------------|
|----------14---------------8h11p8------|
|-------------13---------10--------10---|
|----------------15-12-9--------------9-|
|---------------------------------------|


   E.       E.       E   S S  S S S S S  S
|------------------------------------------|
|-------------------------------------7-10-|
|-----------------------------------5------|
|-------------------------------7-4--------|
|--7--------------------------5------------|
|-----------8--------7---0-3---------------|
|
|  S   S S  S  S  S  S S S E.     Q
|------------------------------------------|
|------------------------------------------|
|--------------9h12p11p8-9-----------------|
|--------9h10------------------------------|
|-----10-----------------------------------|
|-12---------------------------------------|


               2/4               4/4
  Q  Q  Q  Q     E.  S  S  S  E    H.      +E  E   +W
|-------------|-----------------|----------------|--------|
|-------------|-----------------|----------------|--------|
|-9--5--5-----|-----------------|--------------4-|-(-)----|
|-9--7--5--5--|-----------------|--2-------(-)-4-|-(-)----|
|-7--6--3--5--|--7---9p=7p=6----|--2-------(-)-6-|-(-)----|
|----------3--|---------------7-|--0-------(-)---|--------|
|
| W              E.  S  S  S  E    W                W
|-------------|-----------------|----------------|--------|
|-------------|-----------------|-12-------------|--------|
|-------------|-12--14p12p11----|----------------|--------|
|-------------|--------------13-|----------------|--------|
|-------------|-----------------|----------------|--------|
|-------------|-----------------|----------------|--------|


  Q.    E   E   E  Q    Q   E   E  +H
|-------0--(-)-(-)----|-------------------|
|-----------0--(-)----|---------1--(-)----|
|-5----(-)-(-)--5--4--|-2--(-)--2--(-)----|
|-5----(-)-(-)-(-)-5--|-1--(-)-(-)-(-)----|
|-3----(-)-(-)-(-)-2--|-0---0--(-)-(-)----|
|---------------------|-------------------|


    E  E   E  E +H       E  E   E  E +H
||-----0---------------|----0--(-)-----------||
||o--------0-----------|--------0--1-(-)----o||
||------------4-(-)----|-5-(-)-(-)-2-(-)-----||
||--2-(-)-(-)-4-(-)----|-5-(-)-(-)-1-(-)-----||
||o-2-(-)-(-)-6-(-)----|-3-(-)-(-)-0-(-)----o||
||--0-(-)-(-)----------|---------------------||


  E E  E  E +H         E. E. E E. E. E
|----0---------------|-----------------|
|--------0-----------|-----------------|
|-----------4-(-)----|-----------------|
|-2-(-)-(-)-4-(-)----|-----------------|
|-2-(-)-(-)-6-(-)----|---------------6-|
|-0-(-)-(-)----------|-8--7--6-5--3----|


02:12

  E. E. E. E S  S S E   E. E S E. E S S S S S
|---------------------|-----------------------|
|---------------------|-----------------------|
|---------------------|-----------------------|
|---------------------|---------------4-------|
|----------6-7-10---6-|-3----3-6--3-6---6-3---|
|-0--7--3---------7---|----3----------------5-|


                       2/4
                        Gtr I             G
  E. E. E. E S  S S E   S S S S S S  S  S
|---------------------|-------------------|
|---------------------|-------------------|
|---------------------|-5---------6--9----|
|---------------------|---5-----5-------8-|
|----------6-7-10---6-|-----3-7-----------|
|-0--7--3---------7---|-------------------|
|
|                       Gtr II
| W                     S S S S S S  S  S
|---------------------|-8---------9-12----|
|---------------------|---8-----8------11-|
|---------------------|-----5-9-----------|
|---------------------|-------------------|
|---------------------|-------------------|
|---------------------|-------------------|


 4/4
 trs I, II
  E. E. E. E S  S S E   E. E S E. E S S S S S
|---------------------|-----------------------|
|---------------------|-----------------------|
|---------------------|-----------------------|
|---------------------|---------------4-------|
|----------6-7-10---6-|-3----3-6--3-6---6-3---|
|-0--7--3---------7---|----3----------------5-|
|
| W                     W
|---------------------|-----------------------|
|---------------------|-----------------------|
|---------------------|-----------------------|
|---------------------|-----------------------|
|---------------------|-----------------------|
|---------------------|-----------------------|


  E. E. E. E S  S S E   E. E S S S S S S S S S S S
|---------------------|----------------------------|
|---------------------|----------------------------|
|---------------------|----------------------------|
|---------------------|--------4-2-----------------|
|----------6-7-10---6-|-3----3-----3-2-------3-----|
|-0--7--3---------7---|----3-------------3-----2---|


    E. E. E. E S  S S E   E. E S E. E S S S S S
||----------------------|-------------------------|
||o---------------------|-------------------------|
||----------------------|-------------------------|
||----------------------|---------------4---------|
||o----------6-7-10---6-|-3----3-6--3-6---6-3-----|
||--0--7--3---------7---|----3----------------5---|


   E.  E.  E. E S  S S E    E.        E  S E.        E     S S  S S  S
|------------------------|---------------------------------------------|
|------------------------|---------------------------------------------|
|------------------------|---------------------------------------------|
|------------------------|-----------------------------------4---------|
|-------------6-7-10---6-|--3------------3-6---------3-----6----6-3----|
|--0---7---3---------7---|------------3------------------------------5-|
|
| Gtrs III, V
|  E.  E.  E. E S  S S E    S   S  S  E  E     S  S  S  S  E    E    S
|-12--11--10--9-7--8---7-|-12--11-12-------------15-14-13-12--------12-|
|--------------------7---|-----------13-10----13-----------------------|
|------------------------|-------------------------------------14------|
|------------------------|---------------------------------------------|
|------------------------|---------------------------------------------|
|------------------------|---------------------------------------------|


                                                            2/4
   E.  E.  E. E S  S S E    E.    E.   E.    E.   S S E      H
|------------------------|---------------------------------|---------------||
|------------------------|---------------------------------|--------------o||
|------------------------|---------------------------------|---------------||
|------------------------|---------------------------------|---------------||
|-------------6-7-10---6-|--------------------------3------|--------------o||
|--0---7---3---------7---|--8-----7----6-----5----3---2----|---------------||
|
|  E.  E.  E. E S  S S E    S  E  E  E    E  E  E   E    S   S  S S E E.
|-12--11--10--9-7--8---7-|---------------------------------|---------------||
|--------------------7---|------------------------------11-|---10---8-7---o||
|------------------------|-----9-12-------9-12------9------|------9--------||
|------------------------|-10--------9----------8----------|---------------||
|------------------------|---------------------------------|--------------o||
|------------------------|---------------------------------|---------------||



02:43

   7/8
                  PM|           PM|    PM
     S  S  S  S S S  S S  S  S  S S  S S
||---------------------------------------|
||o-10-10-10-10----------10-10-----------|
||---9--9--9--9-----------9--9-----------|
||---9--9--9--9-----------9--9-----------|
||o--7--7--7--7-----------7--7-----------|
||----------------0--0----------0-0----0-|
|
|   Gtrs III, V
|    S  S  S  S S S  S S  S  S  S S  S S
||--12--7--------------7-12--7---------7-|
||o-------10--------10---------10---10---|
||------------9-7-9---------------9------|
||---------------------------------------|
||o--------------------------------------|
||---------------------------------------|


                   PM         PM|
   S S  S  S S  S  S S  S  S  S S  S S
|----------------------------------------||
|-10------10---10------10-10------10----o||
|--9-------9----9-------9--9-------9-----||
|--9-------9----9-------9--9-------9-----||
|--7-------7----7-------7--7-------7----o||
|------------------0----------0-0--------||
|
|  S S  S  S S  S  S S  S  S  S S  S S
|-12-7---------------7-12--7---------7---||
|------10---------10---------10---10----o||
|----------9-7--9---------------9--------||
|----------------------------------------||
|---------------------------------------o||
|----------------------------------------||


                    PM|            PM|      PM
     S  S  S  S  S  S  S  S  S  S  S  S  S  S
||--------------------------------------------|
||o-10-10-10-10-------------10-10-------------|
||---9--9--9--9--------------9--9-------------|
||---9--9--9--9--------------9--9-------------|
||o--7--7--7--7--------------7--7-------------|
||------------------0--0-----------0--0-----0-|
|
|    S  S  S  S  S  S  S  S  S  S  S  S  S  S
||--17-12----------------12-17-12----------12-|
||o-------15----------15----------15----15----|
||-----------14-12-14----------------14-------|
||--------------------------------------------|
||o-------------------------------------------|
||--------------------------------------------|


                     PM          PM|
   S  S  S  S  S  S  S  S  S  S  S  S  S  S
|--------------------------------------------||
|-10-------10----10-------10-10-------10----o||
|--9--------9-----9--------9--9--------9-----||
|--9--------9-----9--------9--9--------9-----||
|--7--------7-----7--------7--7--------7----o||
|--------------------0-----------0--0--------||
|
|  S  S  S  S  S  S  S  S  S  S  S  S  S  S
|-17-12----------------12-17-12----------12--||
|-------15----------15----------15----15----o||
|----------14-12-14----------------14--------||
|--------------------------------------------||
|-------------------------------------------o||
|--------------------------------------------||


02:56

 11/16
  S S S S S S S S S S S   S S S S S S S S S S S   S S S S S S S S S S S
|-----------------------|-----------------------|------------------------|
|-----------------------|-----------------------|------------------------|
|-----------------------|-----------------------|------------------------|
|-----------------------|-----------------------|------------------------|
|-7---------------------|-7---------------------|-7----------------------|
|---6-5-0-3-5-0-3-0-3-5-|---6-5-0-3-5-0-3-0-3-5-|---6-5-0-3-5-0-3-0-3-5--|


 2/4               11/16
  S S S S S S S S   S S S S S S S S S S S
|-----------------|-----------------------|
|-----------------|-----------------------|
|-----------------|-----------------------|
|-------------2---|-----------------------|
|-------------2---|-7---------------------|
|-6-5-3-0-3-5-0---|---6-5-0-3-5-0-3-0-3-5-|


  S S S S S S S S S S S   S S S S S S S S S S S
|-----------------------|-----------------------|
|-----------------------|-----------------------|
|-----------------------|-----------------------|
|-----------------------|-----------------------|
|-7---------------------|-7---------------------|
|---6-5-0-3-5-0-3-0-3-5-|---6-5-0-3-5-0-3-0-3-5-|


03:07
                Q=150
 3/8           4/4
  S S S S S S   Q  Q  E E E E
|-------------|---------------|
|-------------|---------------|
|-------------|---------------|
|-------------|---------------|
|-------------|-2--5--------7-|
|-6-5-3-0-3-5-|-0--3--0-3-6---|


                  PM------|     PM------------|
  +E  E E E E E E S S   S S E E S S S S S S S S E
|---------------------|---------------------------|
|---------------------|---------------------------|
|---------------------|---------------------------|
|---------------------|---------------------------|
|-(7)-------------2-2-|-2-2-----2-2-------------7-|
|-----6-5-0-3-0---0-0-|-0-0-----0-0-0-0-3-3-6-6---|


                             ~~~
  +E  E E E E E E E   E E E  Q   E E E
|-------------------|------------------|
|-------------------|------------------|
|-------------------|------------------|
|-------------------|------------------|
|-(7)---------------|---5----------5-7-|
|-----6-5-0-3-0-3-5-|-7---6-[5]--0-----|


                  PM------|     PM|
  +E  E E E E E E S S   S S E E S S E E E E
|---------------------|----------------------|
|---------------------|----------------------|
|---------------------|----------------------|
|---------------------|----------------------|
|-(7)-------------2-2-|-2-2-----2-2-------7--|
|-----6-5-0-3-0---0-0-|-0-0-----0-0-0-3-6----|


  +E  E E E E E E E   S S E E Q  E E E
|-------------------|------------------|
|-------------------|------------------|
|-------------------|------------------|
|-------------------|--------------5---|
|-(7)-----7---------|-5-5-----6------7-|
|-----6-5---6-5-3-0-|-----2-3----7-----|


                  PM------|     PM------------|
  +E  E E E E E E S S   S S E E S S S S S S S S E
|---------------------|-----------------------------|
|---------------------|-----------------------------|
|---------------------|-----------------------------|
|---------------------|-----------------------------|
|-(7)-------------2-2-|-2-2-----2-2-------------7---|
|-----6-5-0-3-0---0-0-|-0-0-----0-0-0-0-3-3-6-6-----|


                             ~~~
  +E  E E E E E E E   E E E  Q   E E E
|-------------------|------------------|
|-------------------|------------------|
|-------------------|------------------|
|-------------------|------------------|
|-(7)---------------|---5----------5-7-|
|-----6-5-0-3-0-3-5-|-7---6-[5]--0-----|


                  PM------|     PM|
  +E  E E E E E E S S   S S E E S S E E E E
|---------------------|----------------------|
|---------------------|----------------------|
|---------------------|----------------------|
|---------------------|----------------------|
|-(7)-------------2-2-|-2-2-----2-2-------7--|
|-----6-5-0-3-0---0-0-|-0-0-----0-0-0-3-6----|


                                        3:35

                                       Q.=120
                                        12/8
  +E  E E E E E E E   S S E E Q  E E E   Q  E +Q   E Q  E Q      E
|-------------------|------------------|---------------------------|
|-------------------|------------------|-------------8-------------|
|-------------------|------------------|-------------7-------------|
|-------------------|--------------5---|-2--2-(2)----6-----------2-|
|-(7)-----7---------|-5-5-----6------5-|-2--2-(2)----7-----------2-|
|-----6-5---6-5-3-0-|-----2-3----7-----|-0--0-(0)--0----0-3b3.5--0-|


  +Q   E +Q   E E E E E E E
|---------------------------|
|---------------------------|
|---------------------------|
|-(2)--2-(-)----------------|
|-(2)--2-(-)----5h7-7-7p5---|
|-(0)--0-(-)--0-----------6-|


  Q  E +Q   E Q  E Q.        Q.   E E E E E E E E E
|--------------------------|-------------------------|
|-------------8------------|-------------------------|
|-------------7------------|-------------------------|
|-2--2-(-)----6------------|-2-----------------------|
|-2--2-(-)----7------------|-2----7-5----------------|
|-0--0-(-)--0----0-3b3.5---|-0--------6-6p5-3-5p3-0--|


                         9/8
  Q.    Q.   Q   Q   Q     E E  E  +Q         E   E   E    E
|-----------------------|------------------------------------|
|-----------------------|------------------------------------|
|------13---------------|------------------------------------|
|-2----------7--10--11--|------------------------------------|
|-2----11---------------|-------------------------8h=10p===8-|
|-0-----0----5---8---9--|-10---10--(-)-------10--------------|
|
|                       Gtr III
| W.                       E E  E   E   E     E   E   Q
|-----------------------|------------------------10----------|
|-----------------------|-12---10--(-)-------10--(-)-13b15---|
|-----------------------|-12---10--10--12b14-----------------|
|-----------------------|-12---10--10------------------------|
|-----------------------|------------------------------------|
|-----------------------|------------------------------------|


 12/8
    E     E  E  +Q    E  E     E  E  E  E  E
|--------------------------------------------|
|--------------------------------------------|
|--------------------------------------------|
|--------------------------------------------|
|------------------------8h===10-10--8h10p=8-|
|--10-------10--(-)--10----------------------|
|
|  +H.                   E     E  E  E  E  E
|--------------------------------------------|
|-(13)b15---------------13b15r10----10-------|
|--------------------------------13----13-12-|
|--------------------------------------------|
|--------------------------------------------|
|--------------------------------------------|


 9/8                        12/8
   E  E  E  +Q    E E  E E    E  E  E  +Q     E  E  E  E  E   E    E
|--------------------------|------------------------------------------|
|--------------------------|------------------------------------------|
|--------------------------|------------------------------------------|
|--------------------------|--------------------------12--------------|
|-------------------8h10p8-|--------------------10-13-----8---9---10--|
|-10----10--(-)--10--------|-10----10--(-)---10-----------------------|
|
|  E  E  E   Q.     Q.        E  E  E   E  E  E  E  E  E  E   E    E
|--------------------------|--------------------------------------10--|
|--------------------------|-----------------13--------------10---(-)-|
|-10-----------------------|-10----10--12s14----14s12-10--------------|
|----12-12--12-------------|----12-----------------------12--(-)--(-)-|
|--------------------------|------------------------------------------|
|--------------------------|------------------------------------------|


 9/8
    E   E  E  +Q    E E  E E
|----------------------------|
|----------------------------|
|----------------------------|
|----------------------------|
|---------------------8h10p8-|
|--10-----10--(-)--10--------|
|
|  +H.                Q.
|-(10)\----------------------|
|-(10)-----------------------|
|----------------------------|
|-(12)-----------------------|
|----------------------------|
|----------------------------|


 12/8                                    9/8
   E E  E  +Q    E  E   E   E  E   E  E    E  E   E  +Q    E  E  E  E
|---------------------------------------|-----------------------------|
|---------------------------------------|-----------------------------|
|---------------------------------------|-----------------------------|
|---------------------------------------|-----------------------------|
|-------------------8h=10--10--8h=10p=8-|---------------------8h10p=8-|
|-10---10--(-)--10----------------------|-10-----10--(-)--10----------|
|
|  E E  E  +Q    E  E   E   E  E   E  E    E  E   E  +Q    E  E  E  E
|-13---13--(-)-----13--(-)-13-13--(-)13-|--8-(-)--8--(-)--------------|
|-14---14--(-)-----13h=15--15-13h=15p13-|--8h10---8--(-)--10s13-10----|
|-15---15--(-)--14----------------------|--------------------------12-|
|---------------------------------------|-----------------------------|
|---------------------------------------|-----------------------------|
|---------------------------------------|-----------------------------|


 12/8                                         6/8
   E  E  E  +Q      E  E      E    E    Q.      E  E    E    Q.
|--------------------------------------------|------------------------|
|---------------------10-----(-)--(-)--(-)---|---------------9--------|
|----------------------------10---(-)--(-)---|---------10---(-)-------|
|---------------------------------12---(-)---|----10---(-)--(-)-------|
|--------------------------------------12----|--8-(-)--(-)--(-)-------|
|-10----10-(10)----10------------------------|------------------------|
|
|  E  E  E   E   E  E  E      E    E    Q.      E  E    E    E   E  E
|------------------15-15b17r=15---13---------|----16---20---16--------|
|---------------13---------------------15----|-18---------------18----|
|-10--------14-------------------------------|---------------------17-|
|----12-15-----------------------------------|------------------------|
|--------------------------------------------|------------------------|
|--------------------------------------------|------------------------|


 9/8
  Gtr I
   E    E  E  +Q     E       E  E E
|-----------------------------------|
|-----------------------------------|
|-----------------------------------|
|-----------------------------------|
|----------------------------8h10p8-|
|-10------10--(-)---10--------------|
|
| Gtr II
|  E    E  E  +Q     E       E  E E
|-----------------------------------|
|-----------------------------------|
|-----------------------------------|
|----------------------------7h=8p7-|
|--8-------8--(-)----8--------------|
|-----------------------------------|
|
| Gtr III
|  Q.          Q    +E       Q.
|-15b17-------13----(-)b13.5--------|
|-----------------------------------|
|-----------------------------------|
|-----------------------------------|
|-----------------------------------|
|-----------------------------------|


 12/8                                            9/8
   E  E  E  +Q    E  E     E  E  E  E   E          E E  E  +Q    E      E   E  E
|-----------------------------------------------|--------------------------------|
|-----------------------------------------------|--------------------------------|
|-----------------------------------------------|--------------------------------|
|-----------------------------------------------|--------------------------------|
|--------------------8h===10-10--8h10p==8-------|-----------------------8h=10p=8-|
|-10----10--(-)--10-----------------------------|-10---10--(-)--10---------------|
|
|  E  E  E  +Q    E  E     E  E  E  E   E          E E  E  +Q    E      E   E  E
|-----------------------------------------------|--------------------------------|
|-----------------------------------------------|--------------------------------|
|-----------------------------------------------|--------------------------------|
|--------------------7h====8--8--7h=8p==7-------|-----------------------7h==8p=7-|
|--8-----8--(-)---8-----------------------------|--8----8--(-)---8---------------|
|-----------------------------------------------|--------------------------------|
|
|  H.                Q.          Q     +E          Q    E   Q    E     +Q      E
|-------------------15b17-------13-----(-)b13.5-|-10-------10--------------------|
|-----------------------------------------------|------13------------------------|
|-----------------------------------------------|---------------12b13r (-)----10-|
|-----------------------------------------------|--------------------------------|
|-----------------------------------------------|--------------------------------|
|-----------------------------------------------|--------------------------------|


 12/8                                    9/8
    E   E  E  +Q    E  E   E  E E  E  E    E E  E  +Q    E  E E  E
|---------------------------------------|--------------------------|
|---------------------------------------|--------------------------|
|---------------------------------------|--------------------------|
|----------------------------12---------|--------------------------|
|---------------------10--13----8--9-10-|-------------------8h9p=8-|
|--10-----10- (-)--10-------------------|-10---10 -(-)--10---------|
|
|   E   E  E  +Q    E  E   E  E E  E  E    E E  E  +Q    E  E E  E
|---------------------------------------|--------------------------|
|--------------------------7-10-7-------|--------------------------|
|----------------------8----------10--8-|--------------------------|
|-------------------8-------------------|-------------------7h8p=7-|
|---8------8--(-)-----------------------|--8----8--(-)---8---------|
|---------------------------------------|--------------------------|
|
|  +H.                 H.                  Q    E   Q    E  Q    E
|---------------------------------------|--------------------------|
|---------------------------------------|----------12---10-12---10-|
|-(10)\---------------------------------|----------12---10-12---10-|
|---------------------------------------|-12---12--12---10-12---10-|
|---------------------------------------|--------------------------|
|---------------------------------------|--------------------------|


 12/8
    E  E  E  +Q    E  E  E  E   E   E  E
|-----------------------------------------|
|-----------------------------------------|
|-----------------------------------------|
|-----------------------------------------|
|---------------------8h10-10---8h=10p=8--|
|--10----10--(-)--10----------------------|
|
|   E  E  E  +Q    E  E  E  E   E   E  E
|-----------------------------------------|
|-----------------------------------------|
|-----------------------------------------|
|---------------------7h=8--8---7h==8p=7--|
|---8-----8--(-)---8----------------------|
|-----------------------------------------|
|
|  +Q     E   Q    E  Q     E  +Q      E
|-----------------------------------------|
|-(10)-------12---10-12----10--(-)--------|
|-(10)-------12---10-12----10--(-)--------|
|-(10)---12--12---10-12----10--(-)--------|
|-------------------------------------12--|
|-----------------------------------------|


 9/8
   E E  E  +Q     E   E  E E
|----------------------------|
|----------------------------|
|----------------------------|
|----------------------------|
|---------------------8h10p8-|
|-10---10--(-)---10----------|
|
|  E E  E  +Q     E   E  E E
|----------------------------|
|----------------------------|
|----------------------------|
|---------------------7h=8p7-|
|--8----8--(-)----8----------|
|----------------------------|
|
|  Q    E  +Q.        Q.
|--------------------15------|
|-------------------/15------|
|----------------------------|
|-10---12-(12)\--------------|
|----------------------------|
|----------------------------|


 12/8                                     6/8
   E  E  E  +Q    E  E  E  E   E    E  E    E  E  E  Q.
|----------------------------------------|----------------|
|----------------------------------------|----------------|
|----------------------------------------|----------------|
|-------------------------12-------------|----------------|
|-------------------10-13------8----9-10-|----------------|
|-10----10--(-)--10----------------------|-10h12p10-12----|
|
|  E  E  E  +Q    E  E  E  E   E    E  E    E  E  E  Q.
|----------------------------------------|----------------|
|----------------------------------------|----------------|
|-----------------------7-10---7---------|----------------|
|--------------------8-------------10--8-|----------------|
|--8-----8--(-)---8----------------------|--8h10p=8-10----|
|----------------------------------------|----------------|
|
|  Q.        Q    E  Q     E  +Q.           H.
|-13\------------------------------------|----------------|
|-13-------------------------------------|----------------|
|----------/12---10-12----14-(14)\-------|----------------|
|----------------------------------------|----------------|
|----------------------------------------|----------------|
|----------------------------------------|----------------|


 12/8
                                                          PM
  Q  E +Q   E Q  E Q      E   +Q   E +Q    E  +Q   E  E E E
|---------------------------|-------------------------------|
|-------------9-------------|-------------------------------|
|-------------7-------------|-------------------------------|
|-2--2-(-)----6-----------2-|-(-)---------10--(-)-----------|
|-2--2-(-)----7-----------2-|-(-)--5-(-)---8--(-)-----------|
|-0--0-(-)--0----0-3b3.5--0-|-(-)--3-(-)---8--(-)--8-10p8-3-|


                            PM
  Q  E +Q    E  +Q   E  E E E
|-----------------------------|
|-----------------------------|
|-----------------------------|
|-----------10--(-)-----------|
|-7--5-(-)---8--(-)-----------|
|-5--3-(-)---8--(-)--8-10p8-3-|


       PM----|                                         PM
  Q.   E S S E E E E E E E   Q  E +Q    E  +Q   E  E E E
|--------------------------|-----------------------------|
|--------------------------|-----------------------------|
|--------------------------|-----------------------------|
|-2------------------------|-----------10--(-)-----------|
|-2----------------5-------|-7--5-(-)---8--(-)-----------|
|-0----0-0-0-0-3-6---1-2-3-|-5--3-(-)---8--(-)--8-10p8-3-|


                            PM
  Q  E +Q    E  +Q   E  E E E
|-----------------------------|
|-----------------------------|
|-----------------------------|
|-----------10--(-)-----------|
|-7--5-(-)---8--(-)-----------|
|-5--3-(-)---8--(-)--8-10p8-3-|


                            PM
  Q  E +Q    E  +Q   E  E E E   Q  E +Q   E Q  E Q  E
|-----------------------------|-----------------------|
|-----------------------------|-----------------------|
|-----------------------------|-----------------------|
|-----------10--(-)-----------|-----------------------|
|-7--5-(-)---8--(-)-----------|-7--5-(-)--7-5--5-7--5-|
|-5--3-(-)---8--(-)--8-10p8-3-|-5--3-(-)--5-3--3-5--3-|


                            PM
  Q  E +Q    E  +Q   E  E E E
|-----------------------------|
|-----------------------------|
|-----------------------------|
|-----------10--(-)-----------|
|-7--5-(-)---8--(-)-----------|
|-5--3-(-)---8--(-)--8-10p8-3-|


                            PM
  Q  E +Q    E  +Q   E  E E E
|-----------------------------|
|-----------------------------|
|-----------------------------|
|-----------10--(-)-----------|
|-7--5-(-)---8--(-)-----------|
|-5--3-(-)---8--(-)--8-10p8-3-|


                            PM
  Q  E +Q    E  +Q   E  E E E   Q  E +Q   E +Q   E E E E
|-----------------------------|---------------------------|
|-----------------------------|---------------------------|
|-----------------------------|---------------------------|
|-----------10--(-)-----------|---------------------------|
|-7--5-(-)---8--(-)-----------|-7--5-(-)--5-(-)--5-3h4h5--|
|-5--3-(-)---8--(-)--8-10p8-3-|-5--3-(-)--3-(-)--3--------|



 9/8
                                        G
  E E E E E E E E E   E E E E E E E E E
|-------------------|-------------------|
|-------------------|-------------------|
|-------------------|-------------------|
|-------------------|-------------------|
|-------0h3h6-3h4h5-|-------0h3h6-3h4h5-|
|-0h3h5-------------|-0h3h5-------------|
|
|                                       G
| W               E   W               E
|-------------------|-------------------|
|-------------------|-------------------|
|-------------------|-------------------|
|-------------------|-------------------|
|-------------------|-------------------|
|-------------------|-------------------|


 tr I
  E E E E E E E E E   E E E E E E E E E
|-------------------|--------------------|
|-------------------|--------------------|
|-------------------|--------------------|
|-------------------|--------------------|
|-------0h3h6-3h4h5-|-------0h3h6-3h4h5--|
|-0h3h5-------------|-0h3h5--------------|
|
|tr II
| E E E E E E E E E   E E E E E E E E E
|-------------------|--------------------|
|-------------------|--------------------|
|-------------------|--------------------|
|-------------------|--------------------|
|-------0h6h9-6h7h8-|-------0h6h9-6h7h8--|
|-0h6h9-------------|-0h6h9--------------|



04:44

  Q.=130
 12/8
  Gtrs I, II
  PM--------|
  E E E E E E E E E E E E
|-------------0-0-0-0-0-0-|
|-------------0-0-0-0-0-0-|
|-------------9-9-9-9-9-9-|
|-------------9-9-9-9-9-9-|
|-2-2-2-2-2-2-7-7-7-7-7-7-|
|-0-0-0-0-0-0-------------|


  PM--------|                       PM--------|   PM  PM|
  E E E E E E E  E   E  E  E   E    E E E E E E E E E E E E
|------------------------------0--|-------------------------|
|--------------------0--6-(-)-(-)-|-------------------------|
|----------------3--(-)----7--(-)-|-------------------------|
|-------------3-(-)-(-)-----------|-----------------5-----7-|
|-8-7---3-5-----------------------|-3---3-5-3---3---3-5---5-|
|-6-5-0-1-3-0---------------------|-1-0-1-3-1-0-1-0---3-0---|


                            PM--------|
  E E E E E E E E E E E E   E E E E E E E E E E E E
|-------------------------|-------------0-0-0-0-0-0-|
|-------------------------|-------------0-0-0-0-0-0-|
|-------------------------|-------------9-9-9-9-9-9-|
|-------------------------|-------------9-9-9-9-9-9-|
|-------0h3h6-3h4h5-------|-3-2-2-2-2-2-7-7-7-7-7-7-|
|-0h3h6-------------4-3-0-|-1-0-0-0-0-0-------------|


  PM--------|
  E E E E E E E  E   E  E  E   E
|------------------------------0---|
|--------------------0--6-(-)-(-)--|
|----------------3--(-)----7--(-)--|
|-------------3-(-)-(-)------------|
|-8-7---3-5------------------------|
|-6-5-0-1-3-0----------------------|


                             Gtr I
  PM-------------|   PM--|     PM                 PM
  E  E E E E E E E E E E E   E E E E E E E E E Q  E   E  E E E E E Q.   S S Q
|--------------------------|------------------------|--------------------------|
|--------------------------|------------------------|--------------------------|
|--------------------------|------------------------|--------------------------|
|------------------3-------|------------------------|----3---1-----------------|
|-2--2-2-5-3---5---1-5-3-5-|-3---5s8-----3---2-1----|------3---2---3----3-3----|
|-0--0-0-3-1-0-3-0---3-1-3-|-1-0-----9-8-1-0-4-3--0-|-1----------0-1----1-1----|
|
|                            Gtr II
|                              PM          PM     PM
| W.                         E E E E E E E E E Q  E   W.
|--------------------------|------------------------|--------------------------|
|--------------------------|------------------------|--------------------------|
|--------------------------|------------------------|--------------------------|
|--------------------------|------------------------|--------------------------|
|--------------------------|-3---2s5-----3---2-1----|--------------------------|
|--------------------------|-1-0-----6-5-1-0-4-3--0-|--------------------------|


05:01
                                                      5/4
    PM--------|       PM--|     PM                 PM
    E E E E E E E E E E E E   E E E E E E E E E Q  E   E E E E E E Q.   S S
||--------------------------|------------------------|-----------------------||
||o-------------------------|------------------------|----------------------o||
||--------------------------|------------------------|-----------------------||
||--------------------------|------------------------|---3---1---------------||
||o-------0-3-6-3h4h5-------|-3---5s8-----3---2-1----|-----3---2---3----3-3-o||
||--0-3-6-------------4-3-0-|-1-0-----9-8-1-0-4-3--0-|-1---------0-1----1-1--||
|
|   PM--------|       PM--|     PM          PM     PM
|   E E E E E E E E E E E E   E E E E E E E E E Q  E   E E E E E E Q.   S S
||--------------------------|------------------------|-----------------------||
||o-------------------------|------------------------|----------------------o||
||--------------------------|------------------------|-----------------------||
||--------------------------|------------------------|---3---1---------------||
||o-------0-3-6-3h4h5-------|-3---2s5-----3---2-1----|-----3---2---3----3-3-o||
||--0-3-6-------------4-3-0-|-1-0-----6-5-1-0-4-3--0-|-1---------0-1----1-1--||


 6/4                                                5/4
  PM--------|       PM--|     PM                 PM
  E E E E E E E E E E E E   E E E E E E E E E Q  E   E E E E E E Q.   S S
|-------------------------|------------------------|----------------------|
|-------------------------|------------------------|----------------------|
|-------------------------|------------------------|----------------------|
|-------------------------|------------------------|---3---1--------------|
|-------0-6-9-6h7h8-------|-3---5s8-----3---2-1----|-----3---2---3----3-3-|
|-0-6-9-------------7-6-0-|-1-0-----9-8-1-0-4-3--0-|-1---------0-1----1-1-|
|
| PM--------|       PM--|     PM          PM     PM
| E E E E E E E E E E E E   E E E E E E E E E Q  E   E E E E E E Q.   S S
|-------------------------|------------------------|----------------------|
|-------------------------|------------------------|----------------------|
|-------------------------|------------------------|----------------------|
|-------------------------|------------------------|---3---1--------------|
|-------0-3-6-3h4h5-------|-3---2s5-----3---2-1----|-----3---2---3----3-3-|
|-0-3-6-------------4-3-0-|-1-0-----6-5-1-0-4-3--0-|-1---------0-1----1-1-|


 6/4                                                5/4
  PM--------|       PM--|     PM                 PM
  E E E E E E E E E E E E   E E E E E E E E E Q  E   E E E E E E Q.   S S
|-------------------------|------------------------|----------------------|
|-------------------------|------------------------|----------------------|
|-------------------------|------------------------|----------------------|
|-------------------------|------------------------|---3---1--------------|
|-------0-3-6-3h4h5-------|-3---5s8-----3---2-1----|-----3---2---3----3-3-|
|-0-3-6-------------4-3-0-|-1-0-----9-8-1-0-4-3--0-|-1---------0-1----1-1-|
|
| PM--------|       PM--|     PM          PM     PM
| E E E E E E E E E E E E   E E E E E E E E E Q  E   E E E E E E Q.   S S
|-------------------------|------------------------|----------------------|
|-------------------------|------------------------|----------------------|
|-------------------------|------------------------|----------------------|
|-------------------------|------------------------|---3---1--------------|
|-------0-3-6-3h4h5-------|-3---2s5-----3---2-1----|-----3---2---3----3-3-|
|-0-3-6-------------4-3-0-|-1-0-----6-5-1-0-4-3--0-|-1---------0-1----1-1-|


  Q=180
 3/4
    PM------|
  E E E E E E   H    Q    E Q  Q.
|-------------|---------|-----------|
|-------------|---------|-----------|
|-------------|---------|-----------|
|-4-----------|-7----7--|-9-5--5----|
|---7-5-4-----|---------|-----------|
|---------7-3-|-5----5--|-7-3--3----|


05:26

 4/4
  Gtr I
  Q       Q        Q        Q          E     E     E     E     E E E  E
|-----------------------------------|-----------------------------------|
|-----------------------------------|------------------------------7-10-|
|-----------------------------------|----------------------------5------|
|-9-------7-------------------------|--------------------7-----4--------|
|-7-------5--------5--------7-------|--------------5--------------------|
|------------------3--------5-------|--0-----3--------------------------|
|
| Gtr II
| Q       Q        Q        Q          E     E     E     E     E E E  E
|-----------------------------------|-----------------------------------|
|-----------------------------------|-----------------------------------|
|-----------------------------------|-----------------------------------|
|-9-------7-------------------------|--------------------7-----4------4-|
|-7-------5--------5--------7-------|--------------5-------------3-6----|
|------------------3--------5-------|--0-----3--------------------------|
|
| Gtr III
| |-3--|  |--3--|  |--3--|  |--3--|
| E E  E  E  E  E  E  E  E  E  E  E    S  S  S  S  S  S  S  S  H
|-----------------------------------|-------15-19-17-14-----------------|
|--------------------12-15-17-13----|----17-------------15--------------|
|---9-12-14-11----12-------------14-|-16-------------------14-11--------|
|-9------------12-------------------|-----------------------------------|
|-----------------------------------|-----------------------------------|
|-----------------------------------|-----------------------------------|


  Gtrs I, II
  PM---------------------|
  |--3---| |-3-| |-3-| |-3-|     |-3-|  |-3--|         |--3--|
  E S S  E E E E E S S E E Q     E E E  E E  E E  E  E S  S  S
|------------------------------|--------------------------------|
|------------------------------|--------------------------------|
|------------------------------|--------------------------------|
|-5-5-5--5---4-5---------7-----|---------------------9-9-10-12--|
|----------------5-5-5-4-------|-9-7-9-10------7-10-------------|
|------------------------------|----------8-11------------------|
|
| Gtr III
| |--3---| |-3-| |--3--| |-3-|   |-3-|  |-3--|         |--3--|
| E E    E E E E E E   E E E E   E E E  E E  E E  E  E S  S  S
|---6---10---------------------|--------------------------------|
|-8--------6-7-8-------9-------|-----------------------8-10-12--|
|----------------7-6-----7-6-9-|--------------------11----------|
|------------------------------|-7-5-7--8---------9-------------|
|------------------------------|----------6--9-7----------------|
|------------------------------|--------------------------------|


                                        |--3--|  |--3--|  |--3--|
   Q    Q           Q        Q          E  E  E  E  E  E  E  E  E  Q
|------------------------------------|--------------------------------|
|------------------------------------|--------------------------------|
|------12----------11--------8-------|--------------------------8-11--|
|--9---------------------------------|--------------7--8-10-11--------|
|------------------------------------|--6--7--9-10--------------------|
|------------------------------------|--------------------------------|
|
|       |--3--|     |--3--|  |--3--|    |--3--|  |--3--|  |--3--|
|  E E  S  S  S  E  E  E  E  E  E  E    E  E  E  E  E  E  E  E  E  Q
|-10------12-14-15-14-11-14-17-14----|-------------------------14-17--|
|----9-13-------------------------16-|-------------13-14-16-17--------|
|------------------------------------|-11-12-14-15--------------------|
|------------------------------------|--------------------------------|
|------------------------------------|--------------------------------|
|------------------------------------|--------------------------------|


05:38

   PM-------------------------------------
   |---3---|  |--3--|  |--3---|  |--3--|
   E  S S  E  E  E  E  E S S  E  E  E  E
|----------------------------------------|
|-------------------------------------12-|
|--9--9-9--9-12--9--9--9-9-9--9--9-12----|
|----------------------------------------|
|----------------------------------------|
|----------------------------------------|
|
|  |---3---|  |--3--|  |--3---|  |--3--|
|  E  E    E  E  E  E  Q      E  E  E  E
|----15---19-15-----------------15-19-22-|
|-17------------17----17-----19----------|
|------------------16--------------------|
|----------------------------------------|
|----------------------------------------|
|----------------------------------------|


 -------------------------------------|
   |---3---|  |--3--|  |--3---|  |--3--|
   E  S S  E  E  E  E  E S S  E  E  E  E
|----------------------------------------|
|--------------------------------------8-|
|--6--6-6--6--9--6--6--6-6-6--6--6--9----|
|----------------------------------------|
|----------------------------------------|
|----------------------------------------|
|
|  |---3---|  |--3--|  |--3---|  |--3--|
|  E  E    E  E  E  E  Q      E  E  E  E
|----15---15-12-----------------12-15-18-|
|-14------------14----14-----15----------|
|------------------12--------------------|
|----------------------------------------|
|----------------------------------------|
|----------------------------------------|


   |--3--|  |--3--|  |--3--|  |-3-|    |--3--|  |--3--|  |--3--|  |3-|
   E  E  E  E  E  E  E  E  E  E E E    Q     E  Q     E  E  E  E  Q  E
|-----------------------------------|----------------------------------|
|--------3--------------------------|----------------------------------|
|--4--4-----------4-----------------|-----------------------------7-11-|
|-----------4--4-----------4--------|--------------------------8-------|
|--------------------2--2-----------|-----------------------9----------|
|-----------------------------2-3-5-|--3----10--8----10-10-------------|
|
|  |--3--|  |--3--|  |--3--|           |--3--|  |--3--|  |--3--|  |3-|
|  E  E  E  E  E  E  E  E  E  Q        E  E  E  E  E  E  E  E  E  Q  E
|----10-14-10-----------------------|----------------------------------|
|-12----------12--------------------|----------------------------------|
|----------------11-------11--------|-------12-------------------11-15-|
|-------------------12-------12-----|-14-10----14-10--9-------12-------|
|----------------------14-----------|----------------------13----------|
|-----------------------------------|-------------------14-------------|


                          3/4                 4/4
      PM--|      PM--------|
  |3| |-3-| |3-| |--3--|   |-3-| |-3-| |-3-|
  Q E E E E Q  E E S S E   E E E E E E E E E   Q  Q  Q  Q
|------------------------|-------------------|-------------|
|------------------------|-------------------|-------------|
|------------------------|-----------------5-|-8--4--------|
|-9-8-------9--8---------|-------------------|-------4--8--|
|-----2-2-2------2-2-2-2-|---2---1---2-5-2-3-|-6--2--------|
|-7-6-0-0-0-7--6-0-0-0-0-|-0---0---0---------|-------2--6--|


5:51

  Gtr I
   Q.    S  S  Q   E  E    E  S  S  S  S  E  Q.    S  S
|-----------------------|-------------------------------|
|-----------------------|-------------------------------|
|-11----12-14-----------|-------------------------------|
|-------------11--12-14-|-17-16-14-16-14-12-11----14-16-|
|-----------------------|-------------------------------|
|-----------------------|-------------------------------|
|
| Gtr II
|  Q.    S  S  Q   E  E    E  S  S  S  S  E  Q.    S  S
|-----------------------|-------------------------------|
|-----------------------|-------------------------------|
|--7-----9-11-----------|--------------------------6--7-|
|--------------8---9-11-|-14-12-11-12-11--9--5----------|
|-----------------------|-------------------------------|
|-----------------------|-------------------------------|


   S  S  S  S  S  S  S  S  Q   E  E
|------------------------------------|
|-------------------14-15-14---------|
|----------12-14-16-----------14-----|
|-12-14-16-----------------------14--|
|------------------------------------|
|------------------------------------|
|
|  S  S  S  S  S  S  S  S  Q   E  E
|------------------------------------|
|--------------------5--7--5---------|
|-----------4--6--7------------6-----|
|--4--5--7------------------------7--|
|------------------------------------|
|------------------------------------|


  Q   S  S  S  S  Q   Q     Q.    S  S  E  E  S  S  S  S
|------------------------|----------------------17-19-22-|
|------------------------|----------------19-20----------|
|----------13-16-15--18--|-19----18-16-18----------------|
|-9--13-16---------------|-------------------------------|
|------------------------|-------------------------------|
|------------------------|-------------------------------|
|
| Q   S  S  S  S  Q   Q     Q.    S  S  E  E  S  S  S  S
|------------------------|----------------------14-15-19-|
|------------------------|----------------15-17----------|
|-----------9-13-11--15--|-16----14-12-14----------------|
|-6---9-13---------------|-------------------------------|
|------------------------|-------------------------------|
|------------------------|-------------------------------|


   E  S  S  E  S  S  E  S  S  E  S  S
|-21-21-21-18-18-18-15-15-15----------|
|----------------------------17-17-17-|
|-------------------------------------|
|-------------------------------------|
|-------------------------------------|
|-------------------------------------|
|
|  E  S  S  E  S  S  E  S  S  E  S  S
|-18-18-18-15-15-15-12-12-12----------|
|----------------------------14-14-14-|
|-------------------------------------|
|-------------------------------------|
|-------------------------------------|
|-------------------------------------|



6:03
                                  Gtr I
   E  S  S  E  E  E  S  S  E  E   H                      H
|-------------------------------|----------------------------------------------|
|-------------------------------|----------------------------------------------|
|-12-11-------12-14-12-11-------|----------------------------------------------|
|-------14-11-------------14-11-|-4--------------------------------------------|
|-------------------------------|-2----------------------4---------------------|
|-------------------------------|------------------------2---------------------|
|
|                                 Gtr III
|  E  S  S  E  E  E  S  S  E  E   S  S S  S  S  S  S  S  S S  S  S  S  S  S S
|-------------------------------|--------------------10-14-9-------------------|
|-------------------------------|-----------------12---------11----------------|
|--9--7--6-----9-11--9--7-------|--------------11---------------11-------------|
|-----------8-------------11--8-|-----------12---------------------11----------|
|-------------------------------|------9-14---------------------------13-------|
|-------------------------------|-7-10-----------------------------------14-9--|


   H                       H
|-------------------------------------------------|
|-------------------------------------------------|
|--------------------------6----------------------|
|--7-----------------------5----------------------|
|--5-----------------------4----------------------|
|-------------------------------------------------|
|
|  S  S  S  S  S  S  S  S  S  S  S  S  S  S  S  S
|----------------------14-15-12-------------------|
|-------------------15----------14----------------|
|----------------14----------------12-------------|
|-------------16----------------------14----------|
|-------12-17----------------------------16-10----|
|-10-14----------------------------------------12-|


  H                      H
|-------------------------------------------|
|-------------------------------------------|
|------------------------2------------------|
|-4----------------------2------------------|
|-2----------------------0------------------|
|-------------------------------------------|
|
| S  S S  S  S  S  S  S  S S  S S  S  S S S
|--------------------10-12-9----------------|
|-----------------12---------10-------------|
|--------------11---------------9-----------|
|-----------12--------------------11--------|
|------9-14--------------------------12-7---|
|-7-10------------------------------------9-|


   H                       H
|-------------------------------------------------|
|-------------------------------------------------|
|-------------------------------------------------|
|-------------------------------------------------|
|--2-----------------------4----------------------|
|--0-----------------------2----------------------|
|
|  S  S  S  S  S  S  S  S  S  S  S  S  S  S  S  S
|----------------------16-18----------------------|
|-------------------17-------19-------------------|
|----------------16-------------18----------------|
|-------------18-------------------20-------------|
|-------14-19-------------------------21-16-------|
|-12-16-------------------------------------18-14-|


   H                       H
|-------------------------------------------------|
|-------------------------------------------------|
|-------------------------------------------------|
|-------------------------------------------------|
|--5-----------------------2----------------------|
|--3-----------------------0----------------------|
|
|  S  S  S  S  S  S  S  S  S  S  S  S  S  S  S  S
|----------------------19-15----------------------|
|-------------------20-------17-------------------|
|----------------19-------------16----------------|
|-------------21-------------------17-------------|
|-------17-22-------------------------19-14-------|
|-15-19-------------------------------------15-12-|


   H                      H
|--------------------------------------------|
|--------------------------------------------|
|--------------------------------------------|
|-------------------------8------------------|
|--4----------------------7------------------|
|--2----------------------6------------------|
|
|                      T
|  S  S  S  S  S S  S  S  S S  S S  S  S S S
|----------------9-14-18-12-9----------------|
|-------------11--------------11-------------|
|----------11--------------------9-----------|
|-------11-------------------------11--------|
|----13-------------------------------13-7---|
|-14---------------------------------------9-|


  H                      H
|-----------------------------------------------|
|-----------------------------------------------|
|-----------------------------------------------|
|-9----------------------9----------------------|
|-9----------------------9----------------------|
|-7----------------------7----------------------|
|
|                                             T
| S  S S  S  S  S  S  S  S  S  S  S  S  S  S  S
|--------------------11-14-11----------11-14-19-|
|-----------------12----------12----12----------|
|--------------11----------------11-------------|
|-----------13----------------------------------|
|------9-14-------------------------------------|
|-7-11------------------------------------------|


                                        2/4       4/4
                                                       PM--|      PM----|
                                                   |3| |-3-| |3-| |--3--|
   H                     S  S E  S S E    Q   Q    Q E E E E Q  E E S S E
|--------------------------------------|---------|-------------------------|
|--------------------------------------|---------|-------------------------|
|--------------------------------------|--7--11--|-------------------------|
|--9---------------------------------8-|---------|-9-8-------9--8----------|
|--9--------------------------8----9---|---------|-----2-2-2------2-2-2-2--|
|--7---------------------7-10---10-----|---------|-7-6-0-0-0-7--6-0-0-0-0--|
|
|  S  S  S  S  S  S S  S S  S E  S S E    Q   Q    W
|-14-11--------------------------------|---------|-------------------------|
|-------12-----------------------------|---------|-------------------------|
|----------11------------------------7-|-11--15--|-------------------------|
|-------------13-------------------8---|---------|-------------------------|
|----------------14-9---------8--9-----|---------|-------------------------|
|---------------------11-7-10----------|---------|-------------------------|


 3/4                  4/4
  |-3--| |-3-| |-3-|
  E  E E E E E E E E   Q  Q  Q  Q
|--------------------|-------------|
|--------------------|-------------|
|------------------5-|-8--4--------|
|--------------------|-------4--8--|
|----2---1---2-5-2-3-|-6--2--------|
|-0----0---0---------|-------2--6--|
|
| H.                   W
|--------------------|-------------|
|--------------------|-------------|
|--------------------|-------------|
|--------------------|-------------|
|--------------------|-------------|
|--------------------|-------------|


06:28

   7/4
    Gtr I
          PM--|       PM------|   PM  PM
     |3-| |-3-|  |3-| |--3--| |-3-| |-3-| |-3-|
     Q  E E E E  Q  E E S S E E E E E E E E E E   3x
||------------------------------------------------||
||o----------------------------------------------o||
||--12-11-------12-11-----------------------------||
||------------------------------------------------||
||o-10--9-2-2-2-10--9-2-2-2-2---2---1---2-5-2-1--o||
||--------0-0-0-------0-0-0-0-0---0---0-----------||
|
|   Gtr II
|         PM--|       PM------|   PM  PM
|    |3-| |-3-|  |3-| |--3--| |-3-| |-3-| |-3-|
|    Q  E E E E  Q  E E S S E E E E E E E E E E   3x
||------------------------------------------------||
||o----------------------------------------------o||
||------------------------------------------------||
||---9--8--------9--8-----------------------------||
||o-------2-2-2-------2-2-2-2---2---1---2-5-2-1--o||
||---7--6-0-0-0--7--6-0-0-0-0-0---0---0-----------||


 4/4
                                                   G
        PM--|       PM--------|   PM  PM
   |3-| |-3-|  |3-| |--3--|   |-3-| |-3-| |-3-|
   Q  E E E E  Q  E E S S E   E E E E E E E E E Q
|---------------------------|----------------------|
|---------------------------|----------------------|
|-12-11-------12-11---------|-----------------5-8--|
|---------------------------|----------------------|
|-10--9-2-2-2-10--9-2-2-2-2-|---2---1---2-5-2-3-6--|
|-------0-0-0-------0-0-0-0-|-0---0---0------------|
|
|                                                  G
|       PM--|       PM--------|   PM  PM
|  |3-| |-3-|  |3-| |--3--|   |-3-| |-3-| |-3-|
|  Q  E E E E  Q  E E S S E   E E E E E E E E E Q
|---------------------------|----------------------|
|---------------------------|----------------------|
|---------------------------|-----------------5-8--|
|--9--8--------9--8---------|----------------------|
|-------2-2-2-------2-2-2-2-|---2---1---2-5-2-3-6--|
|--7--6-0-0-0--7--6-0-0-0-0-|-0---0---0------------|
|
|                                                  G
|  W                          W
|---------------------------|----------------------|
|---------------------------|----------------------|
|---------------------------|----------------------|
|---------------------------|----------------------|
|---------------------------|----------------------|
|---------------------------|----------------------|


 tr I
  +W
|-------------------------------------------------|
|-------------------------------------------------|
|-(8)---------------------------------------------|
|-------------------------------------------------|
|-(6)---------------------------------------------|
|-------------------------------------------------|
|
|tr II
|  S  S S S S  S  +Q.                 S   S  S  S
|---------5-8-11--(-)--------------------------11-|
|-------7-----------------------------------13----|
|--5--8------------------------------11--14-------|
|-------------------------------------------------|
|-------------------------------------------------|
|-------------------------------------------------|
|
|tr III
|  Q        E      S   S  S S  S  S  +Q
|---------------------------8-11-14--(-)----------|
|------------------------10-----------------------|
|------------------8--11--------------------------|
|-------------------------------------------------|
|-------------------------------------------------|
|-------------------------------------------------|


                                         06:47

                                        Q=180
                                             PM
   +W                                     Q  E Q  E E E    Q  E E Q  Q
|---------------------------------------|---------------|---------------|
|---------------------------------------|---------------|---------------|
|--(8)----------------------------------|---------------|---------------|
|---------------------------------------|-9----8----7-9-|-10----9-8--3--|
|--(6)----------------------------------|-7----8----5-7-|--8----7-8--3--|
|---------------------------------------|-7--0-6--0-5-7-|--8--0-7-6--1--|
|
|   S   S  +E      +H.                    W                W
|--14--17--(-)-----(-)------------------|---------------|---------------|
|---------------------------------------|---------------|---------------|
|---------------------------------------|---------------|---------------|
|---------------------------------------|---------------|---------------|
|---------------------------------------|---------------|---------------|
|---------------------------------------|---------------|---------------|
|
|  +E       S   S   S   S  S  S  +H       W                W
|-(14)-----------------14-17-20--(-)----|---------------|---------------|
|------------------16-------------------|---------------|---------------|
|----------14--17-----------------------|---------------|---------------|
|---------------------------------------|---------------|---------------|
|---------------------------------------|---------------|---------------|
|---------------------------------------|---------------|---------------|


   4/4
           PM----------|     PM----|         PM  PM  PM         PM|
    Q.   E E E S S E   E E E E E E E E   +E  E E E E E E E   Q  E E E E Q
||-------------------|-----------------|-------------------|--------------|
||o------------------|-----------------|-------------------|--------------|
||-------------------|-----------------|---------------4s7-|-7------5s8-8-|
||-------------------|---------------3-|-(-)---------------|--------------|
||o-1----2-2-2-------|-2-2-2---------1-|-(-)---2---1---2s5-|-5------3s6-6-|
||--0----0-0-0-0-0-0-|-0-0---5-3-2-0---|-----0---0---0-----|----0-0-------|


              PM----------------|                  PM----------------------|
  E E E E E E E S S   E E E E E E S S S S   Q.   E E E S S E   E E E E E E E E
|-------------------|---------------------|------------------|-----------------|
|-------------------|---------------------|------------------|-----------------|
|-------------------|---------------------|------------------|-----------------|
|-------------------|---------------------|------------------|---------------3-|
|-7-----------------|-----5-------1h2p1h2-|-1----2-2-2-------|-2-2-2---------1-|
|---6-5-0-3-0-0-0-0-|-0-3---4-3-0---------|-0----0-0-0-0-0-0-|-0-0---5-3-2-0---|


                                                       6/8
      PM  PM  PM         PM|
  +E  E E E E E E E   Q  E E E E Q    E E E E E E E E   E E E Q  E   E Q  E Q
|-------------------|---------------|-----------------|------------|-----------|
|-------------------|---------------|-----------------|------------|-----------|
|---------------4s7-|-7------5s8-8--|-----------------|------------|--------7--|
|-(3)---------------|---------------|-----------------|------------|---6--9----|
|-(1)---2---1---2s5-|-5------3s6-6--|-7-----------5-8-|-7--------7-|-8---------|
|-----0---0---0-----|----0-0--------|---6-5-0-3-0-----|---6-5-9----|-----------|


 4/4
     PM                                    PM
  Q  E Q  E E E    Q  E E Q  Q          Q  E Q  E E E    Q  E E Q  Q
|---------------|----------------||-||----------------|----------------||
|---------------|---------------o||-||o---------------|---------------o||
|---------------|----------------||-||----------------|----------------||
|-9----8----7-9-|-10----9-8--3---||-||--9----8----7-9-|-10----9-8--3---||
|-7----8----5-7-|--8----9-8--3--o||-||o-7----8----5-7-|--8----9-8--3--o||
|-7--0-6--0-5-7-|--8--0-7-6--1---||-||--7--0-6--0-5-7-|--8--0-7-6--1---||


07:33

  Q=80
  Gtr IV
   W                                  +W
|--0--------------------------------|-(-)--------------------------------|
|--0--------------------------------|-(-)--------------------------------|
|--0--------------------------------|-(-)--------------------------------|
|--2--------------------------------|-(-)--------------------------------|
|--2--------------------------------|-(-)--------------------------------|
|--0--------------------------------|-(-)--------------------------------|
|
| Gtr V
|  E   E    E   E   E    E   E   E     E    E    E   E   E    E   E   E
|--0--(-)--(-)--0--(-)--(-)--0--(-)-|--0---(-)--(-)--0--(-)--(-)--0--(-)-|
|--0--(-)--(-)--0--(-)--(-)--0--(-)-|--0---(-)--(-)--0--(-)--(-)--0--(-)-|
|-12--(-)--(-)-12--(-)--(-)-12--(-)-|-11---(-)--(-)-11--(-)--(-)-11--(-)-|
|--9--(-)--(-)--9--(-)--(-)--9--(-)-|--9----9----9---9---9----9---9---9--|
|--7---7----7---7---7----7---7---7--|--6----6----6---6---6----6---6---6--|
|--0---0----0---0---0----0---0---0--|------------------------------------|


  +W                            +W
|-(0)-------------------------|-(-)-----------------------|
|-(0)-------------------------|-(-)-----------------------|
|-(0)-------------------------|-(-)-----------------------|
|-(2)-------------------------|-(-)-----------------------|
|-(2)-------------------------|-(-)-----------------------|
|-(0)-------------------------|-(-)-----------------------|
|
|  E   E   E  E  E   E  E  E     E  E   E  E  E   E  E E
|--0--(-)-(-)-0-(-)-(-)-0-(-)-|--5-(-)-(-)-5-(-)-(-)-5---|
|--0--(-)-(-)-0-(-)-(-)-0-(-)-|--7-(-)-(-)-7-(-)-(-)-7---|
|--5--(-)-(-)-5-(-)-(-)-5-(-)-|--5-(-)-(-)-5-(-)-(-)-5---|
|--5--(-)-(-)-5-(-)-(-)-5-(-)-|--7-(-)-(-)-7-(-)-(-)-7---|
|--3---3---3--3--3---3--3--3--|--6--6---6--6--6---6--6---|
|--3---3---3--3--3---3--3--3--|--5--5---5--5--5---5--5-0-|


  Gtr IV
|  E   E    E   E   E    E   E   E      E    E    E   E   E    E   E   E
|--0--(-)--(-)--0--(-)--(-)--0--(-)-|---0---(-)--(-)--0--(-)--(-)---0--(-)-|
|--0--(-)--(-)--0--(-)--(-)--0--(-)-|---0---(-)--(-)--0--(-)--(-)---0--(-)-|
|-12--(-)--(-)-12--(-)--(-)-12--(-)-|--11---(-)--(-)-11--(-)--(-)--11--(-)-|
|--9--(-)--(-)--9--(-)--(-)--9--(-)-|---9----9----9---9---9----9----9---9--|
|--7---7----7---7---7----7---7---7--|---6----6----6---6---6----6----6---6--|
|--0---0----0---0---0----0---0---0--|--------------------------------------|
|
| Gtr VI
|  H.                        Q         +H                +E    E   +Q
|-15------------------------14------|--(-)---------------(-)---------------|
|-----------------------------------|-------------------------12---(-)-----|
|-----------------------------------|--------------------------------------|
|-----------------------------------|--------------------------------------|
|-----------------------------------|--------------------------------------|
|-----------------------------------|--------------------------------------|


|  E   E   E  E  E   E  E  E     E  E   E  E  E   E  E E
|--0--(-)-(-)-0-(-)-(-)-0-(-)-|--5-(-)-(-)-5-(-)-(-)-5---|
|--0--(-)-(-)-0-(-)-(-)-0-(-)-|--7-(-)-(-)-7-(-)-(-)-7---|
|--5--(-)-(-)-5-(-)-(-)-5-(-)-|--5-(-)-(-)-5-(-)-(-)-5---|
|--5--(-)-(-)-5-(-)-(-)-5-(-)-|--7-(-)-(-)-7-(-)-(-)-7---|
|--3---3---3--3--3---3--3--3--|--6--6---6--6--6---6--6---|
|--3---3---3--3--3---3--3--3--|--5--5---5--5--5---5--5-0-|
|
|   W                            W
|-----------------------------|-------------------------|
|-(12)------------------------|-------------------------|
|-----------------------------|-------------------------|
|-----------------------------|-------------------------|
|-----------------------------|-------------------------|
|-----------------------------|-------------------------|


(drums jump in:)

|  E       E    E   E   E    E   E   E     E    E    E   E   E        E   E   E
|--0------(-)--(-)--0--(-)--(-)--0--(-)-|--0---(-)--(-)--0--(-)------(-)--0--(-)-|
|--0------(-)--(-)--0--(-)--(-)--0--(-)-|--0---(-)--(-)--0--(-)------(-)--0--(-)-|
|-12------(-)--(-)-12--(-)--(-)-12--(-)-|-11---(-)--(-)-11--(-)------(-)-11--(-)-|
|--9------(-)--(-)--9--(-)--(-)--9--(-)-|--9----9----9---9---9--------9---9---9--|
|--7-------7----7---7---7----7---7---7--|--6----6----6---6---6--------6---6---6--|
|--0-------0----0---0---0----0---0---0--|----------------------------------------|
|
|  W                                      +Q.            E  +H
|---------------------------------------|----------------------------------------|
|--7b7.5r===============================|=(7)------------7--(7)b7.5r=============|
|---------------------------------------|----------------------------------------|
|---------------------------------------|----------------------------------------|
|---------------------------------------|----------------------------------------|
|---------------------------------------|----------------------------------------|


|  E   E   E  E  E       E  E  E    E  E   E  E  E   E  E E
|--0--(-)-(-)-0-(-)-----(-)-0-(-)-|-5-(-)-(-)-5-(-)-(-)-5---|
|--0--(-)-(-)-0-(-)-----(-)-0-(-)-|-7-(-)-(-)-7-(-)-(-)-7---|
|--5--(-)-(-)-5-(-)-----(-)-5-(-)-|-5-(-)-(-)-5-(-)-(-)-5---|
|--5--(-)-(-)-5-(-)-----(-)-5-(-)-|-7-(-)-(-)-7-(-)-(-)-7---|
|--3---3---3--3--3-------3--3--3--|-6--6---6--6--6---6--6---|
|--3---3---3--3--3-------3--3--3--|-5--5---5--5--5---5--5-0-|
|
| +Q.         E +H                  W
|---------------------------------|-------------------------|
|-(7)---------7-(7)b7.5r==========|=========================|
|---------------------------------|-------------------------|
|---------------------------------|-------------------------|
|---------------------------------|-------------------------|
|---------------------------------|-------------------------|


|  E       E    E   E   E    E   E   E     E    E    E   E   E   E   E   E
|--0------(-)--(-)--0--(-)--(-)--0--(-)-|--0---(-)--(-)--0--(-)-(-)--0--(-)-|
|--0------(-)--(-)--0--(-)--(-)--0--(-)-|--0---(-)--(-)--0--(-)-(-)--0--(-)-|
|-12------(-)--(-)-12--(-)--(-)-12--(-)-|-11---(-)--(-)-11--(-)-(-)-11--(-)-|
|--9------(-)--(-)--9--(-)--(-)--9--(-)-|--9----9----9---9---9---9---9---9--|
|--7-------7----7---7---7----7---7---7--|--6----6----6---6---6---6---6---6--|
|--0-------0----0---0---0----0---0---0--|-----------------------------------|
|
|  W                                      +E    E   +H.
|---------------------------------------|------------------------------------|
|--7b7.5r===============================|=(7)--10--(10)----------------------|
|---------------------------------------|------------------------------------|
|---------------------------------------|------------------------------------|
|---------------------------------------|------------------------------------|
|---------------------------------------|------------------------------------|


   E  E   E  E  E   E  E  E     E  E   E  E  E   E  E E    E     E   E  E  E   E  E E
|--0-(-)-(-)-0-(-)-(-)-0-(-)-|--5-(-)-(-)-5-(-)-(-)-5---|--5----(-)-(-)-5-(-)-(-)-5-5-|
|--0-(-)-(-)-0-(-)-(-)-0-(-)-|--7-(-)-(-)-7-(-)-(-)-7---|--7----(-)-(-)-7-(-)-(-)-7-7-|
|--5-(-)-(-)-5-(-)-(-)-0-(-)-|--5-(-)-(-)-5-(-)-(-)-5---|--5----(-)-(-)-5-(-)-(-)-5-5-|
|--5-(-)-(-)-5-(-)-(-)-9-(-)-|--7-(-)-(-)-7-(-)-(-)-7---|--7----(-)-(-)-7-(-)-(-)-7-7-|
|--3--3---3--3--3---3--7--7--|--6--6---6--6--6---6--6-6-|--6-----6---6--6--6---6--6-6-|
|--3--3---3--3--3---3--7--7--|--5--5---5--5--5---5--5-5-|--5-----5---5--5--5---5--5-5-|
|
|  H            H               H            H             W
|----------------------------|--------------------------|-----------------------------|
|-12-----------13------------|-15-----------17----------|-19b20r======================|
|----------------------------|--------------------------|-----------------------------|
|----------------------------|--------------------------|-----------------------------|
|----------------------------|--------------------------|-----------------------------|
|----------------------------|--------------------------|-----------------------------|



08:24

    Gtrs I, II
    Q   E   Q    Q    E    Q  E  Q    Q    E
||----------0---(-)--(-)-|-------2---(-)--(-)-|
||o--------------0---(-)-|------------0---(-)-|
||--0--(-)-(-)--(-)---0--|-----------------0--|
||--2---2--(-)--(-)--(-)-|-1--1-(-)--(-)--(-)-|
||o-2---2--(-)--(-)--(-)-|-2--2-(-)--(-)--(-)-|
||--0---0--(-)--(-)--(-)-|-2--2-(-)--(-)--(-)-|


  Q  E  E   E   E   Q    Q  E  E  E  Q.    4x
|-------0--(-)-(-)-(-)-|-------------2-----||
|-----------0--(-)-(-)-|-------1-----1----o||
|---------------0--(-)-|-2--2-(-)-2-(-)----||
|-2--2-(-)-(-)-(-)-----|-1--1-(-)-1-(-)----||
|-3--3-(-)-(-)-(-)--2--|-0--0-(-)-0-(-)---o||
|-3--3-(-)-(-)-(-)--2--|-------------------||


    E   E  E  E  E  E E E   E   E  E  E E E  E E
||------------------------|----------------------|
||o-----------------------|----------------------|
||------------------------|----------------------|
||--2---2--2--2--2--2-2-2-|-4---4--4--4-4-4--4-4-|
||o-2---2--2--2--2--2-2-2-|-6---6--6--6-6-6--6-6-|
||--0---0--0--0--0--0-0-0-|-7---7--7--7-7-7--7-7-|
|
|   Gtr III
|   Q     +E  E +H          Q     +E  Q   Q.
||--0-----(-)-0-(-)-------|-0-----(-)------------|
||o-7b8r==(-)-5-(-)-------|-7b8r==(-)-0---0------|
||------------------------|-----------5---4------|
||------------------------|----------------------|
||o-----------------------|----------------------|
||------------------------|----------------------|


                                                          6/4
  E   E  E   E E   E  E   E     E  E E E  E   E  E  E       E  E E E +W
|----------------------------|--------------------------||------------------|
|----------------------------|---------7-(-)-(-)-7-(-)-o||---------7-(-)----|
|----------------------------|---------5-(-)-(-)-5-(-)--||---------5-(-)----|
|-5---5--5---5-5---5--5---5--|--7--7-7-7--7---7--7--7---||--7--7-7-7-(-)----|
|-3---3--3---3-3---3--3---3--|--6--6-6-6--6---6--6--6--o||--6--6-6-6-(-)----|
|-3---3--3---3-3---3--3---3--|--5--5-5-5--5---5--5--5---||--5--5-5-5-(-)----|
|
| Q     +E   Q     Q      E     W                           +W.
|-0-----(-)-10----(-)----(-)-|-11-----------------------||-(-)--------------|
|-7b8r==(-)--------8------7--|-(-)---------------------o||-(-)--------------|
|----------------------------|--------------------------||------------------|
|----------------------------|--------------------------||------------------|
|----------------------------|-------------------------o||------------------|
|----------------------------|--------------------------||------------------|



09:41

    Q=160
   4/4
    Gtrs IV, V
    E  E   E   E   E   E   E   E    +E   E   E   E   E   E   E   E   4x
||-----------------0--(-)-(-)-(-)-|-(-)--------------0--(-)-(-)-(-)--||
||o--------0--(-)-(-)--0--(-)-(-)-|-(-)------0--(-)-(-)--0--(-)-(-)-o||
||-----0--(-)--0--(-)-(-)--0--(-)-|-(-)--0--(-)--0--(-)-(-)--0--(-)--||
||--2-(-)-(-)-(-)-(-)-(-)-(-)--2--|-(-)-(-)-(-)-(-)-(-)-(-)-(-)--0---||
||o-------------------------------|---------------------------------o||
||--------------------------------|----------------------------------||


    E  E   E   E   E   E   E   E    +E   E   E   E   E   E   E   E
||-----------------0--(-)-(-)-(-)-|-(-)--------------0--(-)-(-)-(-)-|
||o--------0--(-)-(-)--0--(-)-(-)-|-(-)------0--(-)-(-)--0--(-)-(-)-|
||-----0--(-)--0--(-)-(-)--0--(-)-|-(-)--0--(-)--0--(-)-(-)--0--(-)-|
||--2-(-)-(-)-(-)-(-)-(-)-(-)--2--|-(-)-(-)-(-)-(-)-(-)-(-)-(-)--0--|
||o-------------------------------|---------------------------------|
||--------------------------------|---------------------------------|


  E  E   E   E   E   E   E   E    +E   E   E   E   E   E   E   E
|----------------0--(-)-(-)-(-)-|-(-)--------------0--(-)-(-)-(-)-|
|--------0--(-)-(-)--0--(-)-(-)-|-(-)------0--(-)-(-)--0--(-)-(-)-|
|----0--(-)--0--(-)-(-)--0--(-)-|-(-)--0--(-)--0--(-)-(-)--0--(-)-|
|-2-(-)-(-)-(-)-(-)-(-)-(-)--2--|-(-)-(-)-(-)-(-)-(-)-(-)-(-)--0--|
|-------------------------------|---------------------------------|
|-------------------------------|---------------------------------|


   E   E   E   E   E   E   E   E    +E   E   E   E   E   E   E   E
|-(0)-(-)-(-)-(-)--0--(-)-(-)-(-)-|-(-)--------------0--(-)-(-)-(-)-|
|-(0)-(-)--0--(-)-(-)--0--(-)-(-)-|-(-)------0--(-)-(-)--0--(-)--0--|
|-(0)-(-)-(-)--0--(-)-(-)--0--(-)-|-(-)--0--(-)--0--(-)-(-)--0--(-)-|
|-(0)s=4--(-)-(-)-(-)-(-)-(-)--4--|-(-)-(-)-(-)-(-)-(-)-(-)-(-)-(-)-|
|---------------------------------|---------------------------------|
|---------------------------------|---------------------------------|


   E  E   E   E   E   E   E   E    +E   E   E   E   E   E   E   E
|-(0)(-)-(-)-(-)--0--(-)-(-)-(-)-|-(-)--------------0--(-)-(-)-(-)--||
|-(0)(-)--0--(-)-(-)--0--(-)-(-)-|-(-)------0--(-)-(-)--0--(-)-(-)-o||
|-(0)(-)-(-)--0--(-)-(-)--0--(-)-|-(-)--0--(-)--0--(-)-(-)--0--(-)--||
|--2s=4--(-)-(-)-(-)-(-)-(-)--4--|-(-)-(-)-(-)-(-)-(-)-(-)-(-)--0---||
|--------------------------------|---------------------------------o||
|--------------------------------|----------------------------------||



10:17

  E  E   E   E   E   E   E   E     E   E   E   Q    E   E   E
|--------------------0--(-)-(-)-|-(-)-(-)-(-)--0---(-)-(-)-(-)-|
|--------0--(-)-(-)-(-)--0--(-)-|-(-)-(-)-(-)-(-)---6--(-)-(-)-|
|----5--(-)--5--(-)-(-)-(-)--5--|----------7--(-)--(-)--7--(-)-|
|-7-(-)-(-)-(-)--7--(-)-(-)-(-)-|--7---9--(-)-(-)--(-)-(-)--9--|
|-------------------------------|------------------------------|
|-------------------------------|------------------------------|


   E   E   E   E   E   E   E   E     E   E   E   E   E   E   E   E
|-(-)-(-)--0--(-)-(-)-(-)-(-)-(-)-|---------------------------------|
|------0--(-)-(-)-(-)--0--(-)-(-)-|-(-)--0--(-)-(-)-(-)--0--(-)-(-)-|
|--5--(-)-(-)-(-)--5--(-)-(-)-----|--5--(-)----------2--(-)--2--(-)-|
|--------------7--(-)-(-)-(-)--7--|-(-)-(-)------1--(-)-(-)-(-)--1--|
|--------------------------6--(-)-|-(-)-(-)--2--(-)-(-)-(-)-(-)-(-)-|
|---------------------------------|---------------------------------|


  Q.    E   Q   Q    +E   E   Q   Q   E   E
|-0-----0--(-)--0--|-(-)--0--(-)--0---0---0--|
|-0-----0--(-)--0--|-(-)--0--(-)--0---0---0--|
|-0-----0--(-)--0--|-(-)--0--(-)--0---0---0--|
|-2----(-)--2---2--|-(-)-(-)------2---2---2--|
|-2----(-)--2---2--|-(-)-(-)--2---2--(-)-(-)-|
|-0----(-)--0---0--|-(-)-(-)--0---0--(-)-(-)-|


  Q.    E   Q   Q    +E  E  Q   Q   E   E
|-0-----0--(-)--0--|-(-)-0-(-)--0---0---0--|
|-0-----0--(-)--0--|-(-)-0-(-)--0---0---0--|
|-0-----0--(-)--0--|-(-)-0-(-)--0---0---0--|
|-2----(-)--2---2--|-(-)-2--2---2---2---2--|
|-3----(-)--3---3--|-(-)-3--3---3--(-)-(-)-|
|------------------|-----------------------|


  Q.    E   Q   Q    +E   E   Q   Q   E   E
|-0-----0--(-)--0--|-(-)--0--(-)--0---0---0--|
|-0-----0--(-)--0--|-(-)--0--(-)--0---0---0--|
|-0-----0--(-)--0--|-(-)--0--(-)--0---0---0--|
|-2----(-)--2---2--|-(-)-(-)------2---2---2--|
|-2----(-)--2---2--|-(-)-(-)--2---2--(-)-(-)-|
|-0----(-)--0---0--|-(-)-(-)--0---0--(-)-(-)-|


  Q.    E   Q   Q    +E  E  Q   E  E   E   E
|-0-----0--(-)--0--|-(-)-0-(-)----------------|
|-0-----0--(-)--0--|-(-)-0-(-)-------------0--|
|-0-----0--(-)--0--|-(-)-0-(-)---------0--(-)-|
|-2----(-)--2---2--|-(-)-2--2------0--(-)-(-)-|
|-3----(-)--3---3--|-(-)-3--3---2-(-)-(-)-(-)-|
|------------------|--------------------------|


  E  E   E   E   E   E   E  E   +W
|---------------------------0-|-(-)----|
|----------------3--(-)-(-)-3-|-(-)----|
|--------2--(-)-(-)--2--(-)-2-|-(-)----|
|----3--(-)--3--(-)-(-)--3--3-|-(-)----|
|-1-(-)-(-)-(-)-(-)-(-)-(-)-1-|-(-)----|
|-----------------------------|--------|


  E  E   E   E   E   E   E  E   +W
|---------------------------0-|-(-)----|
|----------------2--(-)-(-)-2-|-(-)----|
|--------0--(-)-(-)--0--(-)-0-|-(-)----|
|----2--(-)--2--(-)-(-)--2--2-|-(-)----|
|-0-(-)-(-)-(-)-(-)-(-)-(-)-0-|-(-)----|
|-----------------------------|--------|


  E  E   E   E   E   E   E   E     E  E  E   E   E   E   Q
|----------------------------0--|-(-)------------------------|
|--------2h==3p==2--(-)-(-)-(-)-|-(-)----2h==3p==2--(-)-(-)--|
|----2--(-)-(-)-(-)--2--(-)-(-)-|-(-)-2-(-)-(-)-(-)--2--(-)--|
|-0-(-)-(-)-(-)-(-)-(-)--0--(-)-|-(-)-0-(-)-(-)-(-)-(-)--0---|
|-------------------------------|----------------------------|
|-------------------------------|----------------------------|


  E  E   E   E   E   E   E  E   +W
|---------------------------2-|-(-)--------|
|--------0h==1p==0--(-)-(-)-0-|-(-)--------|
|----2--(-)-(-)-(-)--2--(-)-2-|-(-)--------|
|-1-(-)-(-)-(-)-(-)-(-)--1--1-|-(-)--------|
|-----------------------------|------------|
|-----------------------------|------------|
|
|                                          G
| W                              W
|-----------------------------|------------|
|-----------------------------|------------|
|-----------------------------|------------|
|-----------------------------|------------|
|-----------------------------|------------|
|-----------------------------|------------|


10:47

  Q.    E   Q     Q      +E   E     Q   Q     E   E
|-0-----0--(-)----0----|-(-)--0----(-)--0-----0---0--|
|-0-----0--(-)----0----|-(-)--0----(-)--0-----0---0--|
|-0-----0--(-)----0----|-(-)--0----(-)--0-----0---0--|
|-2----(-)--2-----2----|-(-)-(-)--------2-----2---2--|
|-2----(-)--2-----2----|-(-)-(-)----2---2----(-)-(-)-|
|-0----(-)--0-----0----|-(-)-(-)----0---0----(-)-(-)-|
|
|tr III
| Q.    E   E  E  E  E    +E   E   +Q.     E  E  E
|----------------------|------------------14---------|
|----------------------|------15--(15)-------11s=12--|
|----------15s14-12-14-|-(14)------------------------|
|------14--------------|-----------------------------|
|----------------------|-----------------------------|
|----------------------|-----------------------------|


  Q.        E   Q        Q    +E  E  Q   Q   E   E
|-0---------0--(-)-------0--|--(-)-0-(-)--0---0---0--|
|-0---------0--(-)-------0--|--(-)-0-(-)--0---0---0--|
|-0---------0--(-)-------0--|--(-)-0-(-)--0---0---0--|
|-2--------(-)--2--------2--|--(-)-2--2---2---2---2--|
|-3--------(-)--3--------3--|--(-)-3--3---3--(-)-(-)-|
|---------------------------|------------------------|
|
|  E  E  E  E   S  S  E  Q     +W
|---------------------------|------------------------|
|---------------------------|------------------------|
|-15s14-12-----12h14p12-----|------------------------|
|----------14-----------14--|-(14)-------------------|
|---------------------------|------------------------|
|---------------------------|------------------------|


  Q.       E   Q      Q         +E   E   Q   Q      E   E
|-0--------0--(-)-----0-------|-(-)--0--(-)--0------0---0--|
|-0--------0--(-)-----0-------|-(-)--0--(-)--0------0---0--|
|-0--------0--(-)-----0-------|-(-)--0--(-)--0------0---0--|
|-2-------(-)--2------2-------|-(-)-(-)------2------2---2--|
|-2-------(-)--2------2-------|-(-)-(-)--2---2-----(-)-(-)-|
|-0-------(-)--0------0-------|-(-)-(-)--0---0-----(-)-(-)-|
|
| E   E E  E   E   E.    E.      H           S S E  E   E
|-----------------------------|----------------------------|
|--------------8--10----10b12r|=10-----------7h8p7--7------|
|-------7--9------------------|-------------------------9--|
|----/9-----------------------|----------------------------|
|-----------------------------|----------------------------|
|-----------------------------|----------------------------|


  Q.      E    Q    Q    +E  E  Q     E    E     E   E
|-0-------0---(-)---0--|-(-)-0-(-)----------------------|
|-0-------0---(-)---0--|-(-)-0-(-)-------------------0--|
|-0-------0---(-)---0--|-(-)-0-(-)---------------0--(-)-|
|-2------(-)---2----2--|-(-)-2--2----------0----(-)-(-)-|
|-3------(-)---3----3--|-(-)-3--3-----2---(-)---(-)-(-)-|
|----------------------|--------------------------------|
|
| S E. E  S S +E  E Q    +E  E  E  E  S S  S  S  E   E
|----------------------|--------------------------------|
|------8---------------|--------------------------------|
|-7h9------------------|--------7--9-10p9p=7-----7---9--|
|---------7h9-(-)-7-5--|-(-)S9----------------9---------|
|----------------------|--------------------------------|
|----------------------|--------------------------------|


  E  E   E   E   E  E   E  E     +W
|--------------------------0---|-(-)----------------|
|----------------3-(-)-(-)-3---|-(-)----------------|
|--------2--(-)-(-)-2--(-)-2---|-(-)----------------|
|----3--(-)--3--(3)(-)--3--3---|-(-)----------------|
|-1-(-)-(-)-(-)-(-)(-)-(-)-1---|-(-)----------------|
|------------------------------|--------------------|
|
| E  E  +Q       E  E   E  S S   +E  E E E  E E E E
|------------------------------|--------------------|
|------------------------------|--------------------|
|------------------------------|-------7-9-10-9-7-9-|
|-8p=7--(-)----------------5-7-|-(-)-7--------------|
|---------------10p=8----------|--------------------|
|----------------------10------|--------------------|


   E   E   E   E      E   E   E  E   +W
|--------------------------------0-|-(-)----------------------|
|---------------------2--(-)-(-)-2-|-(-)----------------------|
|----------0--(-)----(-)--0--(-)-0-|-(-)----------------------|
|------2--(-)--2-----(-)-(-)--2--2-|-(-)----------------------|
|--0--(-)-(-)-(-)----(-)-(-)-(-)-0-|-(-)----------------------|
|----------------------------------|--------------------------|
|
|  Q.          S   S  H              +E   E  E  E  E  E  E  E
|----------------------------------|--------------------------|
|----------------------------------|--------------14----------|
|-12----------11--10--9------------|-(-)S14p12-------14-12----|
|----------------------------------|-----------14----------14-|
|----------------------------------|--------------------------|
|----------------------------------|--------------------------|


   E  E   E   E   E   Q      E    +E  E   E   E   E   Q.
|----------------------------0--|-(-)(-)-(-)-(-)-(-)-(-)-------------|
|-------------------------------|------------------------------------|
|---------6h==7p==6--(-)----(-)-|-(-)(-)--6h==7p==6--(-)-------------|
|-----7--(-)-(-)-(-)--7-----(-)-|-(-)-7--(-)-(-)-(-)--7--------------|
|-------------------------------|------------------------------------|
|-------------------------------|------------------------------------|
|
|  E  E  +H               E  E     E  E   E   E   E.      E.  E
|-------------------------------|------------------------------------|
|---------------------------14--|-15p14------14--15------17--17b19r==|
|-12h14--(-)-------------14-----|--------14--------------------------|
|-------------------------------|------------------------------------|
|-------------------------------|------------------------------------|
|-------------------------------|------------------------------------|


   E  E  E   E   E   Q     E       +E  E  E   E      E   Q.
|--------------------------0-----|-(-)(-)(-)-(-)----(-)-(-)-----------|
|--------------------------------|------------------------------------|
|--------6h==7p==6--(-)---(-)----|-(-)(6)-6h==7p=====6--(-)-----------|
|-----7-(-)-(-)-(-)--7----(-)----|-(-)-7-(-)-(-)----(-)--7------------|
|--------------------------------|------------------------------------|
|--------------------------------|------------------------------------|
|
|  H.                   E  E        E  E  E   S  S  +E   S  S  +E   E
|-------------------------16pb17r|=16p14p12--12h14--(-)---------------|
|-17-----------------------------|----------------------12h14--(-)-12-|
|--------------------------------|------------------------------------|
|--------------------------------|------------------------------------|
|--------------------------------|------------------------------------|
|--------------------------------|------------------------------------|


    E   E  E   E   E   Q     E    +E     E   E   E   E   Q.
|----------------------------0--|-(-)---(-)-(-)-(-)-(-)-(-)-------|
|-------------------------------|---------------------------------|
|---------6h==7p==6--(-)----(-)-|-(-)---(-)--6h==7p==6--(-)-------|
|-----7--(-)-(-)-(-)--7-----(-)-|-(-)----7--(-)-(-)-(-)--7--------|
|-------------------------------|---------------------------------|
|-------------------------------|---------------------------------|
|
|  +E   E  H              E  E     S  S  E   E   E   E   E   E E
|-------------------------------|---------------------------------|
|-(12)s10-10--------------------|--9h10p=9--10--12--10---9--------|
|----------------------------9--|--9h11p=9--11--13--11---9---9-7--|
|-----------------------/11-----|---------------------------11-9--|
|-------------------------------|---------------------------------|
|-------------------------------|---------------------------------|


   E  E  E   E   E   Q       E      +E    E     E    E     E    Q.
|----------------------------0----|-(-)--(-)---(-)--(-)---(-)--(-)----------|
|---------------------------------|-----------------------------------------|
|--------6h==7p==6--(-)-----(-)---|-(-)--(-)----6h===7p====6---(-)----------|
|-----7-(-)-(-)-(-)--7------(-)---|-(-)---7----(-)--(-)---(-)---7-----------|
|---------------------------------|-----------------------------------------|
|---------------------------------|-----------------------------------------|
|
|                       |---3---|    |---3---|  |---3---|  |---3----| |-3-|
| +E  E  H              E E     E    E E     E  E E     E  E E      E E E E
|---------------------------------|-----------------------------------------|
|---------------------------------|------------------------7h9h====10p9p7---|
|-(7)-6--6----------------------6-|--7p6--------6h7h====9-----------------9-|
|-(9)-7--7----------------7-------|----------7------------------------------|
|-----------------------9---------|-----------------------------------------|
|---------------------------------|-----------------------------------------|


  E E  E   E   E   Q     E    +E  E  E   E    E   Q.
|---------------------------|--------------------------------|
|------0h==2p==0--(-)----3--|-(-)----0h==2p===0--(-)---------|
|---2-(-)-(-)-(-)--2----(-)-|-(-)-2-(-)-(-)--(-)--2----------|
|---------------------------|--------------------------------|
|---------------------------|--------------------------------|
|---------------------------|--------------------------------|
|
| E E  E   E  +E   E  E  E    +E  E +E   E   +E   E   +E   E
|---------------------------|--------------------------------|
|------------------------5--|-(-)-7-(-)-10---(-)-12---(-)-14-|
|-7--------4--(-)--6--7-----|--------------------------------|
|---5--7--------------------|--------------------------------|
|---------------------------|--------------------------------|
|---------------------------|--------------------------------|


    E  E  E   E   E  Q      E   +E   S   S    E   E   E   E   E   E
|-----------------------------|-----------------------0--(-)-(-)-(-)-|
|---------0h==2p==0-(-)-----3-|-(-)p=2p==0--------0--(-)--0--(-)-(-)-|
|------2-(-)-(-)-(-)-2-----(-)|-(-)-(-)-(-)---2--(-)-(-)-(-)--2--(-)-|
|-----------------------------|-----------------------------------4--|
|-----------------------------|--------------------------------------|
|-----------------------------|--------------------------------------|
|
|  +H             E  E   E  E    E   E       +H.
|-----------------------------|--------------------------------------|
|-(14)-----------14p12-----12h|=14--17------(-)---------------------|
|-----------------------14----|--------------------------------------|
|-----------------------------|--------------------------------------|
|-----------------------------|--------------------------------------|
|-----------------------------|--------------------------------------|


   E     E   E   E      E   E   E      E    +E   E       E   E   E      E      Q
|--------------------------------------2--|-(-)-(-)-----(-)-(-)-(-)----(-)----(-)--------|
|------------0h==1p=====0--(-)-(-)----(-)-|-(-)-(-)------0h==1p==0-----(-)----(-)--------|
|--------2--(-)-(-)----(-)--2--(-)----(-)-|-(-)--2------(-)-(-)-(-)-----2-----(-)--------|
|--1----(-)-(-)-(-)----(-)-(-)--1-----(-)-|-(-)-(-)-----(-)-(-)-(-)----(-)-----1---------|
|-----------------------------------------|----------------------------------------------|
|-----------------------------------------|----------------------------------------------|
|
|  S  S  E   E   S  S  +E   E   S   S  E     E.      E.      E.      S  S   S  S   S  E
|-20-19-17------18s19--(-)----------------|----------------------------------------------|
|-----------20-------------20--19--17-----|-17------19------20------19-17------------20--|
|-------------------------------------20--|--------------------------------20-17--16-----|
|-----------------------------------------|----------------------------------------------|
|-----------------------------------------|----------------------------------------------|
|-----------------------------------------|----------------------------------------------|


   E  E   E   E   E   E   E   E    +W            W
|-----------------------------2-|--(-)--------|--5----------|
|---------0---1---0--(-)-(-)--0-|--(-)--------|--4----------|
|-----2--(-)-(-)-(-)--2--(-)--2-|--(-)--------|--5----------|
|--1-(-)-(-)-(-)-(-)-(-)--1---1-|--(-)--------|--4----------|
|-------------------------------|-------------|-------------|
|-------------------------------|-------------|-------------|
|
|  E  E   E   E   E   E   E   E    +W            H     H
|-------------------------------|-------------|-------------|
|-19-18--17---------------------|-------------|-------------|
|------------20--19--18--17--16-|--(-)--------|-14----11----|
|-------------------------------|-------------|-------------|
|-------------------------------|-------------|-------------|
|-------------------------------|-------------|-------------|



11:30

  Q=120
  W          W          W          H    +E  E Q
|-3--------|----------|----------|---------------|
|-5--------|-3--------|-7--------|-8----(-)-7----|
|-4--------|-4--------|-5--------|-7----(-)-5----|
|-5--------|-4--------|-7--------|-9----(-)-7----|
|-3--------|----------|-5--------|-7----(7)-5----|
|----------|-3--------|----------|---------------|


  W          W          E  E   E   E   E   E   E   E    E  E   E   E  E Q.
|-3--------|----------|----2--(-)--2--(-)--2--(-)--2--|----2--(-)--2--2------|
|-5--------|-3--------|----1--(-)--1--(-)--1--(-)--1--|----1--(-)--1--1------|
|-4--------|-4--------|----2--(-)--2--(-)--2--(-)--2--|----2--(-)--2--2------|
|-5--------|-4--------|-0-(-)-(-)-(-)--0--(-)-(-)-(-)-|-0-(-)-(-)-(-)-0------|
|-3--------|----------|--------0--(-)-(-)-(-)--0--(-)-|--------0--(-)--------|
|----------|-3--------|-------------------------------|----------------------|



11:46

  E S S E S S E S S E S S   E S S E S S E S S E S S   E S S E S S E S S E S S
|---3-3---3-3---3-3---3-3-|---2-2---2-2---2-2---2-2-|---3-3---3-3---3-3---3-3--|
|---3-3---3-3---3-3---3-3-|---3-3---3-3---3-3---3-3-|---3-3---3-3---3-3---3-3--|
|---0-0---0-0---0-0---0-0-|---2-2---2-2---2-2---2-2-|---0-0---0-0---0-0---0-0--|
|-------------0-----------|-------------0-----------|-------------2------------|
|-------2-----------2-----|-------0-----------0-----|-------2-----------2------|
|-3-----------------------|-2-----------------------|-0------------------------|


  E S S E S S E S S E S S   E S S E S S E S S E S S   E S S E S S E S S E S S
|---3-3---3-3---2-2---2-2-|---0-0---0-0---0-0---0-0-|---2-2---2-2---2-2---2-2--|
|---3-3---3-3---3-3---3-3-|---0-0---0-0---0-0---0-0-|---3-3---3-3---3-3---3-3--|
|---0-0---0-0---2-2---2-2-|---0-0---0-0---0-0---0-0-|---4-4---4-4---4-4---4-4--|
|-------2-----0-----------|-------------2-----------|--------------------------|
|-3-----------------0-----|-------2-----------2-----|-2-----------2------------|
|-------------------------|-0-----------------------|-------2-----------2------|


  E S S E S S E S S E S S   E S S E S S E Q.
|---0-0---0-0---0-0---0-0-|---2-2---2-2-2------|
|---1-1---1-1---1-1---1-1-|---1-1---1-1-1------|
|---0-0---0-0---0-0---0-0-|---2-2---2-2-2------|
|-------------------------|-0-----------0------|
|-3-----------3-----------|-------0------------|
|-------3-----------3-----|--------------------|



12:02

  E   S S E   S S E   S S E S S
|-----3-3-----3-3-----3-3---3-3-|
|-----3-3-----3-3-----3-3---3-3-|
|-----0-0-----0-0-----0-0---0-0-|
|-----------------0-------------|
|---------2---------------2-----|
|-3-----------------------------|
|
| Gtr III
| S S S S S S S S S S S S E S S
|-3-2-0-------------------3-----|
|-------3-1-0-1-3-1-0-----3-----|
|---------------------3S4-------|
|---------------------------0-2-|
|-------------------------------|
|-------------------------------|


  E   S S E   S S E   S S E   S S   E S S E S S E   S S E S S
|-----2-2-----2-2-----2-2-----2-2-|---3-3---3-3-----3-3---3-3--|
|-----3-3-----3-3-----3-3-----3-3-|---3-3---3-3-----3-3---3-3--|
|-----2-2-----2-2-----2-2-----2-2-|---0-0---0-0-----0-0---0-0--|
|-----------------0---------------|-------------2--------------|
|---------0---------------0-------|-------2-------------2------|
|-2-------------------------------|-0--------------------------|
|
| S S S S S S S S S S S S S S S S   E S S E S S S S S S E S S
|---------------------------------|-------0--------------------|
|-------0-1-0---0-3-1-0---0-1-----|----------------------------|
|---0-2-------2---------2-----2---|---3S4---3S2-0-2-0---0------|
|-4-----------------------------4-|-2-----------------2---0-2--|
|---------------------------------|----------------------------|
|---------------------------------|----------------------------|


  E   S S E   S S E   S S E   S S   E   S S E   S S E   S S E   S S
|-----3-3-----3-3-----2-2-----2-2-|-----0-0-----0-0-----0-0-----0-0-|
|-----3-3-----3-3-----3-3-----3-3-|-----0-0-----0-0-----0-0-----0-0-|
|-----0-0-----0-0-----2-2-----2-2-|-----0-0-----0-0-----0-0-----0-0-|
|---------2-------0---------------|-----------------2---------------|
|-3-----------------------0-------|---------2---------------2-------|
|---------------------------------|-0-------------------------------|
|
| S S S S S S S S S S S S S S E     S S S S S S S S S S S S S S S S
|-----------------------------5---|-6s7-6s7---------6s7-6s7---------|
|-----------------3-1-0---3s7-----|---------8-----8---------8-----8-|
|-------0-2-0---0-------2---------|-----------7h9-------------7h9---|
|---0-2-------2-------------------|---------------------------------|
|-3-------------------------------|---------------------------------|
|---------------------------------|---------------------------------|


  E   S S E   S S E    S  S E   S S
|-----2-2-----2-2------2--2-----2-2-|
|-----3-3-----3-3------3--3-----3-3-|
|-----4-4-----4-4------4--4-----4-4-|
|-----------------------------------|
|-2---------------2-----------------|
|---------2-----------------2-------|
|
| S S S S S S S S S  S S  S S S E
|-----------------9s10-9s10---------|
|-6s7-6s7-------------------7-------|
|---------9p7---7-------------9-7---|
|-------------9---------------------|
|-----------------------------------|
|-----------------------------------|


   E   S  S E   S S E   S S  E    S S
|------0--0-----0-0-----0-0-------0-0-|
|------1--1-----1-1-----1-1-------1-1-|
|------0--0-----0-0-----0-0-------0-0-|
|-------------------------------------|
|--3----------------3-----------------|
|-----------3----------------3--------|
|
|  S S S  S S S S S S S S S  S  S E
|-----------8-7---------7-8-10-12-8---|
|------8-10-----8-----8---------------|
|----9------------7h9-----------------|
|-10----------------------------------|
|-------------------------------------|
|-------------------------------------|
|
|  W
|-------------------------------------|
|-------------------------------------|
|-------------------------------------|
|-------------------------------------|
|-------------------------------------|
|-------------------------------------|



                                                   12:18

                                                 Q.=90
                                                  6/8
                                                   Gtr II
   E     S  S  E     S  S  E     S  S  E     E      E   Q     E  Q       Q   Q   Q
|--------2--2--------2--2--------2--2--------2---|--------------------|---------------|
|--------1--1--------1--1--------1--1--------1---|--------------------|---------------|
|--------2--2--------2--2--------2--2--------2---|--------------------|---------------|
|--0-----------------------0---------------------|--7---------7-------|----------4----|
|--------------0-----------------------0---------|--5---------5-------|--5---7--------|
|------------------------------------------------|--5---------5-------|---------------|
|
|                                                  Gtr I
|  S  S  S  S  S  S  S  S  S  S  S  S  S  S  S S    E   E  E  E  E  E    Q   Q   Q
|-10-------------------10-13s14-13s14------------|--------------------|---------------|
|----13-12-10-------10----------------15---------|--------------------|---------------|
|-------------11-12----------------------14-11---|-11--12-14-11-12-14-|-11--12--14----|
|------------------------------------------------|--------------------|---------------|
|------------------------------------------------|--------------------|---------------|
|------------------------------------------------|--------------------|---------------|
|
|                                                  Gtr III
|  W                                                H.                   Q   Q   Q
|------------------------------------------------|--------------------|---------------|
|------------------------------------------------|--------------------|---------------|
|------------------------------------------------|--------------------|-14--16--17----|
|------------------------------------------------|--------------------|---------------|
|------------------------------------------------|--------------------|---------------|
|------------------------------------------------|--------------------|---------------|


   E  E  E  E  E  E    E  E  E  E  E  E
|-------------------|-------------------|
|-------------------|-------------------|
|-------------------|-------------------|
|--5--5--5--5--5--5-|--7--7--7--7--7--7-|
|--5--5--5--5--5--5-|--5--5--5--5--5--5-|
|--3--3--3--3--3--3-|--5--5--5--5--5--5-|
|
|  E  E  E  E  E  E    E  E  E  E  E  E
|-------------------|-------------------|
|-------------------|-15-13-12----------|
|-16-12-14-16-12-14-|----------14-12-11-|
|-------------------|-------------------|
|-------------------|-------------------|
|-------------------|-------------------|
|
|  E  E  E  E  E  E    E  E  E  E  E  E
|-------------------|-------------------|
|-------------------|-19-17-15----------|
|-19-16-17-19-16-17-|----------17-16-14-|
|-------------------|-------------------|
|-------------------|-------------------|
|-------------------|-------------------|


   E  E        E  E  E  E    E  E  E  E  E  E
|-------------------------|-------------------|
|-------------------------|-------------------|
|-------------------------|-------------------|
|--9--9--------9--9--9--9-|--5--5--5--7--7--7-|
|--7--7--------7--7--7--7-|--3--3--3--5--5--5-|
|--7--7--------7--7--7--7-|--3--3--3--5--5--5-|
|
|  E  T  T  S  E  E  E  E    E  E  E  E  E  E
|-------------------------|-------------------|
|----------------12-10----|----10-12-------10-|
|-12-11h12p11----------11-|-12-------11-------|
|-------------12----------|-------------12----|
|-------------------------|-------------------|
|-------------------------|-------------------|
|
|  E  T  T  S  E  E  E  E    E  E  E  E  E  E
|-------------------------|-------------------|
|----------------15-------|-------15----------|
|-16-14h16p14-------17-16-|-16-17----14----17-|
|-------------17----------|-------------16----|
|-------------------------|-------------------|
|-------------------------|-------------------|


   E  E  E  E  E  E    E  E  E  E  E  E
|-------------------|-------------------|
|-------------------|-------------------|
|-------------------|-------------------|
|--9--9--9--9--9--9-|--4--4--4--4--4--4-|
|--7--7--7--7--7--7-|--2--2--2--2--2--2-|
|--7--7--7--7--7--7-|--2--2--2--2--2--2-|
|
|  E  E  E  E  E  E    E  E  E  E  E  E
|-------------------|-------------------|
|-------------------|-------------12-15-|
|-12-11--9-----9-11-|-------11-12-------|
|----------12-------|--9-12-------------|
|-------------------|-------------------|
|-------------------|-------------------|
|
|  E  E  E  E  E  E    E  E  E  E  E  E
|-------------------|----------------14-|
|-------------------|-------------15----|
|-16-14----------14-|-------14-16-------|
|-------17-16-17----|----16-------------|
|-------------------|-17----------------|
|-------------------|-------------------|


                                         PM---|
   E  E  E  E  E  E    E     E     E     E  E  E
|-------------------|----------------------------|
|-------------------|----------------------------|
|-------------------|----------------------------|
|--5--5--5--5--5--5-|--7-----7-----7-----7--7--7-|
|--3--3--3--3--3--3-|--5-----5-----5-----5--5--5-|
|--3--3--3--3--3--3-|--5-----5-----5-----5--5--5-|
|
|  E  E  E  E  E  E    S  S  S  S  S  S  E  E  E
|----12-15-15-12----|-14h17p14-------------------|
|-13-------------13-|----------15----------------|
|-------------------|-------------14----------14-|
|-------------------|----------------16----16----|
|-------------------|-------------------17-------|
|-------------------|----------------------------|
|
|  E  E  E  E  E  E    S  S  S  S  S  S  E  E  E
|----15-20-19-15----|-17h20p17-------------------|
|-17-------------17-|----------19----------------|
|-------------------|-------------17----------17-|
|-------------------|----------------19----19----|
|-------------------|-------------------21-------|
|-------------------|----------------------------|


   E  E  E  E  E  E    E  E  E  E  E  E
|-------------------|-------------------|
|-------------------|-------------------|
|-------------------|-------------------|
|--8--8--8--8--8--8-|-10-10-10-10-10-10-|
|--8--8--8--8--8--8-|--8--8--8--8--8--8-|
|--6--6--6--6--6--6-|--8--8--8--8--8--8-|
|
|  E  E  E  E  E  E    E  E  E  E  E  E
|-------------------|-------------------|
|-------------------|-18-16-15----------|
|-19-15-17-19-15-17-|----------17-15-14-|
|-------------------|-------------------|
|-------------------|-------------------|
|-------------------|-------------------|
|
|  E  E  E  E  E  E    E  E  E  E  E  E
|-------------------|-------------------|
|-------------------|-22-20-18----------|
|-22-19-20-22-19-20-|----------20-19-17-|
|-------------------|-------------------|
|-------------------|-------------------|
|-------------------|-------------------|


   E  E        E  E  E  E    E  E  E  E  E  E
|-------------------------|-------------------|
|-------------------------|-------------------|
|-------------------------|-------------------|
|-12-12-------12-12-12-12-|--8--8--8-10-10-10-|
|-10-10-------10-10-10-10-|--6--6--6--8--8--8-|
|-10-10-------10-10-10-10-|--6--6--6--8--8--8-|
|
|  E  T  T  S  E  E  E  E    E  E  E  E  E  E
|-------------------------|-------------------|
|----------------15-13----|----13-15-------13-|
|-15-14h15p14----------14-|-15-------14-------|
|-------------15----------|-------------15----|
|-------------------------|-------------------|
|-------------------------|-------------------|
|
|  E  T  T  S  E  E  E  E    E  E  E  E  E  E
|-------------------------|-------------------|
|----------------18-------|-------18----------|
|-19-17h19p17-------20-19-|-19-20----17----20-|
|-------------20----------|-------------19----|
|-------------------------|-------------------|
|-------------------------|-------------------|


   E  E  E  E  E  E    E  E  E  E  E  E    E  E  E  E  E  E
|-------------------|-------------------|-------------------|
|-------------------|-------------------|-------------------|
|-------------------|-------------------|-------------------|
|-12-12-12-12-12-12-|--7--7--7--7--7--7-|--8--8--8--8--8--8-|
|-10-10-10-10-10-10-|--5--5--5--5--5--5-|--6--6--6--6--6--6-|
|-10-10-10-10-10-10-|--5--5--5--5--5--5-|--6--6--6--6--6--6-|
|
|  E  E  E  E  E  E    E  E  E  E  E  E    E  E  E  E  E  E
|-------------------|-------------------|----15-18-18-15----|
|-------------------|-------------15-18-|-16-------------16-|
|-15-14-12----12-14-|-------14-15-------|-------------------|
|----------15-------|-12-15-------------|-------------------|
|-------------------|-------------------|-------------------|
|-------------------|-------------------|-------------------|
|
|  E  E  E  E  E  E    E  E  E  E  E  E    E  E  E  E  E  E
|-------------------|----------------17-|----18----22-18----|
|-------------------|-------------18----|-20-------------20-|
|-19-17----------17-|-------17-19-------|-------20----------|
|-------20-19-20----|----19-------------|-------------------|
|-------------------|-20----------------|-------------------|
|-------------------|-------------------|-------------------|


                        PM|                          PM|
   E     E     E     E  E  E    E     E     E     E  E  E
|----------------------------|-----------------------------|
|----------------------------|-----------------------------|
|----------------------------|-----------------------------|
|-10----10----10----10-10-10-|--7-----7-----7-----7--7--7--|
|--8-----8-----8-----8--8--8-|--5-----5-----5-----5--5--5--|
|--8-----8-----8-----8--8--8-|--5-----5-----5-----5--5--5--|
|
|  S  S  S  S  S  S  E  E  E    S  S  S  S  S  S  E  E  E
|----------------------------|-14h17p14--------------------|
|-13h16p13-------------------|----------15-----------------|
|----------14----------------|-------------14----------14--|
|-------------13----------13-|----------------16----16-----|
|----------------15-12-15----|-------------------17--------|
|----------------------------|-----------------------------|
|
|  S  S  S  S  S  S  E  E  E    S  S  S  S  S  S  E  E  E
|-17h20p17-------------------|-17h20p17--------------------|
|----------18----------------|----------19-----------------|
|-------------17----------17-|-------------17----------17--|
|----------------19----19----|----------------19----19-----|
|-------------------20-------|-------------------21--------|
|----------------------------|-----------------------------|


   E  E  E  E  E  E    E  E  E  E  E  E
|-------------------|-------------------|
|-------------------|-------------------|
|-------------------|-------------------|
|--5--5--5--5--5--5-|--7--7--7--7--7--7-|
|--5--5--5--5--5--5-|--5--5--5--5--5--5-|
|--3--3--3--3--3--3-|--5--5--5--5--5--5-|
|
|  E  E  E  E  E  E    E  E  E  E  E  E
|-------------------|-------------------|
|-------------------|-15-13-12----------|
|-16-12-14-16-12-14-|----------14-12-11-|
|-------------------|-------------------|
|-------------------|-------------------|
|-------------------|-------------------|
|
|  E  E  E  E  E  E    E  E  E  E  E  E
|-------------------|-------------------|
|-------------------|-19-17-15----------|
|-19-16-17-19-16-17-|----------17-16-14-|
|-------------------|-------------------|
|-------------------|-------------------|
|-------------------|-------------------|


   E  E        E  E  E  E    E  E  E  E  E  E
|-------------------------|--------------------|
|-------------------------|--------------------|
|-------------------------|--------------------|
|--9--9--------9--9--9--9-|--5--5--5--7--7--7--|
|--7--7--------7--7--7--7-|--3--3--3--5--5--5--|
|--7--7--------7--7--7--7-|--3--3--3--5--5--5--|
|
|  E  T  T  S  E  E  E  E    E  E  E  E  E  E
|-------------------------|--------------------|
|----------------12-10----|----10-12-------10--|
|-12-11h12p11----------11-|-12-------11--------|
|-------------12----------|-------------12-----|
|-------------------------|--------------------|
|-------------------------|--------------------|
|
|  E  T  T  S  E  E  E  E    E  E  E  E  E  E
|-------------------------|--------------------|
|----------------15-------|-------15-----------|
|-16-14h16p14-------17-16-|-16-17----14----17--|
|-------------17----------|-------------16-----|
|-------------------------|--------------------|
|-------------------------|--------------------|


   E  E  E  E  E  E    E  E  E  E  E  E
|-------------------|-------------------|
|-------------------|-------------------|
|-------------------|-------------------|
|--9--9--9--9--9--9-|--4--4--4--4--4--4-|
|--7--7--7--7--7--7-|--2--2--2--2--2--2-|
|--7--7--7--7--7--7-|--2--2--2--2--2--2-|
|
|  E  E  E  E  E  E    E  E  E  E  E  E
|-------------------|-------------------|
|-------------------|-------------12-15-|
|-12-11--9-----9-11-|-------11-12-------|
|----------12-------|--9-12-------------|
|-------------------|-------------------|
|-------------------|-------------------|
|
|  E  E  E  E  E  E    E  E  E  E  E  E
|-------------------|----------------14-|
|-------------------|-------------15----|
|-16-14----------14-|-------14-16-------|
|-------17-16-17----|----16-------------|
|-------------------|-17----------------|
|-------------------|-------------------|


                                         PM---|
   E  E  E  E  E  E    E     E     E     E  E  E
|-------------------|----------------------------|
|-------------------|----------------------------|
|-------------------|----------------------------|
|--5--5--5--5--5--5-|--7-----7-----7-----7--7--7-|
|--3--3--3--3--3--3-|--5-----5-----5-----5--5--5-|
|--3--3--3--3--3--3-|--5-----5-----5-----5--5--5-|
|
|  E  E  E  E  E  E    S  S  S  S  S  S  E  E  E
|----12-15-15-12----|-14h17p14-------------------|
|-13-------------13-|----------15----------------|
|-------------------|-------------14----------14-|
|-------------------|----------------16----16----|
|-------------------|-------------------17-------|
|-------------------|----------------------------|
|
|  E  E  E  E  E  E    S  S  S  S  S  S  E  E  E
|----15-20-19-15----|-17h20p17-------------------|
|-17-------------17-|----------19----------------|
|-------------------|-------------17----------17-|
|-------------------|----------------19----19----|
|-------------------|-------------------21-------|
|-------------------|----------------------------|


                        PM|                              PM|
   E     E     E     E  E  E    E      E     E     E     S  S  E
|----------------------------|--------------------------------------|
|----------------------------|--------------------------------------|
|----------------------------|--------------------------------------|
|--4-----4-----4-----4--4--4-|---------------------------------4----|
|--2-----2-----2-----2--2--2-|---------------3-----2-----3--3--3----|
|--2-----2-----2-----2--2--2-|--0------5-----------------2--2--2----|
|
|  S  S  S  S  S  S  E  E  E    S   S  S  S  S  S  S  S  S  S  S  S
|-11h14p11-------------------|--------------------------------------|
|----------12----------------|-20--20-------------------------19-19-|
|-------------11----------11-|--------17-17-21-21----------17-------|
|----------------13----13----|--------------------17-17-16----------|
|-------------------14-------|--------------------------------------|
|----------------------------|--------------------------------------|
|
|  S  S  S  S  S  S  E  E  E    H.
|-14h17p14-------------------|--------------------------------------|
|----------16----------------|--------------------------------------|
|-------------14----------14-|--------------------------------------|
|----------------16----16----|--------------------------------------|
|-------------------18-------|--------------------------------------|
|----------------------------|--------------------------------------|


   Q           E     Q              E    E         Q                 E E E
|-------------------------------------|--------------------------------------*|
|-------------------------------------|--------------------------------------*|
|-----------------------------------8-|--9---------------------------9-------*|
|--------------4-----7----------------|--9---------------------------9---9---*|
|--3----------------------------------|--7---------------------------7---9---*|
|-------------------------------------|----------------------------------7---*|
|
|                                        |----------9:6-----------|
|  S  S  S  S  S  S  S  S  S  S  S  S    S   S  S  S  S  S  S  S  S  E   Q
|----------------------------17h20p17-|-16--19-16----------------14-12-------*|
|----16-19p16----------16-19----------|-----------17----------16-------------*|
|-17----------17----17----------------|--------------16----14----------------*|
|----------------19-------------------|-----------------18-------------------*|
|-------------------------------------|--------------------------------------*|
|-------------------------------------|--------------------------------------*|
|
|  S  S  S  S  S  S  S  S  S  S  S  S    H.
|-------------------------------------|--------------------------------------*|
|----------------------------19h22p19-|--------------------------------------*|
|----17-20p17----------17-20----------|--------------------------------------*|
|-19----------19----19----------------|--------------------------------------*|
|----------------21-------------------|--------------------------------------*|
|-------------------------------------|--------------------------------------*|

(Hope it's not too chaotic:)


Duration Legend
---------------
W - whole; H - half; Q - quarter; E - 8th; S - 16th; T - 32nd; X - 64th; a - acciaccatura
+ - note tied to previous; . - note dotted; .. - note double dotted
Uncapitalized letters represent notes that are staccato (1/2 duration)
Irregular groupings are notated above the duration line
Duration letters will always appear directly above the note/fret number it represents the
duration for.  Duration letters with no fret number below them represent rests.  Multi-
bar rests are notated in the form Wxn, where n is the number of bars to rest for.  Low
melody durations appear below the staff

Tablature Legend
----------------
 h   - hammer-on
 p   - pull-off
 b   - bend
 pb  - pre-bend
 r   - bend release (if no number after the r, then release immediately)
 /\  - slide into or out of (from/to "nowhere")
 s   - legato slide
 S   - shift slide
  - natural harmonic
[n]  - artificial harmonic
n(n) - tapped harmonic
 ~   - vibrato
 tr  - trill
 T   - tap
 TP  - trem. picking
 PM  - palm muting
\n/  - tremolo bar dip; n = amount to dip
 \n  - tremolo bar down
 n/  - tremolo bar up
/n\  - tremolo bar inverted dip
 =   - hold bend; also acts as connecting device for hammers/pulls
 <>  - volume swell (louder/softer)
 x   - on rhythm slash represents muted slash
 o   - on rhythm slash represents single note slash

Misc Legend
-----------
 |  - bar
||  - double bar
||o - repeat start
o|| - repeat end
*|  - double bar (ending)
 :  - bar (freetime)
 $  - Segno
 &  - Coda
comments
We did not receive enough feedback on this tab! Please rate:
print report bad tab
1 2 3 4 5
1 comment total.
0 reply
Catlodo wrote on August 13 2014, 08:43 am

Lack of formatting.

I want to post or [tab]
guest
You may want to rate the tab now too:
select rating
Please do not post tabs as comments. Select "correction" instead!