Oops, an error
Loading. Please wait.

Arsonist Tab

ver1
ver1

Intro

Whole song

Interactive

More versions @911Tabs.com
3,199 views 1 this week
6 commentsread comments
1 2 3 4 5
excellent!
x 5
Autoscroll
+/-
esc
set tempo
stop
Contributor
Difficulty
intermediate
WARNING: You are trying to view
                                    content from Ultimate-Guitar.com
                                    in an unauthorized application,
                                    which is prohibited.

                                    Please use an official Ultimate
                                    Guitar Tabs application for iPhone,
                                    iPad or Android to access legitimate
                                    chords, guitar, bass, and drum tabs
                                    from Ultimate-Guitar.com database.

                                    Type "ultimate guitar tabs" in Apple
                                    App Store's or Android Market's
                                    search to find the application.
Between The Buried And Me
Arsonist
from the album "S/T"


Transcribed by Jody Payne  1/14/07


Tuning: C# Standard (or Db Standard) Db Gb B E Ab Db


Okay guys. I did this real quick, so sorry if it's sloppy.
I based mine on someone else's tab. I saw a few things were
wrong (timings, fingerings, positions) so I decided to fix
that and post it. I hope it helps.

The other tabs on here weren't even close.





    Guitar 1
Db :----------------------------------|-----------------------------------|
Ab :----------------------------------|-----------------------------------|
E  :9--8------------------------------|-----------------------------------|
B  :-----10--9--7---------------------|-----------------------------------|
Gb :--------------10--9--7-6----------|7-7-7-7-7-7-7-7---------10-10-10-10|
Db :--------------------------7-------|----------------7-7-7-7------------|

    Guitar 2
Db :----------------------------------|-----------------------------------|
Ab :----------------------------------|-----------------------------------|
E  :----------------------------------|-----------------------------------|
B  :----------------------------------|-----------------------------------|
Gb :--------------------------9-------|7-7-7-7-7-7-7-7---------10-10-10-10|
Db :--------------------------7-------|----------------7-7-7-7------------|

============================================================================

Db :-------------------------------|-----------------------------------|
Ab :-------------------------------|-----------------------------------|
E  :-------------------------------|-----------------------------------|
B  :----------------7-7-7-7--------|----------------------------9-9-9-9|
Gb :9-9-9-9-9-9-9-9---------6-6-6-6|7-7-7-7-9-9-9-9-10-10-10-10--------|
Db :-------------------------------|-----------------------------------|

Db :-------------------------------|-----------------------------------|
Ab :-------------------------------|-----------------------------------|
E  :-------------------------------|-----------------------------------|
B  :----------------7-7-7-7--------|----------------------------9-9-9-9|
Gb :9-9-9-9-9-9-9-9---------6-6-6-6|7-7-7-7-9-9-9-9-10-10-10-10--------|
Db :-------------------------------|-----------------------------------|

============================================================================

Db :-----------------------------------|-----------------------------------|
Ab :-----------------------------------|-----------------------------------|
E  :-----------------------------------|-----------------------------------|
B  :--------7-7-7-7--------------------|-----------------------------------|
Gb :----------------------------9-9-9-9|7-7-7-7-7-7-7-7---------10-10-10-10|
Db :8-8-8-8---------10-10-10-10--------|----------------7-7-7-7------------|

Db :-----------------------------------|-----------------------------------|
Ab :-----------------------------------|-----------------------------------|
E  :-----------------------------------|-----------------------------------|
B  :--------7-7-7-7--------------------|-----------------------------------|
Gb :----------------------------9-9-9-9|7-7-7-7-7-7-7-7---------10-10-10-10|
Db :8-8-8-8---------10-10-10-10--------|----------------7-7-7-7------------|

============================================================================

Db :-------------------------------|-------------------------------------|
Ab :-------------------------------|-------------------------------------|
E  :-------------------------------|-----------------------------8-------|
B  :----------------7-7-7-7--------|----7-9--(7)--9-10---9--7-5----------|
Gb :9-9-9-9-9-9-9-9---------6-6-6-6|10-----------------------------------|
Db :-------------------------------|-------------------------------------|

Db :-------------------------------|-------------------------------------|
Ab :-------------------------------|-------------------------------------|
E  :-------------------------------|-------------------------------------|
B  :----------------7-7-7-7--------|-------------------------------------|
Gb :9-9-9-9-9-9-9-9---------6-6-6-6|-7--------9---------10-------6-------|
Db :-------------------------------|-------------------------------------|

============================================================================

Db :----------------------------------|-----------------------------------|
Ab :----------------------------------|-----------------------------------|
E  :9--8------------------------------|-----------------------------------|
B  :-----10--9--7---------------------|-----------------------------------|
Gb :--------------10--9--7-6----------|7-7-7-7-7-7-7-7---------10-10-10-10|
Db :--------------------------7-------|----------------7-7-7-7------------|

Db :----------------------------------|-----------------------------------|
Ab :----------------------------------|-----------------------------------|
E  :----------------------------------|-----------------------------------|
B  :9---------------------------------|-----------------------------------|
Gb :7--------*----------------9-------|7-7-7-7-7-7-7-7---------10-10-10-10|
Db :--------------------------7-------|----------------7-7-7-7------------|

============================================================================

Db :-------------------------------|-----------------------------------|
Ab :-------------------------------|-----------------------------------|
E  :-------------------------------|-----------------------------------|
B  :----------------7-7-7-7--------|----------------------------9-9-9-9|
Gb :9-9-9-9-9-9-9-9---------6-6-6-6|7-7-7-7-9-9-9-9-10-10-10-10--------|
Db :-------------------------------|-----------------------------------|

Db :-------------------------------|-----------------------------------|
Ab :-------------------------------|-----------------------------------|
E  :-------------------------------|-----------------------------------|
B  :----------------7-7-7-7--------|----------------------------9-9-9-9|
Gb :9-9-9-9-9-9-9-9---------6-6-6-6|7-7-7-7-9-9-9-9-10-10-10-10--------|
Db :-------------------------------|-----------------------------------|

============================================================================

Db :-----------------------------------|-----------------------------------|
Ab :-----------------------------------|-----------------------------------|
E  :-----------------------------------|-----------------------------------|
B  :--------7-7-7-7--------------------|-----------------------------------|
Gb :----------------------------9-9-9-9|7-7-7-7-7-7-7-7---------10-10-10-10|
Db :8-8-8-8---------10-10-10-10--------|----------------7-7-7-7------------|

Db :-----------------------------------|-----------------------------------|
Ab :-----------------------------------|-----------------------------------|
E  :-----------------------------------|-----------------------------------|
B  :--------7-7-7-7--------------------|-----------------------------------|
Gb :----------------------------9-9-9-9|7-7-7-7-7-7-7-7---------10-10-10-10|
Db :8-8-8-8---------10-10-10-10--------|----------------7-7-7-7------------|

============================================================================

Db :-------------------------------|-----------------|----------------|
Ab :-------------------------------|-----------------|----------------|
E  :-------------------------------|-----------------|----------------|
B  :----------------7-7-7-7--------|5---7----9-------|------2-------2-|
Gb :9-9-9-9-9-9-9-9---------6-6-6-6|-------------9---|2-2-2-2-2-2-2-2-|
Db :-------------------------------|-----------------|0-0-0---0-0-0---|

Db :-------------------------------|-----------------|----------------|
Ab :-------------------------------|-----------------|----------------|
E  :-------------------------------|-----------------|----------------|
B  :----------------7-7-7-7--------|-----------------|----------------|
Gb :9-9-9-9-9-9-9-9---------6-6-6-6|7---9---10---6---|------2-------2-|
Db :-------------------------------|-----------------|0-0-0-0-0-0-0-0-|

============================================================================

Db :----------------|----------------|----------------|----------------|
Ab :----------------|----------------|----------------|----------------|
E  :----------------|----------------|----------------|----------------|
B  :------1-------1-|------5-------5-|------4-------4-|------2-------2-|
Gb :2-2-2-2-2-2-2-2-|2-2-2-5-2-2-2-5-|2-2-2-5-2-2-2-5-|2-2-2-2-2-2-2-2-|
Db :0-0-0---0-0-0---|0-0-0---0-0-0---|0-0-0---0-0-0---|0-0-0---0-0-0---|

Db :----------------|----------------|----------------|----------------|
Ab :----------------|----------------|----------------|----------------|
E  :----------------|----------------|----------------|----------------|
B  :------4-------4-|----------------|------7-------7-|----------------|
Gb :------2-------2-|------5-------5-|------5-------5-|------2-------2-|
Db :0-0-0---0-0-0---|0-0-0-3-0-0-0-3-|0-0-0---0-0-0---|0-0-0-0-0-0-0-0-|

============================================================================

Db :----------------|----------------|----------------|------------------|
Ab :----------------|----------------|----------------|------------------|
E  :----------------|----------------|----------------|------------------|
B  :------5-------5-|------5-------5-|------4-------4-|--------<5>-------|
Gb :2-2-2-3-2-2-2-3-|2-2-2-2-2-2-2-2-|2-2-2-2-2-2-2-2-|2-----------------|
Db :0-0-0---0-0-0---|0-0-0---0-0-0---|0-0-0---0-0-0---|0-----------------|

Db :----------------|----------------|----------------|------------------|
Ab :----------------|----------------|----------------|------------------|
E  :----------------|----------------|----------------|------------------|
B  :------2-------2-|----------------|----------------|------------------|
Gb :------3-------3-|------6-------6-|------6-------6-|2-------<6>-------|
Db :0-0-0---0-0-0---|0-0-0---0-0-0---|0-0-0---0-0-0---|0-----------------|

============================================================================

Db :-----------------------------------|-------------------------------|
Ab :-----------------------------------|-------------------------------|
E  :-----------------------------------|-------------------------------|
B  :-----------------------------------|----------------7-7-7-7--------|
Gb :7-7-7-7-7-7-7-7---------10-10-10-10|9-9-9-9-9-9-9-9---------6-6-6-6|
Db :----------------7-7-7-7------------|-------------------------------|

Db :-----------------------------------|-------------------------------|
Ab :-----------------------------------|-------------------------------|
E  :-----------------------------------|-------------------------------|
B  :-----------------------------------|----------------7-7-7-7--------|
Gb :7-7-7-7-7-7-7-7---------10-10-10-10|9-9-9-9-9-9-9-9---------6-6-6-6|
Db :----------------7-7-7-7------------|-------------------------------|

============================================================================

Db :-----------------------------------|-----------------------------------|
Ab :-----------------------------------|-----------------------------------|
E  :-----------------------------------|-----------------------------------|
B  :----------------------------9-9-9-9|--------7-7-7-7--------------------|
Gb :7-7-7-7-9-9-9-9-10-10-10-10--------|----------------------------9-9-9-9|
Db :-----------------------------------|8-8-8-8---------10-10-10-10--------|

Db :-----------------------------------|-----------------------------------|
Ab :-----------------------------------|-----------------------------------|
E  :-----------------------------------|-----------------------------------|
B  :----------------------------9-9-9-9|--------7-7-7-7--------------------|
Gb :7-7-7-7-9-9-9-9-10-10-10-10--------|----------------------------9-9-9-9|
Db :-----------------------------------|8-8-8-8---------10-10-10-10--------|

============================================================================

Db :-----------------------------------|-------------------------------|
Ab :-----------------------------------|-------------------------------|
E  :-----------------------------------|-------------------------------|
B  :-----------------------------------|----------------7-7-7-7--------|
Gb :7-7-7-7-7-7-7-7---------10-10-10-10|9-9-9-9-9-9-9-9---------6-6-6-6|
Db :----------------7-7-7-7------------|-------------------------------|

Db :-----------------------------------|-------------------------------|
Ab :-----------------------------------|-------------------------------|
E  :-----------------------------------|-------------------------------|
B  :-----------------------------------|----------------7-7-7-7--------|
Gb :7-7-7-7-7-7-7-7---------10-10-10-10|9-9-9-9-9-9-9-9---------6-6-6-6|
Db :----------------7-7-7-7------------|-------------------------------|

============================================================================

Db :-------------------------------------|
Ab :-------------------------------------|
E  :-----------------------------8-------|
B  :----7-9---7---9-10---9--7-5----------|
Gb :10-----------------------------------|
Db :-------------------------------------|

Db :-------------------------------------|
Ab :-------------------------------------|
E  :-------------------------------------|
B  :-------------------------------------|
Gb :-7--------9---------10-------6-------|
Db :-------------------------------------|

============================================================================

Db :----------------------------------|-----------------------------------|
Ab :----------------------------------|-----------------------------------|
E  :9--8------------------------------|-----------------------------------|
B  :-----10--9--7---------------------|-----------------------------------|
Gb :--------------10--9--7-6----------|7-7-7-7-7-7-7-7---------10-10-10-10|
Db :--------------------------7-------|----------------7-7-7-7------------|

Db :----------------------------------|-----------------------------------|
Ab :----------------------------------|-----------------------------------|
E  :----------------------------------|-----------------------------------|
B  :9---------------------------------|-----------------------------------|
Gb :7--------*----------------9-------|7-7-7-7-7-7-7-7---------10-10-10-10|
Db :--------------------------7-------|----------------7-7-7-7------------|

============================================================================

Db :-------------------------------|-----------------------------------|
Ab :-------------------------------|-----------------------------------|
E  :-------------------------------|-----------------------------------|
B  :----------------7-7-7-7--------|----------------------------9-9-9-9|
Gb :9-9-9-9-9-9-9-9---------6-6-6-6|7-7-7-7-9-9-9-9-10-10-10-10--------|
Db :-------------------------------|-----------------------------------|

Db :-------------------------------|-----------------------------------|
Ab :-------------------------------|-----------------------------------|
E  :-------------------------------|-----------------------------------|
B  :----------------7-7-7-7--------|----------------------------9-9-9-9|
Gb :9-9-9-9-9-9-9-9---------6-6-6-6|7-7-7-7-9-9-9-9-10-10-10-10--------|
Db :-------------------------------|-----------------------------------|

============================================================================

Db :-----------------------------------|-----------------------------------|
Ab :-----------------------------------|-----------------------------------|
E  :-----------------------------------|-----------------------------------|
B  :--------7-7-7-7--------------------|-----------------------------------|
Gb :----------------------------9-9-9-9|7-7-7-7-7-7-7-7---------10-10-10-10|
Db :8-8-8-8---------10-10-10-10--------|----------------7-7-7-7------------|

Db :-----------------------------------|-----------------------------------|
Ab :-----------------------------------|-----------------------------------|
E  :-----------------------------------|-----------------------------------|
B  :--------7-7-7-7--------------------|-----------------------------------|
Gb :----------------------------9-9-9-9|7-7-7-7-7-7-7-7---------10-10-10-10|
Db :8-8-8-8---------10-10-10-10--------|----------------7-7-7-7------------|

============================================================================

Db :-------------------------------|-------------------------------------|
Ab :-------------------------------|-------------------------------------|
E  :-------------------------------|-----------------------------8-------|
B  :----------------7-7-7-7--------|----7-9--(7)--9-10---9--7-5----------|
Gb :9-9-9-9-9-9-9-9---------6-6-6-6|10-----------------------------------|
Db :-------------------------------|-------------------------------------|

Db :-------------------------------|-------------------------------------|
Ab :-------------------------------|-------------------------------------|
E  :-------------------------------|-------------------------------------|
B  :----------------7-7-7-7--------|-------------------------------------|
Gb :9-9-9-9-9-9-9-9---------6-6-6-6|-7--------9---------10-------6-------|
Db :-------------------------------|-------------------------------------|

============================================================================

Db :----------------------------------|------------------|----------------|
Ab :----------------------------------|------------------|----------------|
E  :9--8------------------------------|------------------|----------------|
B  :-----10--9--7---------------------|------------------|----------------|
Gb :--------------10--9--7-6----------|2-----------------|----------------|
Db :--------------------------7-------|0-----------------|----------------|

Db :----------------------------------|---------0--------|----------------|
Ab :----------------------------------|--------(0)-------|----------------|
E  :----------------------------------|------------------|----------------|
B  :9---------------------------------|------------------|----------------|
Gb :7--------*----------------9-------|2-----------------|----------------|
Db :--------------------------7-------|0-----------------|----------------|

============================================================================

Db :--------------------------------|--------------------------------|
Ab :--------------------------------|--------------------------------|
E  :--------------------------------|--------------------------------|
B  :--------------------------------|--------------------------------|
Gb :--------------------------------|--------------------------------|
Db :--------------------------------|--------------------------------|

Db :--------------------------------|--------------------------------|
Ab :--------------------------------|--------------------------------|
E  :4--4-4--5--5-5--4--4-4--5--5-5--|4--4-4--5--5-5--4--4-4--5--5-5--|
B  :--------------------------------|--------------------------------|
Gb :--------------------------------|--------------------------------|
Db :--------------------------------|--------------------------------|

============================================================================

Db :--------------------------------|--------------------------------|
Ab :--------------------------------|--------------------------------|
E  :--------------------------------|--------------------------------|
B  :--------------------------------|--------------------------------|
Gb :3-------2-------7-------2-------|3-------2-------3-------2-------|
Db :1-------0-------5-------0-------|1-------0-------4-------0-------|

Db :--------------------------------|--------------------------------|
Ab :--------------------------------|--------------------------------|
E  :4--4-4--5--5-5--4--4-4--5--5-5--|4--4-4--5--5-5--4--4-4--5--5-5--|
B  :--------------------------------|--------------------------------|
Gb :--------------------------------|--------------------------------|
Db :--------------------------------|--------------------------------|

============================================================================

Db :--------------------------------|------------------------|
Ab :--------------------------------|------------------------|
E  :--------------------------------|------------------------|
B  :--------------------------------|------------------------|
Gb :3-------2-------7-------2-------|------------------------|
Db :1-------0-------5-------0-------|5-1-0-4-1-0-5-1-0-4-1-0-|

Db :--------------------------------|------------------------|
Ab :--------------------------------|------------------------|
E  :4--4-4--5--5-5--4--4-4--5--5-5--|------------------------|
B  :--------------------------------|------------------------|
Gb :--------------------------------|------------------------|
Db :--------------------------------|5-1-0-4-1-0-5-1-0-4-1-0-|

============================================================================

Db :----------------|----------------|----------------|
Ab :----------------|----------------|----------------|
E  :----------------|----------------|----------------|
B  :----------------|----------------|----------------|
Gb :3---2---7---2---|3---2---3---2---|3---2---7---2---|
Db :1---0---5---0---|1---0---4---0---|1---0---5---0---|

Db :----------------|----------------|----------------|
Ab :----------------|----------------|----------------|
E  :----------------|----------------|----------------|
B  :----------------|----------------|----------------|
Gb :3---2---7---2---|3---2---3---2---|3---2---7---2---|
Db :1---0---5---0---|1---0---4---0---|1---0---5---0---|

============================================================================

Db :------------------------|----------------|----------------|
Ab :------------------------|----------------|----------------|
E  :------------------------|----------------|----------------|
B  :------------------------|----------------|----------------|
Gb :------------------------|3---2---7---2---|3---2---3---2---|
Db :5-1-0-4-1-0-5-1-0-4-1-0-|1---0---5---0---|1---0---4---0---|

Db :------------------------|----------------|----------------|
Ab :------------------------|----------------|----------------|
E  :------------------------|----------------|----------------|
B  :------------------------|----------------|----------------|
Gb :------------------------|3---2---7---2---|3---2---3---2---|
Db :5-1-0-4-1-0-5-1-0-4-1-0-|1---0---5---0---|1---0---4---0---|

============================================================================

Db :----------------|------------------------|----------------|
Ab :----------------|------------------------|----------------|
E  :----------------|------------------------|----------------|
B  :----------------|------------------------|----------------|
Gb :3---2---7---2---|------------------------|3---2---7---2---|
Db :1---0---5---0---|5-1-0-4-1-0-5-1-0-4-1-0-|1---0---5---0---|

Db :----------------|------------------------|----------------|
Ab :----------------|------------------------|----------------|
E  :----------------|------------------------|----------------|
B  :----------------|------------------------|----------------|
Gb :3---2---7---2---|------------------------|3---2---7---2---|
Db :1---0---5---0---|5-1-0-4-1-0-5-1-0-4-1-0-|1---0---5---0---|

============================================================================

Db :----------------|----------------|------------------------|
Ab :----------------|----------------|------------------------|
E  :----------------|----------------|------------------------|
B  :----------------|----------------|------------------------|
Gb :3---2---3---2---|3---2---7---2---|------------------------|
Db :1---0---4---0---|1---0---5---0---|5-1-0-4-1-0-5-1-0-4-1-0-|

Db :----------------|----------------|------------------------|
Ab :----------------|----------------|------------------------|
E  :----------------|----------------|------------------------|
B  :----------------|----------------|------------------------|
Gb :3---2---3---2---|3---2---7---2---|------------------------|
Db :1---0---4---0---|1---0---5---0---|5-1-0-4-1-0-5-1-0-4-1-0-|

============================================================================

Db :----------------|----------------|----------------|
Ab :----------------|----------------|----------------|
E  :----------------|----------------|----------------|
B  :----------------|----------------|----------------|
Gb :3---2---7---2---|3---2---3---2---|3---2---7---2---|
Db :1---0---5---0---|1---0---4---0---|1---0---5---0---|

Db :----------------|----------------|----------------|
Ab :----------------|----------------|----------------|
E  :----------------|----------------|----------------|
B  :----------------|----------------|----------------|
Gb :3---2---7---2---|3---2---3---2---|3---2---7---2---|
Db :1---0---5---0---|1---0---4---0---|1---0---5---0---|

============================================================================

Db :------------------------|----------------|--------------------------|
Ab :------------------------|----------------|--------------------------|
E  :------------------------|----------------|--------------------------|
B  :------------------------|----------------|--------------------------|
Gb :------------------------|3---2---3---4---|3---------4---3---2---3---|
Db :5-1-0-4-1-0-5-1-0-4-1-0-|1---0---1---2---|1---1-1-1-2---1---0---1---|

Db :------------------------|----------------|--------------------------|
Ab :------------------------|----------------|--------------------------|
E  :------------------------|----------------|--------------------------|
B  :------------------------|----------------|--------------------------|
Gb :------------------------|3---2-----------|----------4---3---2---3---|
Db :5-1-0-4-1-0-5-1-0-4-1-0-|1---0----*------|----1-1-1-2---1---0---1---|

============================================================================

Db :----------------------------|----------------|
Ab :----------------------------|----------------|
E  :----------------------------|----------------|
B  :----3-----------------------|----------------|
Gb :2---1---4---2---3---4---3---|4---3---2---3---|
Db :0-------2---0---1---2---1---|2---1---0---1---|

Db :----------------------------|----------------|
Ab :----------------------------|----------------|
E  :----------------------------|----------------|
B  :----3-----------------------|----------------|
Gb :2---1---4---2---3---4---3---|4---3---2---3---|
Db :0-------2---0---1---2---1---|2---1---0---1---|

============================================================================

Db :----------------------------|----------------|
Ab :----------------------------|----------------|
E  :----------------------------|----------------|
B  :----3-----------------------|----------------|
Gb :2---1---4---2---3---4---3---|4---3---2---3---|
Db :0-------2---0---1---2---1---|2---1---0---1---|

Db :----------------------------|----------------|
Ab :----------------------------|----------------|
E  :----------------------------|----------------|
B  :----3-----------------------|----------------|
Gb :2---1---4---2---3---4---3---|4---3---2---3---|
Db :0-------2---0---1---2---1---|2---1---0---1---|

============================================================================

Db :----------------------------|----------------|
Ab :----------------------------|----------------|
E  :----------------------------|----------------|
B  :----3-----------------------|----------------|
Gb :2---1---4---2---3---4---3---|4---3---2---3---|
Db :0-------2---0---1---2---1---|2---1---0---1---|

Db :----------------------------|----------------|
Ab :----------------------------|----------------|
E  :----------------------------|----------------|
B  :----3-----------------------|----------------|
Gb :2---1---4---2---3---4---3---|4---3---2---3---|
Db :0-------2---0---1---2---1---|2---1---0---1---|

============================================================================

Db :------------------------------------|----------------|
Ab :------------------------------------|----------------|
E  :------------------------------------|----------------|
B  :----3-------------------------------|----------------|
Gb :2---1---4---------------3---2-------|4---3---2---3---|
Db :0-------2---0---2---3-----------1---|2---1---0---1---|

Db :------------------------------------|----------------|
Ab :------------------------------------|----------------|
E  :------------------------------------|----------------|
B  :----3-------------------------------|----------------|
Gb :2---1---4---------------3---2-------|4---3---2---3---|
Db :0-------2---0---2---3-----------1---|2---1---0---1---|

============================================================================

Db :----------------------------|----------------|
Ab :----------------------------|----------------|
E  :----------------------------|----------------|
B  :----3-----------------------|----------------|
Gb :2---1---4---2---3---4---3---|4---3---2---3---|
Db :0-------2---0---1---2---1---|2---1---0---1---|

Db :----------------------------|----------------|
Ab :----------------------------|----------------|
E  :----------------------------|----------------|
B  :----3-----------------------|----------------|
Gb :2---1---4---2---3---4---3---|4---3---2---3---|
Db :0-------2---0---1---2---1---|2---1---0---1---|

============================================================================

Db :----------------------------|----------------|
Ab :----------------------------|----------------|
E  :----------------------------|----------------|
B  :----3-----------------------|----------------|
Gb :2---1---4---2---3---4---3---|4---3---2---3---|
Db :0-------2---0---1---2---1---|2---1---0---1---|

Db :----------------------------|----------------|
Ab :----------------------------|----------------|
E  :----------------------------|----------------|
B  :----3-----------------------|----------------|
Gb :2---1---4---2---3---4---3---|4---3---2---3---|
Db :0-------2---0---1---2---1---|2---1---0---1---|

============================================================================

Db :----------------------------|----------------|
Ab :----------------------------|----------------|
E  :----------------------------|----------------|
B  :----3-----------------------|----------------|
Gb :2---1---4---2---3---4---3---|4---3---2---3---|
Db :0-------2---0---1---2---1---|2---1---0---1---|

Db :----------------------------|----------------|
Ab :----------------------------|----------------|
E  :----------------------------|----------------|
B  :----3-----------------------|----------------|
Gb :2---1---4---2---3---4---3---|4---3---2---3---|
Db :0-------2---0---1---2---1---|2---1---0---1---|

============================================================================

Db :----------------------------|------------------------|--------------|
Ab :----------------------------|------------------------|--------------|
E  :----------------------------|------------------------|--------------|
B  :----3-----------------------|------------------------|--------------|
Gb :2---1---4---2---3---4---3---|------------3---2----2--|--------------|
Db :0-------2---0---1---2---1---|0---2---3------------0--|--------------|

Db :----------------------------|------------------------|--------------|
Ab :----------------------------|------------------------|--------------|
E  :----------------------------|------------------------|--------------|
B  :----3-----------------------|------------------------|--------------|
Gb :2---1---4---2---3---4---3---|------------3---2----2--|--------------|
Db :0-------2---0---1---2---1---|0---2---3------------0--|--------------|

============================================================================

Db :----------------|----------------|----------------|--------------------|
Ab :----------------|----------------|----------------|--------------------|
E  :----------------|----------------|----------------|--------------------|
B  :----------------|----------------|5---------------|--------------------|
Gb :----------------|3---------------|3---------------|2-------------------|
Db :----------------|1---------------|----------------|0-------------------|

Db :----------------|----------------|----------------|--------------------|
Ab :----------------|----------------|----------------|--------------------|
E  :----------------|----------------|----------------|--------------------|
B  :----------------|----------------|5---------------|--------------------|
Gb :----------------|3---------------|3---------------|--------------------|
Db :----------------|1---------------|----------------|0---0-0-0-*-0-0-0-*-|

============================================================================

Db :--------------------|----------------|----------------|-------------|
Ab :--------------------|----------------|----------------|-------------|
E  :--------------------|----------------|----------------|-------------|
B  :--------------------|----------------|5---------------|-------------|
Gb :--------------------|3---------------|3---------------|7---9---10---|
Db :--------------------|1---------------|----------------|--0---0----0-|

Db :--------------------|----------------|----------------|-------------|
Ab :--------------------|----------------|----------------|-------------|
E  :--------------------|----------------|----------------|-------------|
B  :--------------------|----------------|5---------------|-------------|
Gb :--------------------|3---------------|3---------------|7---9---10---|
Db :0-0-0-*-0-0-0-*-0-*-|1---------------|----------------|--0---0----0-|

============================================================================

Db :-------------|------------|------------|------------|------------|
Ab :-------------|------------|------------|------------|------------|
E  :-------------|------------|------------|------------|------------|
B  :-------------|------------|------------|------------|------------|
Gb :7---9---10---|6---7---9---|6---7---9---|3---5---6---|3---5---6---|
Db :--0---0----0-|--0---0---0-|--0---0---0-|--0---0---0-|--0---0---0-|

Db :-------------|------------|------------|------------|------------|
Ab :-------------|------------|------------|------------|------------|
E  :-------------|------------|------------|------------|------------|
B  :-------------|------------|------------|------------|------------|
Gb :7---9---10---|6---7---9---|6---7---9---|3---5---6---|3---5---6---|
Db :--0---0----0-|--0---0---0-|--0---0---0-|--0---0---0-|--0---0---0-|

============================================================================

Db :------------|------------|-------------|-------------|------------|
Ab :------------|------------|-------------|-------------|------------|
E  :------------|------------|-------------|-------------|------------|
B  :------------|------------|-------------|-------------|------------|
Gb :2---3---5---|2---3---5---|7---9---10---|7---9---10---|6---7---9---|
Db :--0---0---0-|--0---0---0-|--0---0----0-|--0---0----0-|--0---0---0-|

Db :------------|------------|-------------|-------------|------------|
Ab :------------|------------|-------------|-------------|------------|
E  :------------|------------|-------------|-------------|------------|
B  :------------|------------|-------------|-------------|------------|
Gb :2---3---5---|2---3---5---|7---9---10---|7---9---10---|6---7---9---|
Db :--0---0---0-|--0---0---0-|--0---0----0-|--0---0----0-|--0---0---0-|

============================================================================

Db :------------|------------|------------|------------|------------|
Ab :------------|------------|------------|------------|------------|
E  :------------|------------|------------|------------|------------|
B  :------------|------------|------------|------------|------------|
Gb :6---7---9---|3---5---6---|3---5---6---|2---3---5---|2---3---5---|
Db :--0---0---0-|--0---0---0-|--0---0---0-|--0---0---0-|--0---0---0-|

Db :------------|------------|------------|------------|------------|
Ab :------------|------------|------------|------------|------------|
E  :------------|------------|------------|------------|------------|
B  :------------|------------|------------|------------|------------|
Gb :6---7---9---|3---5---6---|3---5---6---|2---3---5---|2---3---5---|
Db :--0---0---0-|--0---0---0-|--0---0---0-|--0---0---0-|--0---0---0-|

============================================================================

Db :------------|------------|-------------|--------------|--------------|
Ab :------------|------------|------5---*--|----------5---|*-------------|
E  :------------|------------|----8---8-*--|------------8-|*-----------8-|
B  :4---5---7---|------------|-------------|--------------|--------------|
Gb :2---3---5---|*-----------|2-2-*-----2--|-3--2-2-2-*---|2-2-2-3-2-2-*-|
Db :------------|------------|0-0-*-----0--|-1--0-0-0-*---|0-0-0-1-0-0-*-|

Db :------------|------------|-------------|--------------|--------------|
Ab :------------|------------|-------------|--------------|--------------|
E  :------------|------------|-------------|--------------|--------------|
B  :4---5---7---|------------|-------------|--------------|--------------|
Gb :2---3---5---|*-----------|2-2-------2--|-3--2-2-2-----|2-2-2-3-2-2---|
Db :------------|------------|0-0-*-----0--|-1--0-0-0-*---|0-0-0-1-0-0-*-|

============================================================================

Db :---------------|--------------|-------------|--------------|
Ab :5---*----------|--5---5-------|*-----5---*--|----------5---|
E  :--8-*----------|----8---------|*---8---8-*--|------------8-|
B  :---------------|--------------|-------------|--------------|
Gb :----2---3--2-2-|2-*-----------|2-2-*-----2--|-3--2-2-2-*---|
Db :----0---1--0-0-|0-*-----------|0-0-*-----0--|-1--0-0-0-*---|

Db :---------------|--------------|-------------|--------------|
Ab :---------------|--------------|-------------|--------------|
E  :---------------|--------------|-------------|--------------|
B  :---------------|--------------|-------------|--------------|
Gb :----2---3--2-2-|2-----2-2-2-3-|2-2-------2--|-3--2-2-2-----|
Db :----0---1--0-0-|0-*---0-0-0-1-|0-0-*-----0--|-1--0-0-0-*---|

============================================================================

Db :--------------|---------------|--------------|-------------|
Ab :*-------------|5---*----------|--5---*-------|*-----5---*--|
E  :*-----------8-|--8-*----------|----8-*-------|*---8---8-*--|
B  :--------------|---------------|--------------|-------------|
Gb :2-2-2-3-2-2-*-|----2---3--2-2-|2-*---2-2-2-3-|2-2-*-----2--|
Db :0-0-0-1-0-0-*-|----0---1--0-0-|0-*---0-0-0-1-|0-0-*-----0--|

Db :--------------|---------------|--------------|-------------|
Ab :--------------|---------------|--------------|-------------|
E  :--------------|---------------|--------------|-------------|
B  :--------------|---------------|--------------|-------------|
Gb :2-2-2-3-2-2---|----2---3--2-2-|2-----2-2-2-3-|2-2-------2--|
Db :0-0-0-1-0-0-*-|----0---1--0-0-|0-*---0-0-0-1-|0-0-*-----0--|

============================================================================

Db :--------------|--------------|---------------|--------------|
Ab :----------5---|*-------------|5---*----------|--5---*-------|
E  :------------8-|*-----------8-|--8-*----------|----8-*-------|
B  :--------------|--------------|---------------|--------------|
Gb :-3--2-2-2-*---|2-2-2-3-2-2-*-|----2---3--2-2-|2-*---2-2-2-3-|
Db :-1--0-0-0-*---|0-0-0-1-0-0-*-|----0---1--0-0-|0-*---0-0-0-1-|

Db :--------------|--------------|---------------|--------------|
Ab :--------------|--------------|---------------|--------------|
E  :--------------|--------------|---------------|--------------|
B  :--------------|--------------|---------------|--------------|
Gb :-3--2-2-2-----|2-2-2-3-2-2---|----2---3--2-2-|2-----2-2-2-3-|
Db :-1--0-0-0-*---|0-0-0-1-0-0-*-|----0---1--0-0-|0-*---0-0-0-1-|

============================================================================

Db :----------------|----------------|------------|-----------------------|
Ab :----------------|----------------|------------|-----------------------|
E  :----------------|----------------|------------|-----------------------|
B  :----------------|8-------7-------|4---5---7---|-----------------------|
Gb :6-------5-------|6-------5-------|2---3---5---|3-3-3-3-5-5-5-5-6-6-6-6|
Db :4-------3-------|----------------|------------|-----------------------|

Db :----------------|----------------|------------|-----------------------|
Ab :----------------|----------------|------------|-----------------------|
E  :----------------|----------------|------------|-----------------------|
B  :----------------|8-------7-------|4-----------|-----------------------|
Gb :6-------5-------|6-------5-------|2---*-------|3-3-3-3-5-5-5-5-6-6-6-6|
Db :4-------3-------|----------------|------------|-----------------------|

============================================================================

Db :-----------------------|-----------------------|-----------------------|
Ab :-----------------------|-----------------------|-----------------------|
E  :-----------------------|-----------------------|-----------------------|
B  :-----------------------|-----------------------|-----------------------|
Gb :3-3-3-3-5-5-5-5-6-6-6-6|2-2-2-2-3-3-3-3-5-5-5-5|2-2-2-2-3-3-3-3-5-5-5-5|
Db :-----------------------|-----------------------|-----------------------|

Db :-----------------------|-----------------------|-----------------------|
Ab :-----------------------|-----------------------|-----------------------|
E  :-----------------------|-----------------------|-----------------------|
B  :-----------------------|-----------------------|-----------------------|
Gb :3-3-3-3-5-5-5-5-6-6-6-6|2-2-2-2-3-3-3-3-5-5-5-5|2-2-2-2-3-3-3-3-5-5-5-5|
Db :-----------------------|-----------------------|-----------------------|

============================================================================

Db :-----------------------|-----------------------|-----------------------|
Ab :-----------------------|-----------------------|-----------------------|
E  :-----------------------|-----------------------|-----------------------|
B  :-----------------------|-----------------------|-----------------------|
Gb :3-3-3-3-5-5-5-5-6-6-6-6|3-3-3-3-5-5-5-5-6-6-6-6|2-2-2-2-3-3-3-3-5-5-5-5|
Db :-----------------------|-----------------------|-----------------------|

Db :-----------------------|-----------------------|-----------------------|
Ab :-----------------------|-----------------------|-----------------------|
E  :-----------------------|-----------------------|-----------------------|
B  :1-1-1-1-3-3-3-3-5-5-5-5|1-1-1-1-3-3-3-3-5-5-5-5|0-0-0-0-1-1-1-1-3-3-3-3|
Gb :-----------------------|-----------------------|-----------------------|
Db :-----------------------|-----------------------|-----------------------|

============================================================================

Db :-----------------------|------------|------------|------------|
Ab :-----------------------|------------|------------|------------|
E  :-----------------------|------------|------------|------------|
B  :-----------------------|------------|------------|------------|
Gb :2-2-2-2-3-3-3-3-5-5-5-5|3---2---7---|2---3---3---|3---2---7---|
Db :-----------------------|1---0---5---|0---1---4---|1---0---5---|

Db :-----------------------|------------|------------|------------|
Ab :-----------------------|------------|------------|------------|
E  :-----------------------|------------|------------|------------|
B  :0-0-0-0-1-1-1-1-3-3-3-3|------------|------------|------------|
Gb :-----------------------|3---2---7---|2---3---3---|3---2---7---|
Db :-----------------------|1---0---5---|0---1---4---|1---0---5---|

============================================================================

Db :------------|------------|------------|------------|------------|
Ab :------------|------------|------------|------------|------------|
E  :------------|------------|------------|------------|------------|
B  :------------|5---7---8---|------------|------------|5---7---8---|
Gb :2---3---3---|3---5---6---|3---2---7---|2---3---3---|3---5---6---|
Db :0---1---4---|------------|1---0---5---|0---1---4---|------------|

Db :------------|------------|------------|------------|------------|
Ab :------------|------------|------------|------------|------------|
E  :------------|------------|------------|------------|------------|
B  :------------|5---7---8---|------------|------------|5---7---8---|
Gb :2---3---3---|3---5---6---|3---2---7---|2---3---3---|3---5---6---|
Db :0---1---4---|------------|1---0---5---|0---1---4---|------------|

============================================================================

Db :------------|------------|------------|------------|------------|
Ab :------------|------------|------------|------------|------------|
E  :------------|------------|------------|------------|------------|
B  :5-----------|4---5---7---|5---7---8---|5---7---8---|4---5---7---|
Gb :3--*--------|2---3---5---|3---5---6---|3---5---6---|2---3---5---|
Db :------------|------------|------------|------------|------------|

Db :------------|------------|------------|------------|------------|
Ab :------------|------------|------------|------------|------------|
E  :------------|------------|------------|------------|------------|
B  :5---7---8---|4-----------|5---7---8---|5---7---8---|4---5---7---|
Gb :3---5---6---|2---*-------|3---5---6---|3---5---6---|2---3---5---|
Db :------------|------------|------------|------------|------------|

============================================================================

Db :------------|------------|------------|------------|------------|
Ab :------------|------------|------------|------------|------------|
E  :------------|------------|------------|------------|------------|
B  :4---5---7---|5---7---8---|5---7---8---|4---5---7---|4---5---7---|
Gb :2---3---5---|3---5---6---|3---5---6---|2---3---5---|2---3---5---|
Db :------------|------------|------------|------------|------------|

Db :------------|------------|------------|------------|------------|
Ab :------------|------------|------------|------------|------------|
E  :------------|------------|------------|------------|------------|
B  :4---5---7---|5---7---8---|5---7---8---|4---5---7---|4---5---7---|
Gb :2---3---5---|3---5---6---|3---5---6---|2---3---5---|2---3---5---|
Db :------------|------------|------------|------------|------------|

============================================================================

Db :------------|------------|------------|------------|------------|
Ab :------------|------------|------------|------------|------------|
E  :------------|------------|------------|------------|------------|
B  :------------|------------|------------|------------|5---7---8---|
Gb :3---2-------|2---3-------|3---2-------|2---3-------|3---5---6---|
Db :1---0---5-5-|0---1---4-4-|1---0---5-5-|0---1---4-4-|------------|

Db :------------|------------|------------|------------|------------|
Ab :------------|------------|------------|------------|------------|
E  :------------|------------|------------|------------|------------|
B  :------------|------------|------------|------------|5---7---8---|
Gb :3---2---3-3-|2---3---2-2-|3---2---3-3-|2---3---2-2-|3---5---6---|
Db :1---0-------|0---1-------|1---0-------|0---1-------|------------|

============================================================================

Db :------------|------------|------------|------------|------------|
Ab :------------|------------|------------|------------|------------|
E  :------------|------------|------------|------------|------------|
B  :------------|------------|------------|------------|5---7---8---|
Gb :3---2-------|2---3-------|3---2-------|2---3-------|3---5---6---|
Db :1---0---5-5-|0---1---4-4-|1---0---5-5-|0---1---4-4-|------------|

Db :------------|------------|------------|------------|------------|
Ab :------------|------------|------------|------------|------------|
E  :------------|------------|------------|------------|------------|
B  :------------|------------|------------|------------|5---7---8---|
Gb :3---2---3-3-|2---3---2-2-|3---2---3-3-|2---3---2-2-|3---5---6---|
Db :1---0-------|0---1-------|1---0-------|0---1-------|------------|

============================================================================

Db :------------|------------|------------|------------|------------|
Ab :------------|------------|------------|------------|------------|
E  :------------|------------|------------|------------|------------|
B  :------------|------------|5---7---8---|------------|------------|
Gb :3---2-------|2---3-------|3---5---6---|*---2---2---|----2---2---|
Db :1---0---5-5-|0---1---4-4-|------------|----0---0---|*---0---0---|

Db :------------|------------|------------|------------|------------|
Ab :------------|------------|------------|------------|------------|
E  :------------|------------|------------|------------|------------|
B  :------------|------------|5---7---8---|------------|------------|
Gb :3---2---3-3-|2---3---2-2-|3---5---6---|*---2---2---|----2---2---|
Db :1---0-------|0---1-------|------------|----0---0---|*---0---0---|

============================================================================

Db :------------|------------|----------------|----------------|
Ab :------------|------------|----------------|----------------|
E  :------------|------------|----------------|----------------|
B  :------------|------------|----------------|----------------|
Gb :----2---2---|------3-3---|2---------------|----------------|
Db :*---0---0---|*-----1-1---|0---------------|----------------|

Db :------------|------------|----------------|----------------|
Ab :------------|------------|----------------|----------------|
E  :------------|------------|----------------|----------------|
B  :------------|------------|----------------|----------------|
Gb :----2---2---|------------|2---------------|----------------|
Db :*---0---0---|*-----1-1---|0---------------|----------------|

============================================================================

Db :----------------|----------------|----------------|----------------|
Ab :----------------|----------------|----------------|----------------|
E  :----------------|----------------|----------------|----------------|
B  :----------------|5---------------|----------------|----------------|
Gb :3---------------|3---------------|2---------------|----------------|
Db :1---------------|----------------|0---------0-0-*-|------0-0-*-----|

Db :----------------|----------------|----------------|----------------|
Ab :----------------|----------------|----------------|----------------|
E  :----------------|----------------|----------------|----------------|
B  :----------------|5---------------|----------------|----------------|
Gb :3---------------|3---------------|----------------|----------------|
Db :1---------------|----------------|0---0-0-*-------|0-0-*-------0-0-|

============================================================================

Db :----------------|----------------|----------------|----------------|
Ab :----------------|----------------|----------------|----------------|
E  :----------------|----------------|----------------|----------------|
B  :----------------|5---------------|----------------|----------------|
Gb :3---------------|3---------------|2---------------|----------------|
Db :1---------------|----------------|0---------------|----------------|

Db :----------------|----------------|----------------|----------------|
Ab :----------------|----------------|----------------|----------------|
E  :----------------|----------------|----------------|----------------|
B  :----------------|5---------------|----------------|----------------|
Gb :3---------------|3---------------|2---------------|----------------|
Db :1---------------|----------------|0---------------|----------------|

============================================================================

Db :----------------|----------------|----------------|----------------|
Ab :----------------|----------------|----------------|----------------|
E  :----------------|----------------|----------------|----------------|
B  :----------------|5---------------|----------------|----------------|
Gb :3---------------|3---------------|2---------------|----------------|
Db :1---------------|----------------|0---------------|----------------|

Db :----------------|----------------|----------------|----------------|
Ab :----------------|----------------|----------------|----------------|
E  :----------------|----------------|----------------|----------------|
B  :----------------|5---------------|----------------|----------------|
Gb :3---------------|3---------------|2---------------|----------------|
Db :1---------------|----------------|0---------------|----------------|

============================================================================

Db :----------------|----------------|----------------|----------------|
Ab :----------------|----------------|----------------|----------------|
E  :----------------|----------------|----------------|----------------|
B  :----------------|5---------------|----------------|----------------|
Gb :3---------------|3---------------|6---------------|----------------|
Db :1---------------|----------------|4---------------|----------------|

Db :----------------|----------------|----------------|----------------|
Ab :----------------|----------------|----------------|----------------|
E  :----------------|----------------|----------------|----------------|
B  :----------------|5---------------|----------------|----------------|
Gb :3---------------|3---------------|6---------------|----------------|
Db :1---------------|----------------|4---------------|----------------|

============================================================================

Db :----------------|--------|----------------|----------------|
Ab :----------------|--------|----------------|----------------|
E  :----------------|--------|----------------|----------------|
B  :7---------------|--------|----------------|----------------|
Gb :5---------------|3-------|6---------------|----------------|
Db :----------------|1-------|4---------------|----------------|

Db :----------------|--------|----------------|----------------|
Ab :----------------|--------|----------------|----------------|
E  :----------------|--------|----------------|----------------|
B  :7---------------|--------|----------------|----------------|
Gb :5---------------|3-------|6---------------|----------------|
Db :----------------|1-------|4---------------|----------------|

============================================================================

Db :----------------|----------------|----------------|----------------|
Ab :----------------|----------------|----------------|----------------|
E  :----------------|----------------|----------------|----------------|
B  :7---------------|----------------|----------------|----------------|
Gb :5---------------|3---------------|2---------------|----------------|
Db :----------------|1---------------|0---------------|----------------|

Db :----------------|----------------|----------------|----------------|
Ab :----------------|----------------|----------------|----------------|
E  :----------------|----------------|----------------|----------------|
B  :7---------------|----------------|----------------|----------------|
Gb :5---------------|3---------------|2---------------|----------------|
Db :----------------|1---------------|0---------------|----------------|

============================================================================

Db :----------------|----------------|----------------|----------------|
Ab :----------------|----------------|----------------|----------------|
E  :----------------|----------------|----------------|----------------|
B  :----------------|5---------------|----------------|----------------|
Gb :3---------------|3---------------|2---------------|----------------|
Db :1---------------|----------------|0---------------|----------------|

Db :----------------|----------------|----------------|----------------|
Ab :----------------|----------------|----------------|----------------|
E  :----------------|----------------|----------------|----------------|
B  :----------------|5---------------|----------------|----------------|
Gb :3---------------|3---------------|2---------------|----------------|
Db :1---------------|----------------|0---------------|----------------|

============================================================================

Db :----------------|----------------|----------------|----------------|
Ab :----------------|----------------|----------------|----------------|
E  :----------------|----------------|----------------|----------------|
B  :----------------|5---------------|----------------|----------------|
Gb :3---------------|3---------------|2---------------|----------------|
Db :1---------------|----------------|0---------------|----------------|

Db :----------------|----------------|----------------|----------------|
Ab :----------------|----------------|----------------|----------------|
E  :----------------|----------------|----------------|----------------|
B  :----------------|5---------------|----------------|----------------|
Gb :3---------------|3---------------|2---------------|----------------|
Db :1---------------|----------------|0-------0---0---|0---*---0---0---|

============================================================================

Db :----------------|----------------------|----------------|
Ab :----------------|----------------------|----------------|
E  :----------------|----------------------|----------------|
B  :----------------|----------------------|----------------|
Gb :----------------|----------------------|2-------2---2---|
Db :----------------|------3-3-3---1---3---|0---*---0---0---|

Db :----------------|----------------------|----------------|
Ab :----------------|----------------------|----------------|
E  :----------------|----------------------|----------------|
B  :----------------|----------------------|----------------|
Gb :----------------|----------------------|2---------------|
Db :0---*---0---0---|0---*-3-3-3---1---3---|0---*---0---0---|

============================================================================

Db :----------------|----------------|----------------------|
Ab :----------------|----------------|----------------------|
E  :----------------|----------------|----------------------|
B  :----------------|----------------|----------------------|
Gb :2-------2---2---|2-------2---2---|2---------------------|
Db :0---*---0---0---|0---*---0---0---|0---*-3-3-3---1---3---|

Db :----------------|----------------|----------------------|
Ab :----------------|----------------|----------------------|
E  :----------------|----------------|----------------------|
B  :----------------|----------------|----------------------|
Gb :----------------|----------------|----------------------|
Db :0---*---0---0---|0---*---0---0---|0---*-3-3-3---1---3---|

============================================================================

Db :--------------------|----------------|----------------|
Ab :--------------------|----------------|----------------|
E  :--------------------|----------------|----------------|
B  :--------------------|----------------|----------------|
Gb :--------------2-----|2--2--2-----2--2|--2-----2--2--2-|
Db :*--3-3-2---1--0-*---|0--0--0-*---0--0|--0-*---0--0--0-|

Db :--------------------|----------------|----------------|
Ab :--------------------|----------------|----------------|
E  :--------------------|----------------|----------------|
B  :--------------------|----------------|----------------|
Gb :--------------2-----|2--2--2-----2--2|--2-----2--2--2-|
Db :*--3-3-2---1--0-*---|0--0--0-*---0--0|--0-*---0--0--0-|

============================================================================

Db :------------------|----------------|----------------|
Ab :------------------|----------------|----------------|
E  :------------------|----------------|----------------|
B  :------------------|----------------|----------------|
Gb :--5-5-5-3-5-2-----|2--2--2-----2--2|--2-----2--2--2-|
Db :*-3-3-3-1-3-0-*---|0--0--0-*---0--0|--0-*---0--0--0-|

Db :------------------|----------------|----------------|
Ab :------------------|----------------|----------------|
E  :------------------|----------------|----------------|
B  :------------------|----------------|----------------|
Gb :--5-5-5-3-5-2-----|2--2--2-----2--2|--2-----2--2--2-|
Db :*-3-3-3-1-3-0-*---|0--0--0-*---0--0|--0-*---0--0--0-|

============================================================================

Db :--------------------|----------------|----------------|
Ab :--------------------|----------------|----------------|
E  :--------------------|----------------|----------------|
B  :--------------------|----------------|----------------|
Gb :--5-5-5-3-5---5-5-4-|3-2-----2--2--2-|----2--2--2-----|
Db :*-3-3-3-1-3-*-3-3-2-|1-0-*---0--0--0-|*---0--0--0-*---|

Db :--------------------|----------------|----------------|
Ab :--------------------|----------------|----------------|
E  :--------------------|----------------|----------------|
B  :--------------------|----------------|----------------|
Gb :--5-5-5-3-5---5-5-4-|3-2-----2--2--2-|----2--2--2-----|
Db :*-3-3-3-1-3-*-3-3-2-|1-0-*---0--0--0-|*---0--0--0-*---|

============================================================================

Db :------------------|----------------|----------------|------------------|
Ab :------------------|----------------|----------------|------------------|
E  :------------------|----------------|----------------|------------------|
B  :------------------|----------------|----------------|------------------|
Gb :2--2--2---5-5-5-3-|5-2-----2--2--2-|----2--2--2-----|2--2--2---5-5-5-3-|
Db :0--0--0-*-3-3-3-1-|3-0-*---0--0--0-|*---0--0--0-*---|0--0--0-*-3-3-3-1-|

Db :------------------|----------------|----------------|------------------|
Ab :------------------|----------------|----------------|------------------|
E  :------------------|----------------|----------------|------------------|
B  :------------------|----------------|----------------|------------------|
Gb :2--2--2---5-5-5-3-|5-2-----2--2--2-|----2--2--2-----|2--2--2---5-5-5-3-|
Db :0--0--0-*-3-3-3-1-|3-0-*---0--0--0-|*---0--0--0-*---|0--0--0-*-3-3-3-1-|

============================================================================

Db :------------------|----------------|----------------|
Ab :------------------|----------------|----------------|
E  :------------------|----------------|----------------|
B  :------------------|----------------|----------------|
Gb :5---5-5-4-3-2-----|2--2--2-----2--2|--2-------------|
Db :3-*-3-3-2-1-0-*---|0--0--0-*---0--0|--0-------------|

Db :------------------|----------------|----------------|
Ab :------------------|----------------|----------------|
E  :------------------|----------------|----------------|
B  :------------------|----------------|----------------|
Gb :5---5-5-4-3-2-----|2--2--2-----2--2|--2-------------|
Db :3-*-3-3-2-1-0-*---|0--0--0-*---0--0|--0-------------|

===========================================================================
comments
print report bad tab
6 comments total. Showing first comments.
0 reply
Candillinger wrote on April 3 2007, 04:10 pm

hell yeah dude you are the MAN! you should tab backwards marathon :D hahahaha

0 reply
RiouX wrote on April 19 2007, 08:20 pm

why type '' 8888'' when its tremolo dude u just had to mark ''tremolo picik this or w/e but really Goodd job

0 reply
carrotcake wrote on May 17 2007, 07:59 pm

this is perfect, could you try tabbin roboturner?

I want to post or [tab]
guest
You may want to rate the tab now too:
select rating
Please do not post tabs as comments. Select "correction" instead!