Oops, an error
Loading. Please wait.

Camilla Rhodes Tab

ver1
ver1

Whole song

Interactive

More versions @911Tabs.com
3,359 views 3 this week
2 commentsread comments
1 2 3 4 5
excellent!
x 7
Autoscroll
+/-
esc
set tempo
stop
Contributor
WARNING: You are trying to view
                                    content from Ultimate-Guitar.com
                                    in an unauthorized application,
                                    which is prohibited.

                                    Please use an official Ultimate
                                    Guitar Tabs application for iPhone,
                                    iPad or Android to access legitimate
                                    chords, guitar, bass, and drum tabs
                                    from Ultimate-Guitar.com database.

                                    Type "ultimate guitar tabs" in Apple
                                    App Store's or Android Market's
                                    search to find the application.
http://betweentheburiedandme.com/newsite/


     Band: Between The Buried And Me
     Song: Camilla Roads
    Album: The Silent Circus
   Length: 4:49

   Tuning: (C#,F#,B,E,G#,C#)

 Key: pm = palm mute
      %  = rest
      h  = hammer on
      p  = pull off
      /  = slide up
      \  = slide down
      "  = tremlo pick
      ph = pinch harmonic
      <> = natural harmonic
      b  = bend half step


 C#|---------------------------------------------------------------------------------------|
 G#|---------------------------------------------------------------------------------------|
  E|------------------%-----------%-------------%-------%-----------%-------------------%--|
  B|-6-----------6-6-----------------------------------------------------------------------|
 F#|-4---------6-4-4-----6-5-3-3-----3-3-3-3-3-----3-3-----3-3-3-3-----6-6-5-5-4-4-3-3-----|
 C#|-4-0-0-0-0-3-4-4-----4-3-2-1-----1-1-1-1-1-----1-1-----1-1-1-1-----4-4-3-3-2-2-1-1-----|
 pm    . . . .   . .     . . . .     . . . . .     . .     . . . .     . . . . . . . .


 C#|---------------------------------------|
 G#|---------------------------------------|
  E|---------------------------------------|
  B|---------------------------------------|
 F#|-8h11-7-7h10-6-6h7-5-5-------6-------6-|
 C#|-----------------------5-8-5-5-5-8-5-5-|
 pm                        . . .   . . .


 C#|----------------------------------------------------------------------------------------------------|
 G#|----------------------------------------------------------------------(tremlo-pick-all)-------------|
  E|-------------------------------------9-10-12----------10-11-13-16b-"16/(the-way-and-past-fretboard)-|
  B|----------------------8-9-11-9-10-12---------10-11-13-----------------------------------------------|
 F#|--------7-8-10-8-9-11-------------------------------------------------------------------------------|
 C#|-7-8-10---------------------------------------------------------------------------------------------|
 pm  . .  . . .  . . .  . . .  . .  .  . .  .  .  .  .  .  .  .  .


 C#|-----------------------------------|
 G#|-----------------------------------|
  E|-----------------------------------|
  B|-------9\6--------9\6--------------|
 F#|-------7\4--------7\4--"5----"4----|
 C#|-0-0-0-7\4--0-0-0-7\4--"7----"6----|
 pm  . . .      . . .


 C#|---------------------------------------------|---------------------------------------------------|
 G#|---------------------------------------------|---------------------------------------------------|
  E|-----7-8---9---------------7-8---9-----------|-----7-8---9---------------7-8---9-----------------|
  B|---6---------8-0-(8ph)---6---------8-0-(8ph)-|---6---------8-0-(8ph)---6---------8-0-(8ph)-(8ph)-|
 F#|-5-------6-------------5-------6-------------|-5-------6-------------5-------6-------------------|
 C#|---------------------------------------------|---------------------------------------------------|
 pm  . .     . . . .       . .     . . . .         . .     . . . .       . .     . . . .


 C#|-----------------------------------------------|
 G#|-----------------------------------------------|
  E|-11-8------------------------------------------|
  B|------10-7-------------------------------------|
 F#|-----------9-6-----6---------5---------6-5-3-2-|
 C#|---------------8-5-8-0-0-0-0-7-0-0-0-0-8-7-5-4-|
 pm                      . . . .   . . . .   . .


 C#|--------------------------------------------------------------------11---11-----------------|
 G#|-----------------------------------------------------------------10----9--------------------|
  E|-----------------------------5--------------------------------------------------------------|
  B|-------------------------3-6---4---------------------3-6-3--------------------------------7-|
 F#|-------8---8-7---------5---------6-----5-4-----4---4-------4----------------------9---0-6---|
 C#|-4-4-4---4-----4-0-3-6-------------4-7-----3-6---6-----------7-4------------6-5-0---6-------|
 pm  . . .   .     . . . . .           . .       .   .           . .            . . .   .


    (Guitar 1)
                                       3x
 C#|-------------------------------------|      C#|---------------------|
 G#|-------------------------------------|      G#|---------------------|
  E|---------------------------------5-8-|       E|------------------%--|
  B|------------------7-10-7-7-4-4-7-----|       B|---------------------|
 F#|-8-8-8-8-7-7-7-7---------------------|      F#|-8-8-8-8-7-7-7-7-----|
 C#|-6-6-6-6-5-5-5-5---------------------|      C#|-6-6-6-6-5-5-5-5-----|
 pm  . . . . . . . .                                . . . . . . . .


     (Guitar 2)
				      3x
 C#|------------------------------------|      C#|---------------------|
 G#|------------------------------------|      G#|---------------------|
  E|------------------%-------%-------%-|       E|------------------%--|
  B|------------------------------------|       B|---------------------|
 F#|-8-8-8-8-7-7-7-7-----7-7-----7-7----|      F#|-8-8-8-8-7-7-7-7-----|
 C#|-6-6-6-6-5-5-5-5-----5-5-----5-5----|      C#|-6-6-6-6-5-5-5-5-----|
 pm  . . . . . . . .     . .     . .               . . . . . . . .


     (Guitar 1)
                                        4x          natural harmonics
 C#|--------------------------------------|      C#|-----------------|
 G#|--------------------------------------|      G#|-----------------|
  E|------------------%---------%-------%-|       E|--------------%--|
  B|--------------------------------------|       B|-<5>-<5>-<5>-----|
 F#|-8-8-8-8-7-7-7-7-----7-7-7-----7-7----|      F#|-----------------|
 C#|-6-6-6-6-5-5-5-5-----5-5-5-----5-5----|      C#|-----------------|
 pm  . . . . . . . .     . . .     . .


     (Guitar 2)
                                        4x
 C#|--------------------------------------|      C#|-----------|
 G#|--------------------------------------|      G#|-----------|
  E|------------------%---------%-------%-|       E|-7-7-7--%--|
  B|--------------------------------------|       B|-----------|
 F#|-8-8-8-8-7-7-7-7-----7-7-7-----7-7----|      F#|-----------|
 C#|-6-6-6-6-5-5-5-5-----5-5-5-----5-5----|      C#|-----------|
 pm  . . . . . . . .     . . .     . .


     (Guitars 1 & 2)
                                        4x
 C#|--------------------------------------|
 G#|--------------------------------------|
  E|------------------%---------%-------%-|
  B|--------------------------------------|
 F#|-8-8-8-8-7-7-7-7-----7-7-7-----7-7----|
 C#|-6-6-6-6-5-5-5-5-----5-5-5-----5-5----|
 pm  . . . . . . . .     . . .     . .


     (Guitar 1)

 C#|-------------------------------------------------------------------------------|
 G#|-------------------------------------------------------------------------------|
  E|--%--7-----------------%-------------------------------------------------------|
  B|-----6----------------------------------------2--------(2)---------------------|
 F#|-----5--1-----3-----2-----1-----3-----4-------2--------(2)-----6----3----6\----|
 C#|-----4----2-1---2-1-0-------2-1---2-1---2-1-2-0--------(0)-----3----2----5\----|
 pm         . . .   . . .     . . .   . .   . . .


     (Guitar 2)

 C#|-------------------------------------------------------------------------------|
 G#|-------------------------------------------------------------------------------|
  E|----%----------------%--7------------------------------------------------------|
  B|------------------------6----------------------2--------(2)--------------------|
 F#|-2------1-----3---------5--1-----3-----4-------2--------(2)----6----3----6\----|
 C#|-0--------2-1---2-1-----4----2-1---2-1---2-1-2-0--------(0)----3----2----5\----|
 pm  .      . . .   . .        . . .   . .   . . .


     (Guitars 1 & 2) - slight pm on the slides
											                natural harm
 C#|-------------------------------------------------------|--------------------------------------------------------|
 G#|-------------------------------------------------------|--------------------------------------------------------|
  E|-------------------------------------------------------|--------------------------------------------------------|
  B|-1/12--1/12--1/12--1/12--1/12--1/12--1/12--------------|-1/12--1/12--1/12--1/12--1/12--1/12---------------------|
 F#|-1/12--1/12--1/12--1/12--1/12--1/12--1/12----6---(4ph)-|-1/12--1/12--1/12--1/12--1/12--1/12--6---3--------------|
 C#|-1/12--1/12--1/12--1/12--1/12--1/12--1/12--3---0-------|-1/12--1/12--1/12--1/12--1/12--1/12--3---2--<2>-<2>-<2>-|
 pm                                            .   .


 C#|------------------------------------------------|
 G#|------------------------------------------------|
  E|------------------------------------------------|
  B|-3/7--3/7--3/7--3/7--3/7--3/7--3/7--------------|
 F#|-2/6--2/6--2/6--2/6--2/6--2/6--2/6----6---(4ph)-|
 C#|-1/5--1/5--1/5--1/5--1/5--1/5--1/5--3---0-------|
 pm                                     . . .


 C#|-------------------------------------------------------------------------------------------|
 G#|-------------------------------------------------------------------------------------------|
  E|-------------------------------------------------------------------------------------------|
  B|-1/12--1/12--1/12--1/12--1/12--1/12---------2--------------(2)---------2--------------(2)--|
 F#|-1/12--1/12--1/12--1/12--1/12--1/12--6---3--2--------------(2)--6---3--2--------------(2)--|
 C#|-1/12--1/12--1/12--1/12--1/12--1/12--3---2--0--------------(0)--3---2--0--------------(0)--|


     (Guitar 1)

 C#|--------------------------------------------------|
 G#|--------------------------------------------------|
  E|--------------------------------------------------|
  B|--------------------------------13-9-----14-10----|
 F#|-7-6-7--10-9-10--7-9-10--6-7-9-------10--------12-|
 C#|--------------------------------------------------|


     (Guitar 2)

 C#|--------------------------------|
 G#|--------------------------------|
  E|---------%--------------%-------|
  B|--------------------------------|
 F#|-2--------------2---------------|
 C#|-0--------------0---------------|
 pm  .              .


     (Guitars 1 & 2)
														          2x
 C#|--------------------------------------------------------|---------------------------------------------------------------|
 G#|--------------------------------------------------------|---------------------------------------------------------------|
  E|--------------------------------------------------------|---------------------------------------------------------------|
  B|-------------------------------------------------7/13\7-|---------------------------------------------13-9-----14-10----|
 F#|-6-----10---------------------------6-----10---6--------|-6-----10-----7-6-7--10-9-10--7-9-10--6-7-9-------10--------12-|
 C#|---7-0----7-0-0-0-0-0-0-0-0-0-0-0-0---7-0----7----------|---7-0----7-0--------------------------------------------------|
 pm    . .    . . . . . . . . . . . . .   . .    .              . .    . .


 C#|----------------------------------------------------------------------|
 G#|----------------------------------------------------------------------|
  E|----------------------------------------------------------------------|
  B|-13-9----14-10----13-9----14-10----13-9----14-10----16-12----14-10----|
 F#|------10-------12------10-------12------10-------12-------13-------12-|
 C#|----------------------------------------------------------------------|

 C#|-----------------------------------------------------------|
 G#|-----------------------------------------------------------|
  E|-----------------------------------------------------------|
  B|-13-9----14-10----13-9----14-10-------9-13-10--------------|
 F#|------10-------12------10-------12-10---------12-9-7---4---|
 C#|---------------------------------------------------8---5---|


									       4x
 C#|-----------------------------------------------------------------------------|
 G#|-----------------------------------------------------------------------------|
  E|-----------------------------------------------------------------------------|
  B|-----------------------------------------4-4-4-4-4-4-7-7-4-4-3-3-(4ph)-7-6---|
 F#|-7---------5/7\5-4/5----3-4-3-4-4--4-3-3-----------------------------------5-|
 C#|---3-0-3-7-----------6\-1-2-1-2-2--2-1-1-------------------------------------|
 pm  . . . . .              . . . .    . .   . . . . . . . . . . . .


 C#|--------------------------------------------------------|
 G#|--------------------------------------------------------|
  E|-----------------------------------------------------%--|      "We Lied, As You Lay Drained"
  B|--------6----------------7-6------------6---------------|
 F#|-2------4--6/7\6--3----------8--2-------4--6/7\6--3-----|
 C#|-0------4--4/5\4--1-------------0-------4--4/5\4--1-----|


 C#|--------------------------------------|---------------------------------------------|
 G#|--------------------------------------|---------------------------------------------|
  E|--------------------------------------|------------------------------------%-----%--|
  B|-7-6-----------------6----------------|-7-6-------------------6---------------------|
 F#|-----8-------2-------4--6/7\6--3------|-----8--------2--------4--6/7\6--3-----3-----|
 C#|-------------0-------4--4/5\4--1------|--------------0--------4--4/5\4--1-----1-----|


 C#|-----------------------------------------|----------------------------------------------------|
 G#|-----------------------------------------|----------------------------------------------------|
  E|-----------------------------------------|----------------------------------------------------|
  B|-----------------------------------------|----------------------------------------------------|
 F#|-1-----3-----4-------4-----6-----7-------|-7-----9-----10-------10-------12-------13----------|
 C#|---2-1---2-1---2-1-2---5-4---5-4---5-4-5-|---8-7---8-7----8-7-8----11-10----11-10----11-10-11-|
 pm  . . . . . . . . . . . . .   . .   . . .     . .   . .    . . .     .  .     .  .     .  .  .


     (Guitar 1)

 C#|-------------------------------------------------------------|----------------------------------------------------------|
 G#|-------------------------------------------------------------|----------------------------------------------------------|
  E|-11-8--------------------------------------------------------|----------------------------------------------------------|
  B|------10-7---------------------------------------------------|-3/7---------3/7---------3/7---------3/7----7---7---6---6-|
 F#|-----------9-6------6---------5---------6-5-3-2--------8---8-|-1/5---------1/5---------1/5---------1/5------------------|
 C#|---------------8-5--8-0-0-0-0-7-0-0-0-0-8-7-5-4--4-4-4---4---|-1/5-0-0-0-0-1/5-0-0-0-0-1/5-0-0-0-0-1/5--8---8---7---7---|
 pm                       . . . .   . . . .   . .                      . . . .     . . . .    . . . .      .   .   .   .


     (Guitar 2)

 C#|-------------------------------------------------------------|----------------------------------------------------------|
 G#|-------------------------------------------------------------|----------------------------------------------------------|
  E|-11-8--------------------------------------------------------|----------------------------------------------------------|
  B|------10-7---------------------------------------------------|-3/7---------3/7---------3/7---------3/7----4---4---3---3-|
 F#|-----------9-6------6---------5---------6-5-3-2--------8---8-|-1/5---------1/5---------1/5---------1/5------------------|
 C#|---------------8-5--8-0-0-0-0-7-0-0-0-0-8-7-5-4--4-4-4---4---|-1/5-0-0-0-0-1/5-0-0-0-0-1/5-0-0-0-0-1/5--5---5---4---4---|
 pm                       . . . .   . . . .   . .    . . .   .         . . . .     . . . .    . . . .      .   .   .   .


     (Guitars 1 & 2)

 C#|---------------------------------------------------------------------------|
 G#|---------------------------------------------------------------------------|
  E|-11-8----------------------------------------------------------------------|
  B|------10-7--------------------------------------------3/4\3/4\3--3/4\3/4\3-|
 F#|-----------9-6------6---------5----------6-5-3-2--2-2-2/3\2/3\2--2/3\2/3\2-|
 C#|---------------8-5--8-0-0-0-0-7-0-0-0-0--8-7-5-4--0-0-1/2\1/2\1--1/2\1/2\1-|
 pm                       . . . .   . . . .    . .    . .


     (Guitar 1)

 C#|-------------------------------------------------------------|----------------------------------------------------------|
 G#|-------------------------------------------------------------|----------------------------------------------------------|
  E|-11-8--------------------------------------------------------|----------------------------------------------------------|
  B|------10-7---------------------------------------------------|-3/7---------3/7---------3/7---------3/7----7---7---6---6-|
 F#|-----------9-6------6---------5---------6-5-3-2--------8---8-|-1/5---------1/5---------1/5---------1/5------------------|
 C#|---------------8-5--8-0-0-0-0-7-0-0-0-0-8-7-5-4--4-4-4---4---|-1/5-0-0-0-0-1/5-0-0-0-0-1/5-0-0-0-0-1/5--8---8---7---7---|
 pm                       . . . .   . . . .   . .    . . .   .         . . . .     . . . .    . . . .      .   .   .   .


     (Guitar 2)

 C#|-------------------------------------------------------------|----------------------------------------------------------|
 G#|-------------------------------------------------------------|----------------------------------------------------------|
  E|-11-8--------------------------------------------------------|----------------------------------------------------------|
  B|------10-7---------------------------------------------------|-3/7---------3/7---------3/7---------3/7----4---4---3---3-|
 F#|-----------9-6------6---------5---------6-5-3-2--------8---8-|-1/5---------1/5---------1/5---------1/5------------------|
 C#|---------------8-5--8-0-0-0-0-7-0-0-0-0-8-7-5-4--4-4-4---4---|-1/5-0-0-0-0-1/5-0-0-0-0-1/5-0-0-0-0-1/5--5---5---4---4---|
 pm                       . . . .   . . . .   . .    . . .   .         . . . .     . . . .    . . . .      .   .   .   .


     (Guitars 1 & 2)                                               (Guitar 1)

 C#|-----------------------------------------------------|      C#|------------|
 G#|-----------------------------------------------------|      G#|------------|
  E|-11-8------------------------------------------------|       E|------------|
  B|------10-7-------------------------------------------|       B|-3/4\3/4\3--|
 F#|-----------9-6------6---------5---------6-5-3-2--2-2-|      F#|-2/3\2/3\2--|
 C#|---------------8-5--8-0-0-0-0-7-0-0-0-0-8-7-5-4--0-0-|      C#|-1/2\1/2\1--|
 pm                       . . . .   . . . .   . .    . .


     (Guitars 1 & 2)

 C#|----------------------------------------------------------------|
 G#|----------------------------------------------------------------|
  E|----------------------------------------------------------------|
  B|-3/4\3/4\3----3/4\3/4\3----3/4\3/4\3----3/4\3/4\3----3/4\3/4\3--|
 F#|-2/3\2/3\2----2/3\2/3\2----2/3\2/3\2----2/3\2/3\2----2/3\2/3\2--|
 C#|-1/2\1/2\1----1/2\1/2\1----1/2\1/2\1----1/2\1/2\1----1/2\1/2\1--|


 C#|-----------------------------------------------------------------|
 G#|-----------------------------------------------------------------|
  E|--------------%---------------%---------------%---------------%--|
  B|-3/4\3/4-4-3-----3/4\3/4-4-3-----3/4\3/4-4-3-----3/4\3/4-4-3-----|
 F#|-2/3\2/3-3-2-----2/3\2/3-3-2-----2/3\2/3-3-2-----2/3\2/3-3-2-----|
 C#|-1/2\1/2-2-1-----1/2\1/2-2-1-----1/2\1/2-2-1-----1/2\1/2-2-1-----|

 C#|-------------------------------------------------------------------------|
 G#|-------------------------------------------------------------------------|
  E|-------------------------------------------------------------------------|
  B|-3/4\3/4-4\3----3/4\3/4-4\3----3/4\3/4-4\3----3/4\3/4---7-----7-----7----|
 F#|-2/3\2/3-3\2----2/3\2/3-3\2----2/3\2/3-3\2----2/3\2/3---6-6---6-6---6----|
 C#|-1/2\1/2-2\1----1/2\1/2-2\1----1/2\1/2-2\1----1/2\1/2---5-5---5-5---5----|
 pm          .              .              .                  .     .


 C#|-----------------------------------------------------------|
 G#|-----------------------------------------------------------|
  E|-----------------------------------------------------------|
  B|-3/7---------3/7---------------------------5-----7-----8---|
 F#|-1/5---------1/5----------5-----7-----8------6-5---6-5---6-|
 C#|-1/5-0-0-0-0-1/5-0-0-0-0----6-5---6-5---6------------------|
 pm      . . . .     . . . .    . .   . .   .    . .   . .   .


                                          * tremelo pick                                 
  *       *       *       *
 C#|--------------------------------------------------|----------------------------------------------------------------|
 G#|--------------------------------------------------|----------------------------------------------------------------|
  E|--------------------------------------------------|----------------------------------------------------------------|
  B|-7-7---7-6-6---8---8-8---8---8-8--7--"7-----------|-7-7---7-6-6---8---8-8---8---8--3/7-----3/7-----3/7-----3/7-----|
 F#|-5-5---5-4-4---6---6-6---6---6-6--5--"5-----------|-5-5---5-4-4---6---6-6---6---6--1/5-----1/5-----1/5-----1/5-----|
 C#|-5-5---5-4-4---6---6-6---6---6-6--5--"5-----------|-5-5---5-4-4---6---6-6---6---6--1/5-"0--1/5-"0--1/5-"0--1/5-"0--|
 pm        .           .         .        .                   .           .              
  .       .       .       .


                                             |------------ 1----------------------------------------------|4x
 C#|--------------------------------------------------|--------------------------------||-----------------|
 G#|--------------------------------------------------|--------------------------------||-----------------|
  E|--------------------------------------------------|--------------------------------||-----------------|
  B|-7-7---7-6-6---8---8-8---8---8-8--7--"7-----------|-7-7---7-6-6---8---8-8---8---8--||-3/7-----3/7-----|
 F#|-5-5---5-4-4---6---6-6---6---6-6--5--"5-----------|-5-5---5-4-4---6---6-6---6---6--||-1/5-----1/5-----|
 C#|-5-5---5-4-4---6---6-6---6---6-6--5--"5-----------|-5-5---5-4-4---6---6-6---6---6--||-1/5-"0--1/5-"0--|
 pm        .           .         .        .                   .           .                    .       .


 C#|------------------------------------------|
 G#|------------------------------------------|
  E|------------------------------------------|
  B|-7\6-------------------------(4ph)--------|
 F#|-5\4--2--4\3--2-3-2--8b--4b--------(4ph)--|
 C#|-5\4--0--2\1--0-1-0-----------------------|
 pm       .       . . .

                                                    3x
 C#|--------------------------------------------------|
 G#|--------------------------------------------------|
  E|--------------------------------------------------|
  B|-7\6---------------------------------(4ph)--------|
 F#|-5\4--2--4\3--2-3-2--8-8-8-8-4-4-4-4-------(4ph)--|
 C#|-5\4--0--2\1--0-1-0-------------------------------|
 pm       .       . . .  . . . . . . . .


 C#|--------------------------------------|
 G#|--------------------------------------|
  E|---------------------%----------------|
  B|-7\6--------------------------7\6-----|
 F#|-5\4--2--4\3--2-3-2-----2-3-2-5\4-4\3-|
 C#|-5\4--0--2\1--0-1-0-----0-1-0-5\4-2\1-|
 pm       .       . . .     . . .

                                                    3x
 C#|--------------------------------------------------|
 G#|--------------------------------------------------|
  E|--------------------------------------------------|
  B|-7\6---------------------------------(4ph)--------|
 F#|-5\4--2--4\3--2-3-2--8-8-8-8-4-4-4-4-------(4ph)--|
 C#|-5\4--0--2\1--0-1-0-------------------------------|
 pm       .       . . .  . . . . . . . .


 C#|-------------------------------------------------------------------|
 G#|-------------------------------------------------------------------|
  E|-------------------------------------------------------------------|
  B|-7\6-------------------7\6-------------------7\6-------------------|
 F#|-5\4--2--4\3--2-3-3----5\4--2--4\3--2-3-3----5\4--2--4\3--2-3-3----|
 C#|-5\4--0--2\1--0-1-0----5\4--0--2\1--0-1-0----5\4--0--2\1--0-1-0----|
 pm       .       . . .         .       . . .         .       . . .
comments
print report bad tab
2 comments total.
0 reply
TBCIV wrote on October 31 2004, 12:00 am

wow good job

0 reply
ItDiesToday wrote on November 9 2004, 12:00 am

Amazing, well done. BTBAM has some amazing guitar/bass lines. Keep up the amazing work :-)

I want to post or [tab]
guest
You may want to rate the tab now too:
select rating
Please do not post tabs as comments. Select "correction" instead!