Oops, an error
Loading. Please wait.

Camilla Rhodes Tab

ver2
ver2

Whole song

More versions @911Tabs.com
638 views 1 this week
no commentswrite comment
1 2 3 4 5
excellent!
x 1
Autoscroll
+/-
esc
set tempo
stop
Contributor
Difficulty
intermediate
WARNING: You are trying to view
                                    content from Ultimate-Guitar.com
                                    in an unauthorized application,
                                    which is prohibited.

                                    Please use an official Ultimate
                                    Guitar Tabs application for iPhone,
                                    iPad or Android to access legitimate
                                    chords, guitar, bass, and drum tabs
                                    from Ultimate-Guitar.com database.

                                    Type "ultimate guitar tabs" in Apple
                                    App Store's or Android Market's
                                    search to find the application.
.  - palm mute
/  - slide up and down to
b  - Bend
() - Harmonics
*  - Pinch harmonics
T  - Right hand tap
h  - Hammer
"  - Tremolo Picking

Tuning:(C# F#  B  E G# C#)


C#|--------------------------------------------------||
G#|--------------------------------------------------||
 E|--------------------------------------------------||
 B|-6--------66--------------------------------------||
F#|-4-6666-6-44--1-0------33333-33-3333--66-55-44-33-||
C#|-4-3333-3-44------2-1--11111 11 1111--44-33-22-11-||
      ....   ..  . . . .  ..... .. ....  .. .. .. ..

C#|-----------------------------------||
G#|-----------------------------------||
 E|-----------------------------------||
 B|-----------------------------------||
F#|-8h11p8-7h10p7-6h7p6-5-----6-----6-||
C#|-----------------------080-5-080-5-||
                          ...   ...

C#|-----------------------------------------------------------------||
G#|--------------------------------------------------up till end----||
 E|------------------------91012------101113-16--T17/of fretboard --||
 B|--------------8911-91012-----101113------------------------------||
F#|-----7810-8911---------------------------------------------------||
C#|-7810------------------------------------------------------------||
    ... ...  ... ...  .. . .. . . . . . . .

guitarL.   guitarR.
C#|-------|-------||
G#|-------|-------||
 E|-------|-------||
 B|-------|-------||
F#|-------|-------||
C#|--17/--|--12/--||

C#|---------------------------||
G#|---------------------------||
 E|---------------------------||
 B|------8/5------8/5---------||
F#|------7/4------7/4--"5--"4-||
C#|--000-6/3--000-6/3---7---6-||
     ...      ...

C#|-----------------------||
G#|-----------------------||
 E|--------78---9---6-----||X4 but on last do the
 B|------6--------7---b8*-||   pinch harmonic twice
F#|----5------6-----------||
C#|-----------------------||
       . .    . .

C#|----------------------------------------||
G#|----------------------------------------||
 E|--11-8----------------------------------||
 B|------10-7------------------------------||
F#|----------9-6-----6------5------6-5-3-2-||
C#|-------------8-5--8-8888-7-7777-8-7-5-4-||
                       ....   ....   . .

C#|------------------------------------------------------||
G#|------------------------------------------------------||
 E|------------------------5-----------------------------||
 B|--------------------3-6---4------------------3-6------||
F#|-----8--87--------5---------6-----5-4----4-4-----8----||
C#|-005--5---4-0-3-6-------------4-7-----3-6-6--------9--||
    ...  .   . . . . .           . .

Guitar Left
C#|------------6-11----11-----------------||
G#|----------7------10--------------------||
 E|--------8------------------------------||
 B|------8----------------------------4-7-||
F#|----9------------------6-----9---6-----||
C#|-11----------------------6-5---5-------||
    .  . . . .            . . .   .

Guitar Right
C#|---------------------------------||
G#|---------------------------------||
 E|--8--3---------------------------||
 B|--------4--7--------------4-7----||
F#|--6--1--------6-----9---6--------||
C#|--------2--5----6-5---5----------||
     .  .        . . .   .

Guitar Left                           finish on:
C#|-------------------------------||  C#|------------------||
G#|-------------------------------||  G#|------------------||
 E|-----------------5---------5-8-||   E|------------------||
 B|---------4---4-7--7-4---4-7----||   B|---------4---4-7--||
F#|-6-3-0-6---6----------6--------||  F#|-6-3-0-6---6------||
C#|-------------------------------||  C#|------------------||


Guitar Right
C#|---------------------------------||
G#|---------------------------------||
 E|---------------------------------||
 B|-------8888-7777--77--77---------||
F#|-------6666-5555--55--55---------||
C#|-------6666-5555--55--55---------||
          .... ....  ..  ..

Both Guitars                           gL.   gR.
C#|---------------------------------||10x3-|-----||
G#|---------------------------------||-----|-----||
 E|---------------------------------||-----|-777-||
 B|-------8888-7777--777--77--------||-----|-----||
F#|-------6666-5555--555--55--------||-----|-----||
C#|-------6666-5555--555--55--------||-----|-----||
          .... ....  ...  ..

C#|-----------------------------------------||
G#|-----------------------------------------||
 E|---7-----------7-------------------------||
 B|---6-----------6-------------2------12/1-||
F#|---5--1--3-----5--1--3--4----2--6-3-12/1-||
C#|-0-4---21-21-0-4---21-21-212-0--3-2-12/1-||
    .    ... .. .    ... .. ...

C#|--------------------------------------------------------------------||
G#|--------------------------------------------------------------------||
 E|--------------------------------------------------------------------||
 B|1/12/----------1/12/------------1/12/----------1/12/-------2-----2--||
F#|1/12/X7--6-b4*-1/12/X6-6-3------1/12/X7--6-b4*-1/12/X6-6-3-2-6-3-2--||
C#|1/12/---3-0----1/12/---3-2(222)-1/12/---3-0----1/12/---3-2-0-3-2-0--||
           . .                             . .

                    Guitar Left                   Guitar Right
C#|-----------------------------------------------|--------||
G#|-----------------------------------------------|--------||
 E|-----------------------------------------------|--------||
 B|--------------------------------13-9---14-10---|--2--2--||
F#|-7-6-7--10-9-10--7-9-10--6-7-9------10------12-|--2--2--||
C#|-----------------------------------------------|--0--0--||
                                                     .  .

C#|------------------------------------------------------------------------||
G#|------------------------------------------------------------------------||
 E|------------------------------------------------------------------------||
 B|----------------------7/13/7-------------------------------13-9--14-10--||X2
F#|-6---10---2----6--10-6------6--10------------------------------10-----12||
C#|--70---70-0-X11-70--7--------70--70--767-10-9-10-7-9-10-679-------------||
     ..   .. .     ..  .        ..  ..

C#|-------------------------------------------------------------------
G#|-------------------------------------------------------------------
 E|-------------------------------------------------------------------
 B|13-9---14-10---13-9---14-10---13-9---14-10---16-12---14-10---------
F#|----10------12-----10------12-----10------12------14------12-------
C#|-------------------------------------------------------------------

C#|------------------------------------------------||
G#|------------------------------------------------||
 E|------------------------------------------------||
 B|--13-9---14-10---13-9---14-10------9-13-10------||
F#|------10------12-----10------12--10-------12-9--||
C#|------------------------------------------------||

     guitarL.    guitarR.
C#|-----------|----------||
G#|-----------|----------||
 E|-----------|----------||
 B|-----------|----------||
F#|--"7----5--|----------||
C#|-----"8----|--"8--"5--||

C#|---------------------------------------------------------------||
G#|---------------------------------------------------------------||
 E|---------------------------------------------------------------||
 B|-----------------------------------443344-77-44-33-*4*--7-6----||X4
F#|-7----5/7/5-4/5--3-4-3-4-4--4-3-3--------------------------5---||
C#|--3037---------6/1-2-1-2-2--2-1-1------------------------------||
    .....           . . . .    . .    ...... .. .. ..


C#|----------------------------------||
G#|----------------------------------||
 E|----------------------------------||
 B|-2--6-6/7/6-3--76---2--6-6/7/6-3--||
F#|-2--4-6/7/6-3----6--2--4-6/7/6-3--||
C#|-0--4-4/5/4-1-------0--4-4/5/4-1--||

WE LIED AS YOU LAY...

GuitarL:  GuitarR:
C#|-------||-------||---------------------------------------||
G#|-------||-------||---------------------------------------||
 E|--76---||-------||---------------------------------------||
 B|----8--||--76---||--2--6-6/7/6-3--76---2--6-6/7/6---3-3--||
F#|-------||----6--||--2--4-6/7/6-3----6--2--4-6/7/6---3-1--||
C#|-------||-------||--0--4-4/5/4-1-------0--4-4/5/4---1-1--||

C#|----------------------------------------------------------||
G#|----------------------------------------------------------||
 E|----------------------------------------------------------||
 B|----------------------------------------------------------||
F#|--1--3--4----4--6--7---7--9--10----10----12----13---------||
C#|---21-21-212--54-54-545-87-87--878---1110--1110--111011---||
     .......... ... .. ... .. ..  ...   . .    . .   . . .

Guitar left only:
C#|----------------||
G#|----------------||
 E|-11-8-----------||
 B|-----10-7-------||
F#|---------9-6----||
C#|------------8-5-||

C#|----------------------------------------------------------------------||
G#|----------------------------------------------------------------------||
 E|----------------------------------------------------------------------||
 B|---------------------------------3/7------3/7------3/7------3/7-------||
F#|-6------5------6-5-3-2-----8---8-1/5------1/5------1/5------1/5-------||
C#|-8-8888-7-7777-8-7-5-4-005---5---1/5-0000-1/5-0000-1/5-0000-1/5-0000--||
      ....   ....   . .   ...   .       ....     ....     ....     ....

guitarL.       guitarR.
C#|-----------|-----------||
G#|-----------|-----------||
 E|-----------|-----------||
 B|--7-7-6-6--|-----------||
F#|-----------|--9-9-8-8--||
C#|-0-0-0-0---|-0-0-0-0---||

C#|---------------------------------------------------------------||
G#|---------------------------------------------------------------||
 E|-11-8----------------------------------------------------------||
 B|-----10-7------------------------------22----------------------||
F#|---------9-6----6------5------6-5-3-2--22-2/3/2/3/2--2/3/2/3/2-||
C#|------------8-5-8-8888-7-7777-8-7-5-4--00-1/2/1/2/1--1/2/1/2/1-||
                     ....   ....   . .

C#|----------------||
G#|----------------||
 E|-11-8-----------||
 B|-----10-7-------||
F#|---------9-6----||
C#|------------8-5-||

C#|----------------------------------------------------------------------||
G#|----------------------------------------------------------------------||
 E|----------------------------------------------------------------------||
 B|---------------------------------3/7------3/7------3/7------3/7-------||
F#|-6------5------6-5-3-2-----8---8-1/5------1/5------1/5------1/5-------||
C#|-8-8888-7-7777-8-7-5-4-005---5---1/5-0000-1/5-0000-1/5-0000-1/5-0000--||
      ....   ....   . .   ...   .       ....     ....     ....     ....

guitarL.       guitarR.
C#|-----------|-----------||
G#|-----------|-----------||
 E|-----------|-----------||
 B|--7-7-6-6--|-----------||
F#|-----------|--9-9-8-8--||
C#|-0-0-0-0---|-0-0-0-0---||
                                               Left guitar only:
C#|--------------------------------------------|-------------||
G#|--------------------------------------------|-------------||
 E|--11-8--------------------------------------|-------------||
 B|------10-7-------------------------------22-|-------------||
F#|----------9-6-----6------5------6-5-3-2--22-|--2/3/2/3/2--||
C#|-------------8-5--8-8888-7-7777-8-7-5-4--00-|--1/2/1/2/1--||
                       ....   ....   . .    ..

Both Guitars: 2nd and 3rd time through with palm mute
C#|----------------------------------------------||
G#|----------------------------------------------||
 E|----------------------------------------------||
 B|----------------------------------------------||X3
F#|--2/3/2/3/2--2/3/2/3/2--2/3/2/3/2--2/3/2/3/2--||
C#|--1/2/1/2/1--1/2/1/2/1--1/2/1/2/1--1/2/1/2/1--||

C#|-----------------------------------------------------------||
G#|-----------------------------------------------------------||
 E|-----------------------------------------------------------||
 B|---------------------3/7------3/7----------------5--7--8---||
F#|-2/3/2/3--6-6-6-6-6--1/5------1/5------5--7--8----65-65-6--||
C#|-1/2/1/2--5-5-5-5-5--1/5-0000-1/5-0000--65-65-6------------||
               .   .        ....     ....  .. .. .   .. .. .

C#|---------------------------------------------------||
G#|---------------------------------------------------||
 E|---------------------------------------------------||
 B|-77----6----8----8----7--7----77----6----8----8-8--||
F#|-55-00-4-00-6-00-6-00-5--5x24-55-00-4-00-6-00-6-6--||
C#|-55-00-4-00-6-00-6-00-5--5----55-00-4-00-6-00-6-6--||
       ..   ..   ..   ..    .       ..   ..   ..   .

C#|---------------------------------------||
G#|---------------------------------------||
 E|---------------------------------------||
 B|--3/7------3/7------3/7------3/7-------||
F#|--1/5------1/5------1/5------1/5-------||
C#|--1/5-0000-1/5-0000-1/5-0000-1/5-0000--||
         ....     ....     ....     ....

C#|---------------------------------------------------||
G#|---------------------------------------------------||
 E|---------------------------------------------------||
 B|-77----6----8----8----7--7----77----6----8----8-8--||
F#|-55-00-4-00-6-00-6-00-5--5x24-55-00-4-00-6-00-6-6--||
C#|-55-00-4-00-6-00-6-00-5--5----55-00-4-00-6-00-6-6--||
       ..   ..   ..   ..    .       ..   ..   ..   .

C#|-----------------------------------------------------------------||
G#|-----------------------------------------------------------------||
 E|-----------------------------------------------------------------||
 B|--3/7------3/7------3/7------3/7------3/7------3/7------3/7------||X2
F#|--1/5------1/5------1/5------1/5------1/5------1/5------1/5------||
C#|--1/5-0000-1/5-0000-1/5-0000-1/5-0000-1/5-0000-1/5-0000-1/5-0000-||
         ....     ....     ....     ....     ....     ....     ....

C#|--------------------------------||
G#|--------------------------------||
 E|--------------------------------||
 B|--7/6-----4/3--232------b4*-----||
F#|--5/4-----4/3--232--8-4----b4*--||
C#|--5/4--0--2/1--010--------------||
          .       ...
C#|--------------------------------------||
G#|--------------------------------------||
 E|--------------------------------------||
 B|--7/6-----4/3--232------------b4*-----||X3
F#|--5/4-----4/3--232--8888-4444----b4*--||
C#|--5/4--0--2/1--010--------------------||
          .       ...  .... ....
                                  Guitar left only:
C#|---------------------------||   C#|-------||
G#|---------------------------||   G#|-------||
 E|---------------------------||    E|-------||
 B|--7/6-----4/3--232--2-222--||    B|--7/6--||
F#|--5/4-----4/3--232--2-222--||   F#|--5/4--||
C#|--5/4--0--2/1--010--0-000--||   C#|--5/4--||
          .       ...  . ...

C#|-------------------------------------------||
G#|-------------------------------------------||
 E|-------------------------------------------||
 B|--222--7/6-----4/3--232------------b4*-----||
F#|--222--5/4-----4/3--232--8888-4444----b4*--||
C#|--000--5/4--0--2/1--010--------------------||
     ...       .       ...  .... ....
                                               Last 3 times:
C#|--------------------------------------||    C#|-------------------||
G#|--------------------------------------||    G#|-------------------||
 E|--------------------------------------||     E|-------------------||
 B|--7/6-----4/3--232------------b4*-----||X2   B|--7/6-----4/3--232-||
F#|--5/4-----4/3--232--8888-4444----b4*--||    F#|--5/4-----4/3--232-||
C#|--5/4--0--2/1--010--------------------||    C#|--5/4--0--2/1--010-||
          .       ...  .... ....
comments
We did not receive enough feedback on this tab! Please rate:
print report bad tab
1 2 3 4 5
I want to post or [tab]
guest
You may want to rate the tab now too:
select rating
Please do not post tabs as comments. Select "correction" instead!