Oops, an error
Loading. Please wait.

Decade Of Statues Tab

9,308 views 6 this week
2 commentsread comments
1 2 3 4 5
excellent!
x 1
add to favorites launch autoscroll
font size
0
reset
Autoscroll
+/-
esc
set tempo
stop
Contributor
Difficulty
advanced
WARNING: You are trying to view
                                    content from Ultimate-Guitar.com
                                    in an unauthorized application,
                                    which is prohibited.

                                    Please use an official Ultimate
                                    Guitar Tabs application for iPhone,
                                    iPad or Android to access legitimate
                                    chords, guitar, bass, and drum tabs
                                    from Ultimate-Guitar.com database.

                                    Type "ultimate guitar tabs" in Apple
                                    App Store's or Android Market's
                                    search to find the application.
==================================================
Foam Born (B)
Between the Buried and Me
==================================================

Tabbed By: dreamworld4321

Converted to Text By: Dregen

I know this is rather long. I didn't include Dustie's parts (besides the leads) for 
reasons,and because they are
pretty much the same as Paul throughout the song.

I converted this tab for people unfortunate enough to not be able to have Guitar Pro or 
Tab on their
computer (maybe a school laptop?)

Hopefully there aren't any stupid errors I made trying to edit some of the tab.

I DID NOT MAKE THIS TAB. I ONLY CONVERTED IT TO TEXT.

---------------------------------------------------------------
Guitar - Tuning - C# Standard [C# G# E B F# C#] 1/2 steps down
---------------------------------------------------------------

      PM PM PM PM PM PM PM PM PM PM PM PM    PM PM PM PM PM PM
      S  S  E  S  S  E  S  S  E  S  S  E     S  S  E  S  S  E    E    E  E  E
C#||--------------------------------------|------------------------------------|
G#||--------------------------------------|------------------------------------|
E ||--------------------------------------|------------------------------------|
B ||--4--5--4--5--5--4--5--5--4--5--5--4--|--5--5--4--5--5--4--AH4-------4--3--|
F#||--3--4--3--4--4--3--4--4--3--4--4--3--|--4--4--3--4--4--3-------AH3--x--x--|
C#||--2--3--2--3--3--2--3--3--2--3--3--2--|--3--3--2--3--3--2------------2--1--|


  PM PM PM PM PM PM PM PM PM PM PM PM    PM PM PM PM PM PM
  S  S  E  S  S  E  S  S  E  S  S  E     S  S  E  S  S  E    E    E  E  E
--------------------------------------|------------------------------------|
--------------------------------------|------------------------------------|
--------------------------------------|------------------------------------|
--4--5--4--5--5--4--5--5--4--5--5--4--|--5--5--4--5--5--4--AH4-------4--3--|
--3--4--3--4--4--3--4--4--3--4--4--3--|--4--4--3--4--4--3-------AH3--x--x--|
--2--3--2--3--3--2--3--3--2--3--3--2--|--3--3--2--3--3--2------------2--1--|


  PM PM PM PM PM PM PM PM PM PM PM PM    PM PM PM PM PM PM
  S  S  E  S  S  E  S  S  E  S  S  E     S  S  E  S  S  E    E    E  E  E
--------------------------------------|------------------------------------|
--------------------------------------|------------------------------------|
--------------------------------------|------------------------------------|
--4--5--4--5--5--4--5--5--4--5--5--4--|--5--5--4--5--5--4--AH4-------4--3--|
--3--4--3--4--4--3--4--4--3--4--4--3--|--4--4--3--4--4--3-------AH3--x--x--|
--2--3--2--3--3--2--3--3--2--3--3--2--|--3--3--2--3--3--2------------2--1--|


  PM PM PM PM PM PM PM PM PM PM PM PM    PM PM PM PM PM PM
  S  S  E  S  S  E  S  S  E  S  S  E     S  S  E  S  S  E    E    E  E  E
--------------------------------------|------------------------------------|
--------------------------------------|------------------------------------|
--------------------------------------|------------------------------------|
--4--5--4--5--5--4--5--5--4--5--5--4--|--5--5--4--5--5--4--AH4-------4--3--|
--3--4--3--4--4--3--4--4--3--4--4--3--|--4--4--3--4--4--3-------AH3--x--x--|
--2--3--2--3--3--2--3--3--2--3--3--2--|--3--3--2--3--3--2------------2--1--|


  PM PM PM PM PM PM PM PM PM         PM PM PM PM PM PM PM PM PM PM PM PM
  S  S  E  S  S  E  S  S  E  Q       S  S  E  S  S  E  S  S  E  S  S  E
----------------------------------|--------------------------------------|
----------------------------------|--------------------------------------|
----------------------------------|--------------------------------------|
--4--5--4--5--5--4--5--5--4-------|--4--5--4--5--5--4--5--5--4--5--5--4--|
--3--4--3--4--4--3--4--4--3-------|--3--4--3--4--4--3--4--4--3--4--4--3--|
--2--3--2--3--3--2--3--3--2-------|--2--3--2--3--3--2--3--3--2--3--3--2--|


  PM PM PM PM PM PM
                    |-6-| |-6-| |-6-| |-6-|
  S  S  E  S  S  E  S S S S S S S S S S S S
--------------------------------------------|
--------------------------------------------|
--------------------------------------------|
--5--5--4--5--5--4--------------------------|
--4--4--3--4--4--3--------------------------|
--3--3--2--3--3--2--2-2-2-5-5-5-1-1-1-1-1-1-|


  PM PM PM PM PM PM PM PM PM PM PM PM
  S  S  E  S  S  E  S  S  E  S  S  E
--------------------------------------|
--------------------------------------|
--------------------------------------|
--4--5--4--5--5--4--5--5--4--5--5--4--|
--3--4--3--4--4--3--4--4--3--4--4--3--|
--2--3--2--3--3--2--3--3--2--3--3--2--|


  PM PM PM PM PM PM
                    |-6-| |-6-| |-6-| |-6-|
  S  S  E  S  S  E  S S S S S S S S S S S S
--------------------------------------------|
--------------------------------------------|
--------------------------------------------|
--5--5--4--5--5--4--------------------------|
--4--4--3--4--4--3--------------------------|
--3--3--2--3--3--2--2-2-2-5-5-5-1-1-1-1-1-1-|


  PM PM PM PM PM PM PM PM PM PM PM PM
  S  S  E  S  S  E  S  S  E  S  S  E
--------------------------------------|
--------------------------------------|
--------------------------------------|
--4--5--4--5--5--4--5--5--4--5--5--4--|
--3--4--3--4--4--3--4--4--3--4--4--3--|
--2--3--2--3--3--2--3--3--2--3--3--2--|


  PM PM PM PM PM PM
                    |-6-| |-6-| |-6-| |-6-|
  S  S  E  S  S  E  S S S S S S S S S S S S
--------------------------------------------|
--------------------------------------------|
--------------------------------------------|
--5--5--4--5--5--4--------------------------|
--4--4--3--4--4--3--------------------------|
--3--3--2--3--3--2--2-2-2-5-5-5-1-1-1-1-1-1-|


  PM PM PM PM PM PM PM PM PM PM PM PM    PM PM PM PM PM PM
  S  S  E  S  S  E  S  S  E  S  S  E     S  S  E  S  S  E  E  E  E  E
--------------------------------------|--------------------------------|
--------------------------------------|--------------------------------|
--------------------------------------|--------------------------------|
--4--5--4--5--5--4--5--5--4--5--5--4--|--5--5--4--5--5--4--4--7--3-----|
--3--4--3--4--4--3--4--4--3--4--4--3--|--4--4--3--4--4--3--x--x--x-----|
--2--3--2--3--3--2--3--3--2--3--3--2--|--3--3--2--3--3--2--2--5--1-----|


                    PM PM    PM PM
                 |--3--|  |--3--|
  E  E  E  E     E  E  E  E  E  E     E  E  E  E
--------------|--------------------|--------------|
--------------|--------------------|--------------|
--------------|--------------------|--------------|
--4-----3-----|--4-----------------|-----------2--|
--x-----x-----|-----2--1--4--------|-----1--4-----|
--2-----1-----|--------------2--1--|--3-----------|


     PM PM PM PM          PM PM PM PM       PM PM    PM PM PM PM       PM PM
  E  S  S  S  S  E  E  E  S  S  S  S     E  S  S  E  S  S  S  S  E  E  S  S
--------------------------------------|--------------------------------------|
--------------------------------------|--------------------------------------|
--------------------------------------|--------------------------------------|
--------------------------------------|--------------------------------------|
--4--------------4--5--4--------------|--4--------4--------------5--4--------|
--1--0--0--0--0--1--2--1--0--0--0--0--|--1--0--0--1--0--0--0--0--2--1--0--0--|


     PM PM PM PM          PM PM PM PM
  E  S  S  S  S  E  E  E  S  S  S  S
--------------------------------------|
--------------------------------------|
--------------------------------------|
--------------------------------------|
--4--------------4--5--4--------------|
--1--0--0--0--0--1--2--1--0--0--0--0--|


   PM PM PM PMPM PM  PM PM PM PMPM PM  PM PM PM PM
   S  S  S  S S  S   S  S  S  S S  S   S  S  S  S
--------------------------------------------------|
--------------------------------------------------|
--------------------------------------------------|
--------------------------------------------------|
--15-15-------------15-15-------------15-15-------|
--------14-14-0--0--------14-14-0--0--------14-14-|


     PM PM PM PM          PM PM PM PM       PM PM    PM PM PM PM       PM PM
  E  S  S  S  S  E  E  E  S  S  S  S     E  S  S  E  S  S  S  S  E  E  S  S
--------------------------------------|--------------------------------------|
--------------------------------------|--------------------------------------|
--------------------------------------|--------------------------------------|
--------------------------------------|--------------------------------------|
--4--------------4--5--4--------------|--4--------4--------------5--4--------|
--1--0--0--0--0--1--2--1--0--0--0--0--|--1--0--0--1--0--0--0--0--2--1--0--0--|


     PM PM PM PM          PM PM PM PM
  E  S  S  S  S  E  E  E  S  S  S  S     E  E  E  E  E  E  E  E
--------------------------------------|--------------------------|
--------------------------------------|--------------------------|
--------------------------------------|--------------------------|
--------------------------------------|--------------------4-----|
--4--------------4--5--4--------------|--------2--1-----------3--|
--1--0--0--0--0--1--2--1--0--0--0--0--|--2--5--------3--6--------|


  S  S  S  S  S  S  S  S  S  S  S  S  E  E
--------------------------------------------|
--------------------------------------------|
--------------------------------------------|
--------------------------------------4-----|
--1h-2p-1h-2p-1h-2p-1h-2p-1h-2p-1h-2h-4-----|
--------------------------------------2-----|


     PM PM PM PM          PM PM PM PM       PM PM    PM PM PM PM       PM PM
  E  S  S  S  S  E  E  E  S  S  S  S     E  S  S  E  S  S  S  S  E  E  S  S
--------------------------------------|--------------------------------------|
--------------------------------------|--------------------------------------|
--------------------------------------|--------------------------------------|
--------------------------------------|--------------------------------------|
--4--------------4--5--4--------------|--4--------4--------------5--4--------|
--1--0--0--0--0--1--2--1--0--0--0--0--|--1--0--0--1--0--0--0--0--2--1--0--0--|


     PM PM PM PM          PM PM PM PM
  E  S  S  S  S  E  E  E  S  S  S  S
--------------------------------------|
--------------------------------------|
--------------------------------------|
--------------------------------------|
--4--------------4--5--4--------------|
--1--0--0--0--0--1--2--1--0--0--0--0--|


   PM PM PM PMPM PM  PM PM PM PMPM PM
   S  S  S  S S  S   S  S  S  S S  S   E   E
----------------------------------------------|
----------------------------------------------|
----------------------------------------------|
----------------------------------------------|
--15-15-------------15-15-------------17------|
--------14-14-0--0--------14-14-0--0------16--|


     PM PM PM PM          PM PM PM PM       PM PM    PM PM PM PM       PM PM
  E  S  S  S  S  E  E  E  S  S  S  S     E  S  S  E  S  S  S  S  E  E  S  S
--------------------------------------|--------------------------------------|
--------------------------------------|--------------------------------------|
--------------------------------------|--------------------------------------|
--------------------------------------|--------------------------------------|
--4--------------4--5--4--------------|--4--------4--------------5--4--------|
--1--0--0--0--0--1--2--1--0--0--0--0--|--1--0--0--1--0--0--0--0--2--1--0--0--|


     PM PM PM PM          PM PM PM PM
                                         |----3----|    |----3----|
  E  S  S  S  S  E  E  E  S  S  S  S     Q    Q    Q    Q    Q    Q
--------------------------------------|--------------------------------|
--------------------------------------|--------------------------------|
--------------------------------------|--------------------------------|
--------------------------------------|--3----4----3----6----4----3----|
--4--------------4--5--4--------------|--x----x----x----x----x----x----|
--1--0--0--0--0--1--2--1--0--0--0--0--|--1----2----1----4----2----1----|


     PM PM          PM PM       PM    PM PM       PM
  E  E  E  E  E  E  E  E     E  E  E  E  E  E  E  E
--------------------------|--------------------------|
--------------------------|--------------------------|
--------------------------|--------------------------|
--3--------3--4--3--------|--3-----3--------4--3-----|
--3--------3--4--3--------|--3-----3--------4--3-----|
--1--0--0--1--2--1--0--0--|--1--0--1--0--0--2--1--0--|


     PM PM          PM PM       PM    PM PM       PM
  E  E  E  E  E  E  E  E     E  E  E  E  E  E  E  E
--------------------------|--------------------------|
--------------------------|--------------------------|
--------------------------|--------------------------|
--3--------3--4--3--------|--3-----3--------4--3-----|
--3--------3--4--3--------|--3-----3--------4--3-----|
--1--0--0--1--2--1--0--0--|--1--0--1--0--0--2--1--0--|


  PM   PM   PM         PM PM       PM    PM PM       PM
  |----3----|
  Q    Q    Q    E  E  E  E     E  E  E  E  E  E  E  E
-----------------------------|--------------------------|
-----------------------------|--------------------------|
-----------------------------|--------------------------|
-----------------4--3--------|--3-----3--------4--3-----|
--3----3----3----4--3--------|--3-----3--------4--3-----|
--1----1----1----2--1--0--0--|--1--0--1--0--0--2--1--0--|


     PM PM          PM PM       PM    PM PM       PM
  E  E  E  E  E  E  E  E     E  E  E  E  E  E  E  E
--------------------------|--------------------------|
--------------------------|--------------------------|
--------------------------|--------------------------|
--3--------3--4--3--------|--3-----3--------4--3-----|
--3--------3--4--3--------|--3-----3--------4--3-----|
--1--0--0--1--2--1--0--0--|--1--0--1--0--0--2--1--0--|


  PM   PM   PM         PM PM PM PM       PM PM    PM PM PM PM       PM PM
  |----3----|
  Q    Q    Q    E  E  S  S  S  S     E  S  S  E  S  S  S  S  E  E  S  S
-----------------------------------|--------------------------------------|
-----------------------------------|--------------------------------------|
-----------------------------------|--------------------------------------|
-----------------4--3--------------|--3--------3--------------4--3--------|
--3----3----3----4--3--------------|--3--------3--------------4--3--------|
--1----1----1----2--1--0--0--0--0--|--1--0--0--1--0--0--0--0--2--1--0--0--|


     PM PM PM PM          PM PM PM PM       PM PM    PM PM PM PM       PM PM
  E  S  S  S  S  E  E  E  S  S  S  S     E  S  S  E  S  S  S  S  E  E  S  S
--------------------------------------|--------------------------------------|
--------------------------------------|--------------------------------------|
--------------------------------------|--------------------------------------|
--3--------------3--4--3--------------|--3--------3--------------4--3--------|
--3--------------3--4--3--------------|--3--------3--------------4--3--------|
--1--0--0--0--0--1--2--1--0--0--0--0--|--1--0--0--1--0--0--0--0--2--1--0--0--|


  PM   PM   PM         PM PM       PM    PM PM       PM
  |----3----|
  Q    Q    Q    E  E  E  E     E  E  E  E  E  E  E  E
-----------------------------|--------------------------|
-----------------------------|--------------------------|
-----------------------------|--------------------------|
-----------------4--3--------|--3-----3--------4--3-----|
--3----3----3----4--3--------|--3-----3--------4--3-----|
--1----1----1----2--1--0--0--|--1--0--1--0--0--2--1--0--|


     PM PM          PM PM       PM    PM PM       PM
  E  E  E  E  E  E  E  E     E  E  E  E  E  E  E  E
--------------------------|--------------------------|
--------------------------|--------------------------|
--------------------------|--------------------------|
--3--------3--4--3--------|--3-----3--------4--3-----|
--3--------3--4--3--------|--3-----3--------4--3-----|
--1--0--0--1--2--1--0--0--|--1--0--1--0--0--2--1--0--|


  PM   PM   PM         PM       PM       PM    PM
  |----3----|
  Q    Q    Q    E  E  E  E     E  E  E  E  E  E  E  E
-----------------------------|--------------------------|
-----------------------------|--------------------------|
-----------------------------|--------------------------|
-----------------4--3-----3--|-----6--5-----3-----5--6--|
--3----3----3----4--3-----3--|-----6--5-----3-----5--6--|
--1----1----1----2--1--0--1--|--0--4--3--0--1--0--3--4--|


  PM PM PM PM    PM PM    PM PM    PM PM PM PM    PM PM    PM PM
  E  E  E  E  E  E  E  E  E  E     E  E  E  E  E  E  E  E  E  E
--------------------------------|--------------------------------|
--------------------------------|--------------------------------|
--------------------------------|--------------------------------|
--------------------------------|--------------------------------|
--------------------------------|--------------------------------|
--3--3--3--3-----3--3-----1--1--|--3--3--3--3-----3--3-----1--1--|


  PM PM PM PM    PM PM    PM PM    PM PM PM PM    PM PM    PM PM
  E  E  E  E  E  E  E  E  E  E     E  E  E  E  E  E  E  E  E  E
--------------------------------|--------------------------------|
--------------------------------|--------------------------------|
--------------------------------|--------------------------------|
--------------------------------|--------------------------------|
--------------------------------|--------------------------------|
--3--3--3--3-----3--3-----1--1--|--3--3--3--3-----3--3-----1--1--|


  PM PM PM PM    PM PM    PM PM    PM PM PM PM    PM PM    PM PM
  E  E  E  E  E  E  E  E  E  E     E  E  E  E  E  E  E  E  E  E
--------------------------------|--------------------------------|
--------------------------------|--------------------------------|
--------------------------------|--------------------------------|
--------------------------------|--------------------------------|
--------------------------------|--------------------------------|
--6--6--6--6-----6--6-----5--5--|--6--6--6--6-----6--6-----5--5--|


  PM PM PM PM    PM PM    PM PM    PM    PM       PM    PM
  E  E  E  E  E  E  E  E  E  E     E  E  E  E  E  E  E  E  E  E
--------------------------------|--------------------------------|
--------------------------------|--------------------------------|
--------------------------------|--------------------------------|
--------------------------------|-----3-----6--5-----3-----5--6--|
--------------------------------|-----3-----6--5-----3-----5--6--|
--6--6--6--6-----6--6-----5--5--|--0--1--0--4--3--0--1--0--3--4--|

    Q     Q     Q     Q     Q       Q      H        E   E   Q
---------------15----------------|---------------------------------|
--/12----13----------------------|-------------------------12br----|
---------------------12----10----|---------------------------------|
---------------------------------|--9br----L--------L\-------------|
---------------------------------|---------------------------------|
---------------------------------|---------------------------------|


  W                Q       W                Q          Q     Q     Q     Q     Q
------------------------|-------------------------|---------------15----------------|
--L----------------L----|--L----------------L\----|--/12----13----------------------|
------------------------|-------------------------|---------------------12----10----|
------------------------|-------------------------|---------------------------------|
------------------------|-------------------------|---------------------------------|
------------------------|-------------------------|---------------------------------|


                                                               \0/
  Q      H        E   E     Q         H         E   E   E   E  Q
-----------------------------------|-----------19--15------15--L----|
-------------------------AH12br----|--L----------------18-----------|
-----------------------------------|--------------------------------|
--9br----L--------L\---------------|--------------------------------|
-----------------------------------|--------------------------------|
-----------------------------------|--------------------------------|


  H.           Q     Q
--L------------L\---------|
--------------------------|
--------------------------|
--------------------------|
--------------------------|
--------------------------|

  PM       PM    PM       PM    PM            PM PM
  E  E  E  E  E  E  E  E  E  E  E  E  Q       E  E  E  E  E  E
-------------------------------------------|--------------------|
-------------------------------------------|--------------------|
--------------------6--7-------------------|--------------------|
-----9--8-----5-----6--7-----7-----8--4----|--------7--4--------|
-----9--8-----5-----4--5-----7-----x--x----|-----5--------6--5--|
--0--7--6--0--3--0--------0--5--0--6--2----|--3-----------------|


  PM
  E  E  E  E  E  E     E  E  E  E  E  E      E  E   E  E  E  E
--------------------|--------------------|----------------------|
--------------------|--7--4-----------9--|--10--7---------------|
--------8--5--------|--------5-----6-----|---------10--6--5-----|
-----6--------7--6--|-----------4--------|-------------------7--|
--4-----------------|--------------------|----------------------|
--------------------|--------------------|----------------------|


  PM PM PM PM       PM              PM PM PM PM       PM
  S  S  S  S  E  E  E  E    Q       S  S  S  S  E  E  E  E    Q
---------------------------------|---------------------------------|
---------------------------------|---------------------------------|
-----------------------4S--10----|-----------------------4S--10----|
--------------3--6-----x---------|--------------3--6-----x---------|
--2-----------x--x-----2S---8----|--2-----------x--x-----2S---8----|
-----1--0--0--1--4--0------------|-----1--0--0--1--4--0------------|


  PM PM PM PM                   PM PM PM PM       PM
  S  S  S  S  E  E  H           S  S  S  S  E  E  E  E    Q
-----------------------------|---------------------------------|
-----------------------------|---------------------------------|
-----------------------------|-----------------------4S--15----|
--------------3--3-----------|--------------3--6-----x---------|
--2-----------2--2-----------|--2-----------x--x-----2S--13----|
-----1--0--0--1--1-----------|-----1--0--0--1--4--0------------|


  PM PM PM PM       PM              PM PM PM PM       PM
  S  S  S  S  E  E  E  E    Q       S  S  S  S  E  E  E  E    Q
---------------------------------|---------------------------------|
---------------------------------|---------------------------------|
-----------------------4S--15----|-----------------------4S--15----|
--------------3--6-----x---------|--------------3--6-----x---------|
--2-----------x--x-----2S--13----|--2-----------x--x-----2S--13----|
-----1--0--0--1--4--0------------|-----1--0--0--1--4--0------------|


  PM PM PM PM       PM              PM PM PM PM       PM
  S  S  S  S  E  E  E  E    Q       S  S  S  S  E  E  E  E    Q
---------------------------------|---------------------------------|
---------------------------------|---------------------------------|
-----------------------4S--14----|-----------------------4S--15----|
--------------3--6-----x---------|--------------3--6-----x---------|
--2-----------x--x-----2S--12----|--2-----------x--x-----2S--13----|
-----1--0--0--1--4--0------------|-----1--0--0--1--4--0------------|


  PM PM PM PM       PM              PM PM PM PM       PM
  S  S  S  S  E  E  E  E    Q       S  S  S  S  E  E  E  E    Q
---------------------------------|---------------------------------|
---------------------------------|---------------------------------|
-----------------------4S--15----|-----------------------4S--15----|
--------------3--6-----x---------|--------------3--6-----x---------|
--2-----------x--x-----2S--13----|--2-----------x--x-----2S--13----|
-----1--0--0--1--4--0------------|-----1--0--0--1--4--0------------|


  PM PM PM PM       PM
  S  S  S  S  E  E  E  E    Q       S S E  S S E  S S E  S S E
---------------------------------|------------------------------|
---------------------------------|------------------------------|
-----------------------4S--14----|------------------------------|
--------------3--6-----x---------|--3-3----3-3----3-3----3-3----|
--2-----------x--x-----2S--12----|--2-2----2-2----2-2----2-2----|
-----1--0--0--1--4--0------------|--2-2----2-2----2-2----2-2----|


  PM PM PM PM       PM               PM PM PM PM       PM
  S  S  S  S  E  E  E  E   Q         S  S  S  S  E  E  E  E   Q
----------------------------------|----------------------------------|
----------------------------------|----------------------------------|
-----------------------4----------|-----------------------4----------|
--------------3--6-----x----------|--------------3--6-----x----------|
--2-----------x--x-----2s--8br----|--2-----------x--x-----2s--8br----|
-----1--0--0--1--4--0-------------|-----1--0--0--1--4--0-------------|


  PM PM PM PM       PM               PM PM PM PM       PM
  S  S  S  S  E  E  E  E   Q         S  S  S  S  E  E  E  E   Q
----------------------------------|----------------------------------|
----------------------------------|----------------------------------|
-----------------------4----------|-----------------------4----------|
--------------3--6-----x----------|--------------3--6-----x----------|
--2-----------x--x-----2s--8br----|--2-----------x--x-----2s--7br----|
-----1--0--0--1--4--0-------------|-----1--0--0--1--4--0-------------|


  PM PM PM PM       PM               PM PM PM PM       PM
  S  S  S  S  E  E  E  E   Q         S  S  S  S  E  E  E  E   Q
----------------------------------|----------------------------------|
----------------------------------|----------------------------------|
-----------------------4----------|-----------------------4----------|
--------------3--6-----x----------|--------------3--6-----x----------|
--2-----------x--x-----2s--8br----|--2-----------x--x-----2s--8br----|
-----1--0--0--1--4--0-------------|-----1--0--0--1--4--0-------------|


  PM PM PM PM       PM               PM PM PM PM       PM
  S  S  S  S  E  E  E  E   Q         S  S  S  S  E  E  E  E   Q
----------------------------------|----------------------------------|
----------------------------------|----------------------------------|
-----------------------4----------|-----------------------4----------|
--------------3--6-----x----------|--------------3--6-----x----------|
--2-----------x--x-----2s--8br----|--2-----------x--x-----2s--7br----|
-----1--0--0--1--4--0-------------|-----1--0--0--1--4--0-------------|


                                 PM PM PM PM PM PM PM PM PM PM PM PM
  S S E  S S E  S S E  S S E     S  S  E  S  S  E  S  S  E  S  S  E
------------------------------|--------------------------------------|
------------------------------|--------------------------------------|
------------------------------|--------------------------------------|
--3-3----3-3----3-3----3-3----|--4--5--4--5--5--4--5--5--4--5--5--4--|
--2-2----2-2----2-2----2-2----|--3--4--3--4--4--3--4--4--3--4--4--3--|
--2-2----2-2----2-2----2-2----|--2--3--2--3--3--2--3--3--2--3--3--2--|


                                            PM PM       PM PM
  E  E  E  E  E  E  E  E     E  E  E  E     E  E  E  E  E  E  E  E
--------------------------|--------------|--------------------------|
--------------------------|--------------|--------------------------|
--------------------------|--------------|--------------------------|
--4--7--3-----4--7--3-----|--4-----4-----|-----------2-----------3--|
--x--x--x-----x--x--x-----|--4-----4-----|-----1--4--------2--5-----|
--2--5--1-----2--5--1-----|--2-----2-----|--3-----------4-----------|


  PM PM       PM PM          PM PM       PM  PM
  E  E  E  E  E  E  E  E     E  E  E  E  E   E  E  E
--------------------------|---------------------------|
--------------------------|---------------------------|
--------------------------|---------------------------|
--------------------4-----|-----------7------------9--|
--------2--1-----------3--|--------6------------8-----|
--2--5--------3--6--------|--5--8--------7--10--------|


  PM PM       PM PM          PM PM       PM  PM
  E  E  E  E  E  E  E  E     E  E  E  E  E   E  E  E
--------------------------|---------------------------|
--------------------------|---------------------------|
--------------------------|---------------------------|
--------------------4-----|-----------7------------9--|
--------2--1-----------3--|--------6------------8-----|
--2--5--------3--6--------|--5--8--------7--10--------|


  PM PM       PM PM          PM PM       PM  PM
  E  E  E  E  E  E  E  E     E  E  E  E  E   E  E  E
--------------------------|---------------------------|
--------------------------|---------------------------|
--------------------------|---------------------------|
--------------------4-----|-----------7------------9--|
--------2--1-----------3--|--------6------------8-----|
--2--5--------3--6--------|--5--8--------7--10--------|


   E   E   S   S   S   S   E   E   E   E      E   E   E  E   E  E   Q
------------------------------------------|------------------------------|
------------------------------------------|------------------------------|
----------11h-12p-11h-12p-11--------------|------------------------------|
------14----------------------14--13--10--|------------------------------|
--12--------------------------------------|--14--12--10--9------9--------|
------------------------------------------|-----------------12-----11----|


  PM PM       PM PM          PM PM       PM  PM
  E  E  E  E  E  E  E  E     E  E  E  E  E   E  E  E
--------------------------|---------------------------|
--------------------------|---------------------------|
--------------------------|---------------------------|
--------------------4-----|-----------7------------9--|
--------2--1-----------3--|--------6------------8-----|
--2--5--------3--6--------|--5--8--------7--10--------|


  PM PM       PM PM          PM PM       PM  PM
  E  E  E  E  E  E  E  E     E  E  E  E  E   E  E  E
--------------------------|---------------------------|
--------------------------|---------------------------|
--------------------------|---------------------------|
--------------------4-----|-----------7------------9--|
--------2--1-----------3--|--------6------------8-----|
--2--5--------3--6--------|--5--8--------7--10--------|


  PM PM       PM PM          PM PM       PM  PM
  E  E  E  E  E  E  E  E     E  E  E  E  E   E  E  E
--------------------------|---------------------------|
--------------------------|---------------------------|
--------------------------|---------------------------|
--------------------4-----|-----------7------------9--|
--------2--1-----------3--|--------6------------8-----|
--2--5--------3--6--------|--5--8--------7--10--------|


                                    PM       PM
   E   E   E   E    E   E   Q       E  E  E  E  E  E  E  E
---------------------------------|--------------------------|
---------------------------------|--------------------------|
----------11--12s--17--16--------|--------------------------|
------14-------------------18----|-----4--L-----6--4--7--3--|
--10-----------------------------|-----4--L-----6--4--7--3--|
---------------------------------|--0--2--L--0--4--2--5--1--|


                 PM PM                            PM PM
  E  E  E  E  E  S  S    Q         E  E  E  E  E  S  S    Q
--------------------------------|--------------------------------|
--------------------------------|--------------------------------|
--------------------------------|--------------------------------|
--7--4--L--6--3-----------------|--7--4--L--6--3-----------------|
--7--4--L--6--3--------AH3br----|--7--4--L--6--3--------AH3br----|
--5--2--L--4--1--0--0-----------|--5--2--L--4--1--0--0-----------|


                 PM PM             PM PM PM PM PM PM    PM PM
                                   |--3--|  |--3--|
  E  E  E  E  E  S  S    Q         E  E  E  E  E  E  E  S  S  E  E
--------------------------------|-----------------------------------|
--------------------------------|-----------------------------------|
--------------------------------|--------------------3--------3--4--|
--7--4--L--6--3-----------------|--------------------x--------x--x--|
--7--4--L--6--3--------AH3br----|--------------------1--------1--2--|
--5--2--L--4--1--0--0-----------|--5--2--0--4--1--0-----0--0--------|


                 PM PM                            PM PM
  E  E  E  E  E  S  S    Q         E  E  E  E  E  S  S    Q
--------------------------------|--------------------------------|
--------------------------------|--------------------------------|
--------------------------------|--------------------------------|
--7--4--L--6--3-----------------|--7--4--L--6--3-----------------|
--7--4--L--6--3--------AH3br----|--7--4--L--6--3--------AH3br----|
--5--2--L--4--1--0--0-----------|--5--2--L--4--1--0--0-----------|


                 PM PM             PM PM PM PM PM PM    PM PM
                                   |--3--|  |--3--|
  E  E  E  E  E  S  S    Q         E  E  E  E  E  E  E  S  S  E  E
--------------------------------|-----------------------------------|
--------------------------------|-----------------------------------|
--------------------------------|--------------------3--------3--4--|
--7--4--L--6--3-----------------|--------------------x--------x--x--|
--7--4--L--6--3--------AH3br----|--------------------1--------1--2--|
--5--2--L--4--1--0--0-----------|--5--2--0--4--1--0-----0--0--------|


                                         PM PM
  E  E  E  E  H           E  E  E  E  E  S  S    Q
-----------------------|--------------------------------|
-----------------------|--------------------------------|
--8--7-----------------|--------------------------------|
--x--x--7--8-----------|--7--4--L--6--3-----------------|
--6--5--x--x-----------|--7--4--L--6--3--------AH3br----|
--------5--6-----------|--5--2--L--4--1--0--0-----------|


                 PM PM                            PM PM
  E  E  E  E  E  S  S    Q         E  E  E  E  E  S  S    Q
--------------------------------|--------------------------------|
--------------------------------|--------------------------------|
--------------------------------|--------------------------------|
--7--4--L--6--3-----------------|--7--4--L--6--3-----------------|
--7--4--L--6--3--------AH3br----|--7--4--L--6--3--------AH3br----|
--5--2--L--4--1--0--0-----------|--5--2--L--4--1--0--0-----------|


  PM PM PM PM PM PM    PM PM                         PM PM
  |--3--|  |--3--|
  E  E  E  E  E  E  E  S  S  E  E     E  E  E  E  E  S  S    Q
-----------------------------------|--------------------------------|
-----------------------------------|--------------------------------|
--------------------3--------3--4--|--------------------------------|
--------------------x--------x--x--|--7--4--L--6--3-----------------|
--------------------1--------1--2--|--7--4--L--6--3--------AH3br----|
--5--2--0--4--1--0-----0--0--------|--5--2--L--4--1--0--0-----------|


                 PM PM                            PM PM
  E  E  E  E  E  S  S    Q         E  E  E  E  E  S  S    Q
--------------------------------|--------------------------------|
--------------------------------|--------------------------------|
--------------------------------|--------------------------------|
--7--4--L--6--3-----------------|--7--4--L--6--3-----------------|
--7--4--L--6--3--------AH3br----|--7--4--L--6--3--------AH3br----|
--5--2--L--4--1--0--0-----------|--5--2--L--4--1--0--0-----------|


  PM PM PM PM PM PM    PM PM                         PM PM
  |--3--|  |--3--|
  E  E  E  E  E  E  E  S  S  E  E     E  E  E  E  E  S  S    Q
-----------------------------------|--------------------------------|
-----------------------------------|--------------------------------|
--------------------3--------3--4--|--------------------------------|
--------------------x--------x--x--|--7--4--L--6--3-----------------|
--------------------1--------1--2--|--7--4--L--6--3--------AH3br----|
--5--2--0--4--1--0-----0--0--------|--5--2--L--4--1--0--0-----------|


                 PM PM                            PM PM
  E  E  E  E  E  S  S    Q         E  E  E  E  E  S  S    Q
--------------------------------|--------------------------------|
--------------------------------|--------------------------------|
--------------------------------|--------------------------------|
--7--4--L--6--3-----------------|--7--4--L--6--3-----------------|
--7--4--L--6--3--------AH3br----|--7--4--L--6--3--------AH3br----|
--5--2--L--4--1--0--0-----------|--5--2--L--4--1--0--0-----------|


  PM PM PM PM PM PM    PM PM                         PM PM
  |--3--|  |--3--|
  E  E  E  E  E  E  E  S  S  E  E     E  E  E  E  E  S  S    Q
-----------------------------------|--------------------------------|
-----------------------------------|--------------------------------|
--------------------3--------3--4--|--------------------------------|
--------------------x--------x--x--|--7--4--L--6--3-----------------|
--------------------1--------1--2--|--7--4--L--6--3--------AH3br----|
--5--2--0--4--1--0-----0--0--------|--5--2--L--4--1--0--0-----------|


                 PM PM                            PM PM
  E  E  E  E  E  S  S    Q         E  E  E  E  E  S  S    Q
--------------------------------|--------------------------------|
--------------------------------|--------------------------------|
--------------------------------|--------------------------------|
--7--4--L--6--3-----------------|--7--4--L--6--3-----------------|
--7--4--L--6--3--------AH3br----|--7--4--L--6--3--------AH3br----|
--5--2--L--4--1--0--0-----------|--5--2--L--4--1--0--0-----------|


  PM PM PM PM PM PM    PM PM                         PM PM
  |--3--|  |--3--|
  E  E  E  E  E  E  E  S  S  E  E     E  E  E  E     E  E  E  E  E  E
-----------------------------------|--------------|--------------------|
-----------------------------------|--------------|--------------------|
--------------------3--------3--4--|--8--7--------|--------------------|
--------------------x--------x--x--|--x--x--7--8--|--------7--4--------|
--------------------1--------1--2--|--6--5--x--x--|-----5--------6--5--|
--5--2--0--4--1--0-----0--0--------|--------5--6--|--3-----------------|


  PM
  E  E  E  E  E  E     E  E  E  E  E  E      E  E   E  E  E  E
--------------------|--------------------|----------------------|
--------------------|--7--4-----------9--|--10--7---------------|
--------8--5--------|--------5-----6-----|---------10--6--5-----|
-----6--------7--6--|-----------4--------|-------------------7--|
--4-----------------|--------------------|----------------------|
--------------------|--------------------|----------------------|


  E  E  E  E  E  E  Q       E  E  E  E  E  E  E  E     E  E  E   E  E  E
-------------------------|--------------------------|--------4s--7--L--L--|
-------------------------|--------8-----6--5--------|-----3--L------6--L--|
-------------------------|-----------5--------4--3--|--4--L--L---------7--|
--6--------7--4----------|-----5--------------------|---------------------|
-----5-----------6-------|--7-----------------------|---------------------|
--------7----------------|--------------------------|---------------------|


  E  E  E  E  E  E  E  E     E  E  E  E  E  E     E  E  E  E  E  E  E  E
--------------------------|--------------------|--------------------------|
--------------------------|--------------------|--------8-----6--5--------|
--7--------------8--5-----|-----------6--------|-----------5--------4--3--|
-----5--------6--------3--|--------4-----5-----|-----5--------------------|
--------3--4--------------|--1--2--------3-----|--7-----------------------|
--------------------------|--------------1-----|--------------------------|


  E  E  E   E  E  E     E  E  E  E  E  E  E  E     E  E  E  E  H.
--------4s--7--L--L--|--------------------------|---------------------------|
-----3--L------6--L--|--------------------------|---------------------------|
--4--L--L---------7--|--7--------------8--5-----|-----------6---------------|
---------------------|-----5--------6--------3--|--------4-----5------------|
---------------------|--------3--4--------------|--1--2--------3------------|
---------------------|--------------------------|--------------1------------|


  PM PM                                     PM PM
  E  E  E  E  E  E     E  E  E  E  E  E     E  E  E  E  E  E
--------------------|--------------------|--------------------|
--------------------|--------------------|--------------------|
-----------------6--|--7-----------------|-----------------6--|
--------5-----4-----|-----5-----6--------|--------5-----4-----|
-----3-----2--------|--------3-----4-----|-----3-----2--------|
--1-----------------|-----------------2--|--1-----------------|


                       PM PM
  E  E  E  E  E  E     E  E  E  E  E  E     E  E  E  E  E  E
--------------------|--------------------|--------------------|
--------------------|--------------------|--------------------|
--7-----------------|-----------------6--|--7-----------------|
-----5-----6--------|--------5-----4-----|-----5-----6--------|
--------3-----4-----|-----3-----2--------|--------3-----4-----|
-----------------2--|--1-----------------|-----------------2--|


  E  E  E  E  E  E     E  E  E  E  E  E     E  E  E  E  E  E
--------------------|--------------------|--------------------|
--------------------|--------------------|--------------------|
--8--------------7--|--6--------------5--|--9-----------------|
-----6--------5-----|-----4--------3-----|-----7-----8--------|
--------4--3--------|--------2--1--------|--------5-----6-----|
--------------------|--------------------|-----------------4--|


  PM PM                                     PM PM
  E  E  E  E  E  E     E  E  E  E  E  E     E  E  E  E  E  E
--------------------|--------------------|--------------------|
--------------------|--------------------|--------------------|
-----------------8--|--9-----------------|-----------------8--|
--------7-----6-----|-----7-----8--------|--------7-----6-----|
-----5-----4--------|--------5-----6-----|-----5-----4--------|
--3-----------------|-----------------4--|--3-----------------|


                       PM PM
  E  E  E  E  E  E     E  E  E  E  E  E     E  E  E  E  E  E  E  E
--------------------|--------------------|--------------------------|
--------------------|--------------------|--------8-----6--5--------|
--9-----------------|-----------------8--|-----------5--------4--3--|
-----7-----8--------|--------7-----6-----|-----5--------------------|
--------5-----6-----|-----5-----4--------|--7-----------------------|
-----------------4--|--3-----------------|--------------------------|


  PM PM                                     PM PM
  E  E  E  E  E  E     E  E  E  E  E  E     E  E  E  E  E  E
--------------------|--------------------|--------------------|
--------------------|--------------------|--------------------|
-----------------6--|--7-----------------|-----------------6--|
--------5-----4-----|-----5-----6--------|--------5-----4-----|
-----3-----2--------|--------3-----4-----|-----3-----2--------|
--1-----------------|-----------------2--|--1-----------------|


                       PM PM
  E  E  E  E  E  E     E  E  E  E  E  E     E  E  E  E  E  E
--------------------|--------------------|--------------------|
--------------------|--------------------|--------------------|
--7-----------------|-----------------6--|--7-----------------|
-----5-----6--------|--------5-----4-----|-----5-----6--------|
--------3-----4-----|-----3-----2--------|--------3-----4-----|
-----------------2--|--1-----------------|-----------------2--|


  E  E  E  E  E  E     E  E  E  E  E  E     E  E  E  E  E  E
--------------------|--------------------|--------------------|
--------------------|--------------------|--------------------|
--8--------------7--|--6--------------5--|--9-----------------|
-----6--------5-----|-----4--------3-----|-----7-----8--------|
--------4--3--------|--------2--1--------|--------5-----6-----|
--------------------|--------------------|-----------------4--|


  PM PM                                     PM PM
  E  E  E  E  E  E     E  E  E  E  E  E     E  E  E  E  E  E
--------------------|--------------------|--------------------|
--------------------|--------------------|--------------------|
-----------------8--|--9-----------------|-----------------8--|
--------7-----6-----|-----7-----8--------|--------7-----6-----|
-----5-----4--------|--------5-----6-----|-----5-----4--------|
--3-----------------|-----------------4--|--3-----------------|


                       PM PM
  E  E  E  E  E  E     E  E  E  E  E  E     E  E  E  E  E  E  E  E
--------------------|--------------------|--------------------------|
--------------------|--------------------|--------8-----6--5--------|
--9-----------------|-----------------8--|-----------5--------4--3--|
-----7-----8--------|--------7-----6-----|-----5--------------------|
--------5-----6-----|-----5-----4--------|--7-----------------------|
-----------------4--|--3-----------------|--------------------------|


  E  E  E   E  E  E  Q       E  E  E   E  E  E       H.
--------4s--7--L--L--L----|---------------------|-----------------|
-----3--L------6--L--L----|------------------8--|--/11------------|
--4--L--L---------7--L----|---------------7-----|-----------------|
--------------------------|--------5s--9--------|-----------------|
--------------------------|-----7---------------|-----------------|
--------------------------|--5------------------|-----------------|


  H.               S  S  S  S  S  S  S  S  S  S  S  S  S  S  S  S
---------------|--------------------------------------------------|
--L------------|--------------------------------------------------|
---------------|--------------------------------------------10-12-|
---------------|-----------10-12-10----------------10-12-13-------|
---------------|--10-11-13----------13-11-10-11-13----------------|
---------------|--------------------------------------------------|


  E   S S  S S E  E   S  S  S  S  S  S     S  S E  E   S  S E  S S E  E
---------------------------------------|--11-16-------11-10----9---8-----|
-----12---11---------15-11----------12-|--------------11-10----9---8-----|
-----11---10---------------12----13----|---------------------------------|
------9----8------------------12-------|---------------------------------|
---------------------------------------|---------------------------------|
---------------------------------------|---------------------------------|


   S  S  S S S S  S  S S S S  S E   E
-----------------------7-8-9-10----12--|
--12-11-10-9-8-9-10-11-------------11--|
-----------------------------------12--|
---------------------------------------|
---------------------------------------|
---------------------------------------|


   S  S  S  S E  S  S  S  S E  S  S  S  S
------------------------------------------|
--14-11-----------------------------------|
--------12--------------------------------|
-----------14--------------------10-11-13-|
-----------------9-10-12-13---------------|
------------------------------------------|


   S S  S  S  S  S S  S  S  S  S S Q
----------------------------------------|
---------------------13-14-16-17--------|
-------11-12-14-15----------------------|
--14------------------------------------|
----------------------------------------|
----------------------------------------|


   S  S  S  S  S  S  S  S  S  S  S  S  S  S  S  S
--------------------------------------------------|
--------------------------------------------------|
--------------------------------------------13-15-|
-----------13-15-13----------------13-15-17-------|
--13-15-17----------17-15-13-15-17----------------|
--------------------------------------------------|


  E   S S  S S E  E   S  S  S  S  S  S     S  S E  E   S S E  S S E  E
---------------------13-10-------------|-----11-------------------------|
---------------------------11----------|--12----------------------------|
-----11---10------------------10----13-|--------------10-9----8---7-----|
------9----8---------------------14----|--------------10-9----8---7-----|
---------------------------------------|--------------------------------|
---------------------------------------|--------------------------------|


   S  S  S S S S  S  S S S  S  S E   E
----------------------------------------|
-----------------------8-9-10-11----11--|
--12-11-10-9-8-9-10-11--------------12--|
----------------------------------------|
----------------------------------------|
----------------------------------------|


   S  S  S  S E  S S  S  S E  S S S  S
---------------------------------------|
--17-14--------------------------------|
--------15----------------------8-9-11-|
-----------17----7-8-10-11-------------|
---------------------------------------|
---------------------------------------|


   S S  S  S  S  S S  S  S  S  S S Q
---------------------11-12-14-15--------|
-------10-11-13-14----------------------|
--12------------------------------------|
----------------------------------------|
----------------------------------------|
----------------------------------------|


   S  S  S  S  S  S  S  S  S  S  S  S  S  S  S  S
--------------------------------------------------|
--------------------------------------------------|
-----------17-19-17----------------17-19-17-------|
--17-18-20----------20-18-17-18-20----------20-18-|
--------------------------------------------------|
--------------------------------------------------|


   S  S  S  S  S  S  S  S Q       H
-------------------------------|-----------|
--------------------18-20------|-----------|
-----------17-19-20------------|-----------|
--17-18-20---------------------|--7--------|
-------------------------------|--5--------|
-------------------------------|--5--------|


    Q     Q     Q     Q     Q       Q      H        E   E   Q
---------------15----------------|---------------------------------|
--/12----13----------------------|-------------------------12br----|
---------------------12----10----|---------------------------------|
---------------------------------|--9br----L--------L\-------------|
---------------------------------|---------------------------------|
---------------------------------|---------------------------------|


  W                Q       W                Q          Q     Q     Q     Q     Q
------------------------|-------------------------|---------------15----------------|
--L----------------L----|--L----------------L\----|--/12----13----------------------|
------------------------|-------------------------|---------------------12----10----|
------------------------|-------------------------|---------------------------------|
------------------------|-------------------------|---------------------------------|
------------------------|-------------------------|---------------------------------|


                                                               \0/
  Q      H        E   E     Q         H         E   E   E   E  Q
-----------------------------------|-----------19--15------15--L----|
-------------------------AH12br----|--L----------------18-----------|
-----------------------------------|--------------------------------|
--9br----L--------L\---------------|--------------------------------|
-----------------------------------|--------------------------------|
-----------------------------------|--------------------------------|


  H        Q     H            E   E   E   E   E   E   E  E    E   E
--L--------L\-------------|--19--15--------------15--19--Lbr--L--15--|
--------------------------|----------18------18----------------------|
--------------------------|--------------16--------------------------|
--------------------------|------------------------------------------|
--------------------------|------------------------------------------|
--------------------------|------------------------------------------|


   E   E   E   E   E   E   E  E    E   E
--17--13--------------13--17--Lbr--L--13--|
----------15------15----------------------|
--------------14--------------------------|
------------------------------------------|
------------------------------------------|
------------------------------------------|


   E   E   E   E   E   E   E  E    E   E
--19--15--------------15--19--Lbr--L--15--|
----------18------18----------------------|
--------------16--------------------------|
------------------------------------------|
------------------------------------------|
------------------------------------------|


   E   E   E   E   E   E   E   E   E   E
--22--19--20--19--------------------------|
------------------20----------------------|
----------------------19--17--16--17--16--|
------------------------------------------|
------------------------------------------|
------------------------------------------|


   E   E   E   E   E   E   E  E    E   E
--19--15--------------15--19--Lbr--L--15--|
----------18------18----------------------|
--------------16--------------------------|
------------------------------------------|
------------------------------------------|
------------------------------------------|


   E   E   E   E   E   E   E  E    E   E
--17--13--------------13--17--Lbr--L--13--|
----------15------15----------------------|
--------------14--------------------------|
------------------------------------------|
------------------------------------------|
------------------------------------------|


   E   E   E   E   E   E   E  E    E   E
--19--15--------------15--19--Lbr--L--15--|
----------18------18----------------------|
--------------16--------------------------|
------------------------------------------|
------------------------------------------|
------------------------------------------|


   |----3----|   |---3---|
   E    E    E   E   E   E   E   E   E   E   E   E
--19h--22p--19--------------------------------------|
----------------20----------------------------------|
--------------------19--17--16----------------------|
--------------------------------17------------------|
------------------------------------17--15--14p--0--|
----------------------------------------------------|


          /6        \6
  Q       H         H        H           H.
-------AH(7)--------L-----------------|---------------||
--------------------------------------|---------------||
--------------------------------------|---------------||
--------------------------------------|---------------||
--0-----------------------------------|---------------||
--------------------------------------|---------------||



Duration Legend
---------------
W - whole
H - half
Q - quarter
E - 8th
S - 16th
T - 32nd
X - 64th
. - note dotted
|-n-|  - n-tuplets


Tablature Legend
----------------
L - tied note
x - dead note
g - grace note
(n) - ghost note
> - accentuded note
NH - natural harmonic
AH - artificial harmonic
TH - tapped harmonic
SH - semi harmonic
PH - pitch harmonic
h - hammer on
p - pull off
b - bend
br - bendRelease
pb - preBend
pbr - preBendRelease
brb - bendReleaseBend
\n/ - tremolo bar dip
\n - tremolo bar dive
-/n - tremolo bar Release up
/n\ - tremolo bar inverted dip
/n - tremolo bar return
-\n - tremolo bar Release down
S - shift slide
s - legato slide
/ -  slide into from below or out of upwards
\ -  slide into from above or out of downwards
~ - vibrato
W - wide vibrato
tr - trill
TP - tremolo picking
T - tapping
S - slap
P - pop
< - fade in
^ - brush up
v - brush down
comments
We did not receive enough feedback on this tab! Please rate:
print report bad tab
1 2 3 4 5
2 comments total.
0 reply
escalade wrote on October 30 2008, 04:48 pm

thank you

0 reply
Dregen wrote on October 31 2008, 08:50 pm

Thank Dreamworld4321, I just put it in text :)

I'm glad it helped someone.

I want to post or [tab]
guest
You may want to rate the tab now too:
select rating
Please do not post tabs as comments. Select "correction" instead!