Oops, an error
Loading. Please wait.

Prequel To The Sequel Bass Tab

10,827 views 3 this week
no commentswrite comment
1 2 3 4 5
excellent!
x 2
Autoscroll
+/-
esc
set tempo
stop
WARNING: You are trying to view
                                    content from Ultimate-Guitar.com
                                    in an unauthorized application,
                                    which is prohibited.

                                    Please use an official Ultimate
                                    Guitar Tabs application for iPhone,
                                    iPad or Android to access legitimate
                                    chords, guitar, bass, and drum tabs
                                    from Ultimate-Guitar.com database.

                                    Type "ultimate guitar tabs" in Apple
                                    App Store's or Android Market's
                                    search to find the application.
#----------------------------------PLEASE NOTE---------------------------------#
#This file is the author's own work and represents their interpretation of the #
#song. You may only use this file for private study, scholarship, or research. #
#------------------------------------------------------------------------------#

PREQUEL TO THE SEQUEL (Bassline)
As recorded by Between The Buried & Me
(From the 2007 Album COLORS)


Transcribed by Austin Mills

 Words and Music by Between The Buried & Me

 

Gtr I (Ab Db Gb B E) - 'w/finger'


    Fast Metal Q=204
   4/4
    Gtr I
    W          +W           +W           +W
||-----------|------------|------------|--------|
||o----------|------------|------------|--------|
||-----------|------------|------------|--------|
||o-0--------|-(0)--------|-(0)--------|-(0)----|
||-----------|------------|------------|--------|


  1.
  W          +W           +W           +W
|----------|------------|------------|---------||
|----------|------------|------------|--------o||
|-5--------|-(5)--------|-(5)--------|-(5)-----||
|----------|------------|------------|--------o||
|----------|------------|------------|---------||


  2.
  Q  E Q.   Q    Q  E E E Q.     +Q   Q  E Q.     S S E E E E E E E
|--------------|---------------|----------------|-6h7p6-------------||
|--------------|---------------|----------------|-------7---------4-||
|-5--5-5----5--|----3h5-5-5----|-(5)--5--5-5----|---------7-5-5-7---||
|--------------|---------------|----------------|-------------------||
|--------------|-3-------------|----------------|-------------------||


    Q.   E E E Q    +E  E Q  E E E E   Q.   E E E Q    +E  E Q  E E Q
||----------------|------------------|---------------|----------4---2--|
||o--------2-2----|-------2--2-2-2-2-|--------2-2----|-------2----2----|
||----------------|------------------|---------------|-----------------|
||o-0----0-----0--|-(0)-0------------|-0----0-----0--|-(0)-0-----------|
||----------------|------------------|---------------|-----------------|


  Q  E E E E Q    +E  E E E E E E E   Q  E E E E E E   E E E E E E E E
|--------7-7----|-----------7-7-7-7-|--------7-----4-|---6h7---2h4p2----|
|---------------|-------------------|----------7p0---|-0-----0-------2--|
|-5--5-5-----5--|-(5)-5-5-5---------|-5--5-5---------|------------------|
|---------------|-------------------|----------------|------------------|
|---------------|-------------------|----------------|------------------|


  Q  E E E E E E   +E  E E E E E E E   Q  E E E E E E   +E  E E E E E Q
|----------------|-------------------|--------6-4-----|-------------------|
|--------7-7-7---|-----------7-7-7-7-|------------7-6-|-(6)-4-------------|
|----------------|-------------------|----------------|-------7-6-7-6-----|
|-5--5-5-------5-|-(5)-5-5-5---------|-5--5-5---------|---------------5---|
|----------------|-------------------|----------------|-------------------|


  Q  Q  Q  Q    Q  Q  Q  Q    Q  Q  Q  Q    E E E E E E E E
|-------------|-------------|-4--4--4--4--|-4-4-4-4-4-4-4-4---||
|-------------|-------------|-------------|------------------o||
|-2--2--2--2--|-2--2--2--2--|-------------|-------------------||
|-------------|-------------|-------------|------------------o||
|-------------|-------------|-------------|-------------------||


  |-3-| |-3-| |-3-| |-3-|   |-3-| |-3-|
  E E E E E E E E E E E E   Q Q Q Q Q Q
|-8p6p4-----------4h6p4---|-------------||
|-------7p6p4-6h7-------7-|-6-4---6-4---||
|-------------------------|-----7-----6-||
|-------------------------|-------------||
|-------------------------|-------------||


  Slower Q=120
  H    E E Q    Q.   E S S E E E   H    E E E +E     Q.   E Q  Q
|------4-6-9--|--------4h6-9-8-4-|-----------------|--------------|
|-------------|------4-----------|------2-4-8-(8)\-|--------4-----|
|-4-----------|-2----------------|-1---------------|--------------|
|-------------|------------------|-----------------|-2----2----2--|
|-------------|------------------|-----------------|--------------|


  Q  Q  Q  Q    Q  Q  Q  E +E     Q  Q  Q  Q    Q  Q  Q  Q
|-------------|-----------------|-------------|---------------|
|-------6-----|-----------------|-------------|---------------|
|-------------|-6--6--6--6-(6)\-|-2--2--2--2s=|=9--9--9--9\---|
|-4--4-----4--|-----------------|-------------|---------------|
|-------------|-----------------|-------------|---------------|


  E Q  Q.   Q    E Q  Q  E Q    S S E Q  S E. Q
|--------------|--------------|------------------|
|--------------|--------------|------------------|
|------4-------|-5-5----------|-4-4---5----------|
|-4---------5--|------4--4-4--|----------0-0--5--|
|--------------|--------------|------------------|


 5/4
  S S S S S S S S S S S S Q  Q
|-8p6p4-----------4h6p4---------||
|-------7p6p4-6h7-------7-6-----||
|-------------------------------||
|----------------------------4--||
|-------------------------------||


   Faster Q=130
  4/4
   W          +W
||----------|--------||
||----------|--------||
||----------|--------||
||-5--------|-(5)----||
||----------|--------||


            7/8                     4/4
  W          H    Q.     H    Q.     W
|----------|-----------|-----------|------|
|----------|-----------|-----------|------|
|----------|-----------|-5----5----|-5----|
|-0--------|-0----0----|-----------|------|
|----------|-----------|-----------|------|


                            7/8
    S S S S E S S E S S Q    S S S S E S S Q.
||-------------------------|--------------------|
||o------------------------|--------------------|
||-------------------------|--------------------|
||o-0-0-0-0---0-0---0-0----|-0-0-0-0---0-0------|
||-------------------------|--------------------|


 4/4                      7/8
  S S S S E S S E S S Q    S S S S E S S Q.
|------------------------|--------------------|
|------------------------|--------------------|
|------------------------|--------------------|
|-0-0-0-0---0-0---0-0----|-0-0-0-0---0-0------|
|------------------------|--------------------|


                      4/4
  S S S S E S S Q.     S S S S E S S E S S Q
|--------------------|------------------------|
|--------------------|------------------------|
|--------------------|------------------------|
|--------------------|------------------------|
|-3-3-3-3---3-3------|-3-3-3-3---3-3---3-3----|


 7/8                  4/4
  S S S S E S S Q.     S S S S E S S E S S Q
|--------------------|--------------------------||
|--------------------|-------------------------o||
|--------------------|--------------------------||
|--------------------|-------------------------o||
|-3-3-3-3---3-3------|-3-3-3-3---3-3---3-3------||


  S S S S E S S E S S Q    S S S S E S S Q.   S S
|------------------------|------------------------|
|------------------------|------------------------|
|------------------------|------------------------|
|-4-4-4-4---4-4---4-4----|-4-4-4-4---4-4------4-4-|
|------------------------|------------------------|


                          3/4
  S S E S S E S S Q  S S   S S E S S Q.
|------------------------|-----------------|
|------------------------|-----------------|
|------------------------|-----------------|
|-4-4---4-4---4-4----4-4-|-4-4---4-4-------|
|------------------------|-----------------|


 4/4
  S S S S E S S E S S Q    S S S S E S S Q.   S S
|------------------------|------------------------|
|------------------------|------------------------|
|------------------------|------------------------|
|-1-1-1-1---1-1---1-1----|-1-1-1-1---1-1------1-1-|
|------------------------|------------------------|


                          3/4
  S S E S S E S S Q  S S   S S E S S Q.
|------------------------|-----------------||
|------------------------|-----------------||
|------------------------|-----------------||
|-1-1---1-1---1-1----1-1-|-1-1---1-1-------||
|------------------------|-----------------||


 4/4            2/4        4/4
  Q.   Q.   Q    +E  Q.     W          +W
|--------------|----------|----------|--------|
|--------------|----------|----------|--------|
|--------------|----------|----------|--------|
|-4----0----1--|-(1)-2----|----------|--------|
|--------------|----------|-0--------|-(0)----|


                2/4        4/4
                            |-3-| |-3-| |-3-| |-3-|
  Q.   Q.   Q    +E  Q.     E E E E E E E E E E E E
|--------------|----------|-------------------------|
|--------------|----------|-------3-3-3-------3-3-3-|
|--------------|----------|-------------------------|
|-4----0----1--|-(1)-2----|-1-1-1-------1-1-1-------|
|--------------|----------|-------------------------|


  |-3-| |-3-| |-3-| |-3-|
  E E E E E E E E E E E E
|--------------------------||
|-------3-3-3-------3-3-3--||
|--------------------------||
|-1-1-1-------1-1-1--------||
|--------------------------||


   Faster Q.=130
  6/8
   E E E E E E   W
||-------------|------||
||-3---------6-|------||
||---2-----5---|------||
||-----1-4-----|------||
||-------------|------||


    Q.   Q.     Q  E Q.     Q  E E Q    E E E E E E
||------------|------3----|-4---------|-------------|
||o-----------|-3--2------|----3-6----|-------------|
||-------2----|-----------|--------5--|-------2---2-|
||o-1---------|-----------|-----------|-0-4-7---1---|
||------------|-----------|-----------|-------------|


  Q.   Q.     Q  E Q.     Q  E E Q    Q.   Q.
|-----------|------3----|-4---------|-----------|
|-----------|-3--2------|----3-6----|-----------|
|------2----|-----------|--------5--|------5----|
|-1---------|-----------|-----------|-4---------|
|-----------|-----------|-----------|-----------|


  Q.   Q.     Q  E Q.     E E E E E E   E E E E E E
|-----------|-----------|-------------|--------------||
|-----------|-----------|-------------|-------------o||
|------5----|-4----2----|-------------|-5-5-5-5------||
|-4---------|----1------|-0-0-0-4-7-4-|---------6-6-o||
|-----------|-----------|-------------|--------------||


                 H.=H
                            9/8
  E E E E E E    E Q  E Q    E Q  E S S E E E E
|-------------||-----------|--------------------|
|-------------||-----------|--------------------|
|-5-5-5-5-----||-----------|------4-4-4-4-4-----|
|---------6-6-||------5----|----------------5-5-|
|-------------||-3---------|-0------------------|


  Slower Q.=90
 6/8
  S S S S S S S S S S S S   E E E E E E
|-3-----------------------|---------------||
|---5-4-3-2-0-------------|---------------||
|-------------1-----------|---------------||
|---------------3-2-1-0-4-|-----4-3-0-1---||
|-------------------------|-3-5-----------||


    E E E E E S S   E E E E E E   E E E E E E   E E E E E E
||----------------|-------------|-------------|-------------|
||o---------------|-------------|-------------|-----7-------|
||------------5---|-------------|-------------|-5-5---5-----|
||o-0-0-0-1-1---7-|-6-0-4-4s1-1-|-----1-----4-|-------------|
||----------------|-------------|-0-3---3-6---|---------4-4-|


                                             1.
  E E E E E S S   E E E E E E   E E E E E E   E E E E E E
|---------------|-------------|-------------|--------------||
|---------------|-------------|-------------|-----7-------o||
|-----------5---|-------------|-------------|-5-5---5------||
|-0-0-0-1-1---7-|-6-0-4-4s1-1-|-----1-----4-|---------6-6-o||
|---------------|-------------|-0-3---3-6---|--------------||


   2.H           Faster Q=120
                3/4
   E E E E E E   E E E E E E
||-------------|-------------||
||-----7-------|-6---6---6---||
||-5-5---5-5-5-|---5---5---5-||
||-------------|-------------||
||-------------|-------------||


 4/4                      7/8
  S S S S E S S E S S Q    S S S S E S S E E E
|------------------------|---------------------|
|------------------------|---------------------|
|------------------------|---------------5-----|
|-4-4-4-4---4-4---4-4----|-4-4-4-4---4-4---4---|
|------------------------|---------------------|


 4/4                      7/8
  S S S S E S S E S S Q    S S S S E S S E E E
|------------------------|---------------------|
|------------------------|---------------------|
|------------------------|---------------5---4-|
|-4-4-4-4---4-4---4-4----|-4-4-4-4---4-4---4---|
|------------------------|---------------------|


 4/4                      7/8
  S S S S E S S E S S Q    S S S S E S S E E E
|------------------------|---------------------|
|------------------------|---------------------|
|------------------------|---------------8---7-|
|-6-6-6-6---6-6---6-6----|-6-6-6-6---6-6---6---|
|------------------------|---------------------|


 4/4                      7/8
  S S S S E S S E S S Q    S S S S E S S S S S S S S
|------------------------|----------------------------|
|------------------------|----------------------------|
|------------------------|-----------6-5-----------5--|
|-6-6-6-6---6-6---6-6----|-6-6-6-6-------8-7-6-5-6----|
|------------------------|----------------------------|


   4/4                      7/8
    S S S S E S S E S S Q    S S S S E S S E E E
||-------------------------|----------------------||
||o------------------------|---------------------o||
||-------------------------|---------------5---4--||
||o-4-4-4-4---4-4---4-4----|-4-4-4-4---4-4---4---o||
||-------------------------|----------------------||


   5/4
    S S S S E. E S S S H      S S S S E. E S S S S S E +Q
||--------------------------|--------------5------------------||
||o-------------------------|---1-2-3-4--3---4-3-1-3-4-(4)---o||
||--------4-5--4-2h4p2-1----|-2-------------------------------||
||o-4-5-7-------------------|--------------------------------o||
||--------------------------|---------------------------------||


  S S S S E. E S S S H      S S S S E. E S S S S S E S E.
|-------------------------|--------------5-----------2----|
|-------------------------|---1-2-3-4--3---4-3-1-3-4---1--|
|-------4-5--4-2h4p2-1----|-2-----------------------------|
|-4-5-7-------------------|-------------------------------|
|-------------------------|-------------------------------|


   4/4                    3/4                4/4
    S S S S E S E E S Q    S S S S E S E E.   S S S S E S E E S Q
||-----------------------|------------------|----------------------|
||o-----------6-----7----|-----------6------|-----------6-----7----|
||--------4-5-----5---6--|-------4-5-----5--|-------4-5-----5---6--|
||o-4-5-7-------4--------|-4-5-7-------4----|-4-5-7-------4--------|
||-----------------------|------------------|----------------------|


  S S S S E S E E. S S S S   E S S S E. S S S S S S S S
|--------------------------|----------------------------|
|-----------6--------------|----------------------------|
|-------4-5-----5--4-------|---4-----5--5---------------|
|-4-5-7-------4------6-5-3-|-2---3-2------7-6-5-3p0-0-0-|
|--------------------------|----------------------------|


  E S S S E. S S S S S S S S   E S S S E. S S S S S S S S
|----------------------------|----------------------------|
|----------------------------|----------------------------|
|---4-----5--5---------------|---4-----5--5---------------|
|-2---3-2------7-6-5-3p0-0-0-|-2---3-2------7-6-5-3p0-0-0-|
|----------------------------|----------------------------|


  E S S S E. S S S S S S S S     S S S S S S S S S S S S S S S S
|-----------------------------||----------------------------------||
|----------------------------o||----------------------------------||
|---4-----5--5----------------||----------------------------------||
|-2---3-2------7-6-5-3p0-0-0-o||-8-8-8-8-8-8-8-8-7-7-7-7-6-6-5-5--||
|-----------------------------||----------------------------------||


  S S E S S E S S S S +S  S E   S S E S S E S S S S +S  S E
|-----------------------------|-----5-----5-----5---------5-|
|-----6-----6-----6---------6-|-----------------------------|
|-----------------------------|-3-3---3-3---3-3---3-(3)-3---|
|-4-4---4-4---4-4---4-(4)-4---|-----------------------------|
|-----------------------------|-----------------------------|


  S S E S S E S S S S +S  S E   S S  E S S  E Q   E  +E
|-----8-----8-----8---------8-|-----10-----10-------------|
|-----------------------------|---------------------------|
|-6-6---6-6---6-6---6-(6)-6---|-8-8----8-8----9--10-(10)\-|
|-----------------------------|---------------------------|
|-----------------------------|---------------------------|


  S S S S S S S S S S S S S S S S   S S S S S S S S S S S S S S S S
|---------------------------------|----------------------------------|
|---------------------------------|----------------------------------|
|---------------------------------|-----------------3-3-3-3-3-3-3-3--|
|-4-4-4-4-4-4-4-4-4-4-4-4-4-4-4-4-|----------------------------------|
|---------------------------------|-1-1-1-1-1-1-1-1------------------|


  S S S S S S S S S S S S S S S S   S S  S S S S  S  S Q   E  +E      W
|---------------------------------|--------------------------------||------||
|---------------------------------|--------8-9-8-------------------||------||
|-----------------6-6-6-6-6-6-6-6-|-8-9-11-------11-10-9--10-(10)\-||------||
|---------------------------------|--------------------------------||------||
|-4-4-4-4-4-4-4-4-----------------|--------------------------------||------||


 5/8        2/4     5/8        2/4     7/8
  E E Q.     Q  Q    E E Q.     Q  Q    E  E  E Q  Q
|----------|-------|----------|-------|---------------|
|----------|-------|----------|----7--|-8----------7--|
|-5---5----|-7-----|-7---7----|-8-----|---10----------|
|---5------|----9--|---5------|-------|------10-5-----|
|----------|-------|----------|-------|---------------|


 5/8
  E E Q  E   E E Q  E   E E E E E   S S S S S S S S S S
|----------|----------|-----------|---------------------|
|----------|--------5-|-------5-7-|-8-7-5-----------5-7-|
|-5---5--8-|-7---7----|-8-7-8-----|-------8-7-5-7-8-----|
|---5------|---5------|-----------|---------------------|
|----------|----------|-----------|---------------------|


            2/4       5/8          2/4      7/8
  Q  E E E   E  E Q    E E  Q   E   Q  E E    E  E  E E E Q
|----------|-9-10----|---------12-|-7------|----12------6-----|
|----7-5-7-|------7--|-8-7--------|----8-7-|----------7-------|
|-5--------|---------|-----10-----|--------|-10----10-----4---|
|----------|---------|------------|--------|------------------|
|----------|---------|------------|--------|------------------|


 5/8                   2/4      5/8         4/4
  E E E Q    E E E Q    Q  E E   E E E E E   E +E   Q  E +E   Q
|----------|----------|--------|-----------|---------------------||
|----------|----------|-7------|-----7---7-|---------------------||
|----------|-3--------|----5-7-|-----------|---------------------||
|----------|-----5----|--------|-5-5---5---|-6-(6)\----5-(5)\----||
|-3---3----|----------|--------|-----------|---------------------||


 5/4
  Q  Q  Q  Q  Q    Q  Q  Q  Q  Q    Q  Q  Q  Q  Q    Q  Q  e E +H
|----------------|----------------|----------------|------------------|
|----------------|----------------|----------------|---------7-(7)----|
|-5--------------|-5--------------|-5--------------|-5----------------|
|-------5-----5--|-------5-----5--|-------6-----6--|-------5----------|
|----------------|----------------|----------------|------------------|


                                                      6/4
    Q  Q  Q  Q  Q    Q  Q  Q  Q  Q    Q  Q  Q  Q  Q    Q  Q  Q  Q  Q  Q
||-----------------|----------------|----------------|----------------------||
||o----------------|----------------|----------------|---------------------o||
||--5--------------|-5--------------|-5--------------|-8-----8--------------||
||o-------5-----5--|-------5-----5--|-------6-----6--|----------5-----5----o||
||-----------------|----------------|----------------|----------------------||


 3/4
  Q  Q  Q    Q  Q  Q    Q  Q  Q    Q  Q  Q
|----------|----------|----------|----------|
|----------|----------|----------|----------|
|----------|-5-----5--|----------|-5-----5--|
|-6-----6--|----------|-5-----5--|----------|
|----------|----------|----------|----------|


  Q  Q  Q    Q  Q  Q    Q  Q  Q    Q  Q  Q    Q  Q  Q
|----------|----------|----------|----------|----------|
|----------|----------|----------|----------|----------|
|----------|----------|----------|-3-----3--|----------|
|-3-----3--|-6-----6--|-4-----4--|----------|-6-----6--|
|----------|----------|----------|----------|----------|


  Q  Q  Q    Q  Q  Q    Q  Q  Q    Q  Q  Q    Q  Q  Q
|----------|----------|----------|----------|----------||
|----------|----------|----------|----------|----8-----||
|-5-----5--|----------|-5-----5--|----------|----------||
|----------|-5-----5--|----------|-3-----3--|-6-----6--||
|----------|----------|----------|----------|----------||


                        H=H
   H.        +H.        E E E E E E   E E E E E E
||---------|----------|-------------|-------------||
||---------|----------|-------------|-7-7-7-7-7-7-||
||---------|----------|-------------|-------------||
||-5-------|-(5)------|-5-5-5-5-5-5-|-------------||
||---------|----------|-------------|-------------||


    Faster Q=150
    E E E E E E   E E E E E E   E E E E E E   E E E E E E
||--------------|-------------|-------------|-------------|
||o-------------|-------------|-------------|-------------|
||--------------|-5-5-5-5-5-5-|-------------|-5-5-5-5-5-5-|
||o-6-6-6-6-6-6-|-------------|-5-5-5-5-5-5-|-------------|
||--------------|-------------|-------------|-------------|


  E E E E E E   E E E E E E   E E E E E E   E E E E E E
|-------------|-------------|-------------|--------------||
|-------------|-------------|-------------|-------------o||
|-------------|-1-1-1-1-1-1-|-------------|-3-3-3-3-3-3--||
|-3-3-3-3-3-3-|-------------|-4-4-4-4-4-4-|-------------o||
|-------------|-------------|-------------|--------------||


    E E E E E E   E E E E E E   E E E E E E   E E E E E E
||--------------|-------------|-------------|-------------|
||o-------------|-------------|-------------|-------------|
||--------------|-------------|-------------|-------------|
||o-6-6-6-------|-6-6-6-------|-5-5-5-------|-5-5-5-------|
||--------3-3-3-|-------3-3-3-|-------3-3-3-|-------3-3-3-|


  E E E E E E   E E E E E E   E E E E E E   E E E E E E
|-------------|-------------|-------------|--------------||
|-------------|-------------|-------------|-------------o||
|-------1-1-1-|-------1-1-1-|-------3-3-3-|-------3-3-3--||
|-3-3-3-------|-3-3-3-------|-4-4-4-------|-4-4-4-------o||
|-------------|-------------|-------------|--------------||


   Faster Q=180     Faster Q=200
  4/4
   Q  Q  E E E E    E E H.        W          W
||---------------||-------------|----------|------||
||---------------||-------------|----------|------||
||----3--------4-||-------------|----------|------||
||-4-----3-5-6---||-5-----------|----------|------||
||---------------||-------------|----------|------||


    E E E E E E E E   E E E E E E E E   E E E E E E E E   E E E E E E E E  4x
||------------------|-----------------|-----------------|------------------||
||o-----------------|-----------------|-----------------|-----------------o||
||------------------|-----------------|-----------------|-3---3s6s3-----2--||
||o-1-1-1-1-1-1-1-1-|-1-1-1-1-1-1-1-1-|-1-1-1-1-1-1-1-1-|---2-------2-1---o||
||------------------|-----------------|-----------------|------------------||


  E E E E E E Q      E E E E E E E E   E E E E E E E E
|----------------||------------------|-----------------|
|----------------||o-3---------3-----|-3---------3-----|
|---------1-3----||------------------|-----------------|
|-4-3-1-0--------||o---1-1-1-1---1-1-|---1-1-1-1---1-1-|
|----------------||------------------|-----------------|


  E E E E E E E E   E E E E E E E E
|-----------------|--------------------||
|-3---------3-----|-------------------o||
|-----------------|-3---3s6s3-----2----||
|---1-1-1-1---1-1-|---2-------2-1-----o||
|-----------------|--------------------||


    E E E E E E E E   E E E E E E E E   E E E E E E E E   E E E E E E E E
||------------------|-----------------|-----------------|------------------||
||o-3-3-1-1-3-3-----|-------------1-1-|-3-3-1-1-3-3-----|-----------------o||
||--------------2-2-|-----3-3-1-1-----|-------------2-2-|-3---3s6s3-----2--||
||o-----------------|-1-1-------------|-----------------|---2-------2-1---o||
||------------------|-----------------|-----------------|------------------||


                    3/4                   4/4
  E E E E E E E E    Q  Q  Q    Q  Q  Q    Q.   Q.   Q
|-----------------||----------|----------|---------------|
|---------------2-||----------|----------|---------------|
|---------1-3-4---||----------|----------|---------------|
|-4-3-1-0---------||-1--1--1--|-5--5--5--|-6----4----2---|
|-----------------||----------|----------|---------------|


                               Slower Q=120        Slower Q=110
 3/4                          4/4
                                                   |3|  |-3-|
  E E E E E E   E E E E E  E   E E  E E E E E E    q H  Q Q Q
|-----------7-|-----------11-|------------------||------------||
|-----5---5---|-----9---9----|-----10-----8-----||-6----6-4---||
|---3---3-----|---7---7------|---8------6-----4-||----------6-||
|-1-----------|-5------------|-6------4-----2---||------------||
|-------------|--------------|------------------||------------||


  H    E E Q    Q.   E S S E E E   H    E E E +E     Q.   E Q  Q
|------4-6-9--|--------4h6-9-8-4-|-----------------|--------------|
|-------------|------4-----------|------2-4-8-(8)\-|--------4-----|
|-4-----------|-2----------------|-1---------------|--------------|
|-------------|------------------|-----------------|-2----2----2--|
|-------------|------------------|-----------------|--------------|


  H    Q  Q    H    H      H    Q  E E   Q  Q  E E E +E
|------------|-----------|-------------|-------------------|
|------------|-----------|-------------|-----------7-(7)\--|
|------5-----|-----------|-2----2------|-------5-7---------|
|------------|-5----5----|---------2-4-|-5--5--------------|
|-3-------3--|-----------|-------------|-------------------|


  Q  E E Q  E E   E E E E E E E +E     E E E E E E  E E   E E E E E E E E
|---------------|-------------------|----------9--------|-----------8------|
|---------------|---------6---6-(6)s|=11---6-------11---|-----9---9---9----|
|---------------|-------------------|-------------------|---------------9--|
|-3--3-3-3--3-3-|-4-4-4-4---4-------|----9---9---9----9-|-7-7---7----------|
|---------------|-------------------|-------------------|------------------|


  E E E E E E E E   E E E E E E E E   E E E E E E E E   E E E E E E E E
|-----------------|-----------3-----|-----------------|------------------|
|---------8-------|---------4---4-6-|---------6---6---|------------------|
|-----7-------6---|-----------------|-----------------|---------6--------|
|-6-6---6---7---7-|-2-2-2-2---------|-4-4-4-4---4---4-|------------------|
|-----------------|-----------------|-----------------|-4-4-4-4---4-4-4--|


  E E E E E E E E   E E E E E E E E
|-----------------|-----------------||
|-----------1-----|-----4-------4-4-||
|-----2---2---2-2-|-----------------||
|-----------------|-2-2---2-2-2-----||
|-0-0---0---------|-----------------||


  E Q  Q.   Q    E Q  Q  E Q    S S E Q  S E. Q
|--------------|--------------|------------------|
|--------------|--------------|------------------|
|------4-------|-5-5----------|-4-4---5----------|
|-4---------5--|------4--4-4--|----------0-0--5--|
|--------------|--------------|------------------|


 5/4
  S S S S S S S S S S S S Q  Q
|-8p6p4-----------4h6p4---------|
|-------7p6p4-6h7-------7-6-----|
|-------------------------------|
|----------------------------4--|
|-------------------------------|


 4/4
  Q.   E E E E E   E E E E E E E E   E E E E H       W
|----------------|---------------5-|--------------||------*|
|----------------|-------------7---|-7-----6------||------*|
|-5--------2---2-|---6---2---2-----|---7-6---4----||------*|
|------2-3---0---|-5---3---0-------|--------------||------*|
|----------------|-----------------|--------------||------*|




--------------------------------------------------------------------------------


Duration Legend
---------------
W - whole; H - half; Q - quarter; E - 8th; S - 16th; T - 32nd; X - 64th; a - acciaccatura
+ - note tied to previous; . - note dotted; .. - note double dotted
Uncapitalized letters represent notes that are staccato (1/2 duration)
Irregular groupings are notated above the duration line
Duration letters will always appear directly above the note/fret number it represents the
duration for.  Duration letters with no fret number below them represent rests.  Multi-
bar rests are notated in the form Wxn, where n is the number of bars to rest for.  Low
melody durations appear below the staff

Tablature Legend
----------------
 h   - hammer-on
 p   - pull-off
 b   - bend
 pb  - pre-bend
 r   - bend release (if no number after the r, then release immediately)
 /\  - slide into or out of (from/to "nowhere")
 s   - legato slide
 S   - shift slide
 - natural harmonic
[n]  - artificial harmonic
n(n) - tapped harmonic
 ~   - vibrato
 tr  - trill
 T   - tap
 TP  - trem. picking
 PM  - palm muting
\n/  - tremolo bar dip; n = amount to dip
 \n  - tremolo bar down
 n/  - tremolo bar up
/n\  - tremolo bar inverted dip
 =   - hold bend; also acts as connecting device for hammers/pulls
 <> - volume swell (louder/softer)
 x   - on rhythm slash represents muted slash
 o   - on rhythm slash represents single note slash

Misc Legend
-----------
 |  - bar
||  - double bar
||o - repeat start
o|| - repeat end
*|  - double bar (ending)
 :  - bar (freetime)
 $  - Segno
 &  - Coda
Tempo markers -  = BPM(8/16=s8/s16), where s8 = swing 8ths, s16 = swing 16ths



--------------------------------------------------------------------------------

** Generated using Power Tab Editor by Brad Larsen: The Official Power Tab Web Site
comments
We did not receive enough feedback on this tab! Please rate:
print report bad tab
1 2 3 4 5
I want to post or [tab]
guest
You may want to rate the tab now too:
select rating
Please do not post tabs as comments. Select "correction" instead!