Oops, an error
Loading. Please wait.
ver1
ver1

Intro

Whole song

Interactive

More versions @911Tabs.com
6,284 views 16 this week
2 commentsread comments
1 2 3 4 5
excellent!
x 3
Autoscroll
+/-
esc
set tempo
stop
Contributor
Hey! There's an official Ultimate Guitar app which is ideal
for learning songs when you're away from computer. Get the app
WARNING: You are trying to view
                                    content from Ultimate-Guitar.com
                                    in an unauthorized application,
                                    which is prohibited.

                                    Please use an official Ultimate
                                    Guitar Tabs application for iPhone,
                                    iPad or Android to access legitimate
                                    chords, guitar, bass, and drum tabs
                                    from Ultimate-Guitar.com database.

                                    Type "ultimate guitar tabs" in Apple
                                    App Store's or Android Market's
                                    search to find the application.
----------------------------------------------------------------------------
                           The Primer - Between The Buried And Me
----------------------------------------------------------------------------


 

Gtr 1: Db Gb B E Ab Db)
Gtr 2: Db Gb B E Ab Db 
Gtr 3: Db Gb B E Ab Db
Gtr 4: Db Gb B E Ab Db 
Gtr 5: Db Gb B E Ab Db 
Gtr 6: Db Gb B E Ab Db 

 Intro

  Gtr IV
|-(16)------|-(16)------|-(16)------|-(16)----|
|-(16)------|-(16)------|-(16)------|-(16)----|
|-----------|-----------|-----------|---------|
|-----------|-----------|-----------|---------|
|-----------|-----------|-----------|---------|
|-----------|-----------|-----------|---------|



|-(16)------|-(16)------|-(16)------|-(16)------------||
|-(16)------|-(16)------|-(16)------|-(16)------------||
|-----------|-----------|-----------|-----------------||
|-----------|-----------|-----------|---------6-6-6-6-||
|-----------|-----------|-----------|-----------------||
|-----------|-----------|-----------|-----------------||





||---------------------------|--------------------------|
||o--------------------------|--------------------------|
||--6--6-6-6---------6-6-6-6-|-8--8-8-8-9-9-9-9-8-8-8-8-|
||-----------6-6-6-6---------|--------------------------|
||o--------------------------|--------------------------|
||---------------------------|--------------------------|


||---------------------------|--------------------------|
||o--------------------------|--------------------------|
||--6------------------------|-4------------------------|
||--6------------------------|-4------------------------|
||o-4------------------------|-2------------------------|
||---------------------------|--------------------------|



|--------------------------|-------------------------------|
|--------------------------|-7--7-7-7-9-9-9-9-10-10-10-10--|
|-9--9-9-9-9-9-9-9-9-9-9-9-|-------------------------------|
|--------------------------|-------------------------------|
|--------------------------|-------------------------------|
|--------------------------|-------------------------------|


|--------------------------|-------------------------------|
|--------------------------|-------------------------------|
|-2------------------------|-4-----------------------------|
|-2------------------------|-4-----------------------------|
|-0------------------------|-2-----------------------------|
|--------------------------|-------------------------------|



|--------------------------|--------------------------|
|-9--9-9-9-9-9-9-9---------|-7--7-7-7-9-9-9-9-7-7-7-7-|
|------------------6-6-9-9-|--------------------------|
|--------------------------|--------------------------|
|--------------------------|--------------------------|
|--------------------------|--------------------------|


|--------------------------|--------------------------|
|--------------------------|--------------------------|
|--------------------------|-4------------------------|
|-2------------------------|-4------------------------|
|-2------------------------|-2------------------------|
|-0------------------------|--------------------------|


|--------------------------------|-----------------------------||
|-10--10-10-10-10-10-9-9-7-7-----|------------------7-7-7-7---o||
|----------------------------9-9-|----------8-8-8-8------------||
|--------------------------------|-9--9-9-9--------------------||
|--------------------------------|----------------------------o||
|--------------------------------|-----------------------------||


|--------------------------------|-----------------------------||
|--------------------------------|----------------------------o||
|--------------------------------|-4---------------------------||
|--4-----------------------------|-4---------------------------||
|--4-----------------------------|-2--------------------------o||
|--2-----------------------------|-----------------------------||


|--------------------------|---------------------------|
|--------------------------|---------------------------|
|-9--9-9-9-8-8-8-8-6-6-6-6-|-----------8-8-8-8-9-9-9-9-|
|--------------------------|--7--7-7-7-----------------|
|--------------------------|---------------------------|
|--------------------------|---------------------------|


|--------------------------|---------------------------|
|--------------------------|---------------------------|
|-2------------------------|-(2)-----------------------|
|-2------------------------|-(2)-----------------------|
|-0------------------------|-(0)-----------------------|
|--------------------------|---------------------------|



|--------------------------|-----------------------------|
|------------------7-7-7-7-|-------------------7-7-7-7---|
|-8--8-8-8-9-9-9-9---------|-----------8-8-8-8-----------|
|--------------------------|--9--9-9-9-------------------|
|--------------------------|-----------------------------|
|--------------------------|-----------------------------|


|--------------------------|-----------------------------|
|--------------------------|-----------------------------|
|-4------------------------|-(4)-------------------------|
|-4------------------------|-(4)-------------------------|
|-2------------------------|-(2)-------------------------|
|--------------------------|-----------------------------|



|--------------------------|-----------------------------|
|-9--9-9-9-7-7-7-7---------|-10-10-10-10-9-9-9-9---------|
|------------------9-9-9-9-|---------------------9-9-9-9-|
|--------------------------|-----------------------------|
|--------------------------|-----------------------------|
|--------------------------|-----------------------------|


                              PM-----------------|
|--------------------------|-----------------------------|
|--------------------------|-----------------------------|
|--------------------------|-----------------------------|
|-6------------------------|--2----------2-------2-------|
|-6------------------------|--0----------0-------0-------|
|-4------------------------|-----------------------------|


|--------------------------------------|-11---------------||
|-12--12-12-12-12-12-12-12-12-12-12-12-|-----12-10--------||
|--------------------------------------|-----------9------||
|--------------------------------------|-------------9----||
|--------------------------------------|---------------11-||
|--------------------------------------|------------------||


|--------------------------------------|------------------||
|--------------------------------------|------------------||
|--4-----------------------------------|------------------||
|--4-----------------------------------|--x\--------------||
|--2-----------------------------------|--x\--------------||
|--------------------------------------|--x\--------------||



||-------------------|--------------|---------------|---------------||
||o------------------|--------------|----------9-10-|-7------------o||
||-------4---8-(8)b9-|-8--4---4-6-8-|-6--9----------|----4-------4--||
||-----6---6---------|------6-------|------9-6------|------6---6----||
||o-7----------------|--------------|---------------|--------7-----o||
||-------------------|--------------|---------------|---------------||


||-------------------|--------------|---------------|---------------||
||o------------------|--------------|---------------|--------------o||
||-------------------|-4------------|-2-------------|-4-------------||
||--2----------------|-4------------|-2-------------|-4-------------||
||o-2----------------|-2------------|-0-------------|-2------------o||
||--0----------------|--------------|---------------|---------------||


   Gtr III
||-------------------|--------------|---------------|---------------||
||o------4---7-(7)b9-|-7--4---4-5-7-|---------------|--------------o||
||-----4---4---------|------4-------|---------------|---------------||
||--6----------------|--------------|---------------|---------------||
||o------------------|--------------|---------------|--------------o||
||-------------------|--------------|---------------|---------------||



|--------------|---------------|-----------------|------------------|
|------------7-|--9--7---------|-----------10-12-|-10--9------------|
|-9----6-8-9---|-------9-6-----|-9----9-11-------|-------9----------|
|----6---------|-----------9-6-|----9------------|---------11-------|
|--------------|---------------|-----------------|------------11----|
|--------------|---------------|-----------------|---------------11-|


|--------------|---------------|-----------------|------------------|
|--------------|---------------|-----------------|------------------|
|-6------------|-(6)-----------|-2---------------|--4---------------|
|-6------------|-(6)-----------|-2---------------|--4---------------|
|-4------------|-(4)-----------|-0---------------|--2---------------|
|--------------|---------------|-----------------|------------------|


|------------------|--------------|---------------|--------------|
|------------------|--------------|----------9-10-|-7------------|
|------4---8-(8)b9-|-8--4---4-6-8-|-6--9----------|----4-------4-|
|----6---6---------|------6-------|------9-6------|------6---6---|
|-7----------------|--------------|---------------|--------7-----|
|------------------|--------------|---------------|--------------|


|------------------|--------------|---------------|--------------|
|------------------|--------------|---------------|--------------|
|------------------|-4------------|-2-------------|-4------------|
|-2----------------|-4------------|-2-------------|-4------------|
|-2----------------|-2------------|-0-------------|-2------------|
|-0----------------|--------------|---------------|--------------|


 Gtr III
|------------------|--------------|---------------|--------------|
|------4---7-(7)b9-|-7--4---4-5-7-|---------------|--------------|
|----4---4---------|------4-------|---------------|--------------|
|-6----------------|--------------|---------------|--------------|
|------------------|--------------|---------------|--------------|
|------------------|--------------|---------------|--------------|



|-----------|------------|-----------|-----------||
|-----------|------------|-----------|-----------||
|-9---------|-8----------|-----------|-----------||
|----11-----|----10------|-----------|-----------||
|-----------|--------10--|-11--------|-----------||
|-----------|------------|-----------|-----------||

 Gtr I
|-----------|------------|-----------|-----------||
|-----------|------------|-----------|-----------||
|-----------|------------|-----------|-----------||
|-----------|------------|--3--------|-6---------||
|-4---0-----|-3----------|--3--------|-6---------||
|--------2--|-----4---0--|--1--------|-4---------||

 Gtr II
|-----------|------------|-----------|-----------||
|-----------|------------|-----------|-----------||
|-----------|------------|-----------|-----------||
|-----------|------------|-----2--3--|-----2--3--||
|-4---0-----|-3----------|-----2--3--|-----2--3--||
|--------2--|-----4---0--|-----0--1--|-----0--1--||


   "Prescribe me..."

Guitar I:
||-------------|-------1----|------------|-------1-----|
||o-------5----|-------1----|-------5----|-------1-----|
||--------5----|------------|-------5----|-------------|
||--7----(7)---|-3----(3)---|-7----(7)---|-3----(3)----|
||o-7----(7)---|-3----(3)---|-7----(7)---|-3----(3)----|
||--5----(5)---|-1----(1)---|-5----(5)---|-1----(1)----|


   Gtr II
||-------------|------------|------------|-------------|
||o------------|------------|------------|-------------|
||-------------|------------|------------|-------------|
||--7----------|-3----------|-7----------|-3-----------|
||o-7----------|-3----------|-7----------|-3-----------|
||--5----------|-1----------|-5----------|-1-----------|


 
  Gtrs I, II
|---------|----------|---------|---------||
|---------|----------|---------|--------o||
|---------|----------|---------|---------||
|-6-------|-(6)------|-2-------|-(2)-----||
|-6-------|-(6)------|-2-------|-(2)----o||
|-4-------|-(4)------|-0-------|-(0)-----||


Guitar I
||---------------------------|--------------------------|
||o--------------------------|--------------------------|
||---------------------------|--------------------------|
||---------------------------|--------------------------|
||o--------------------------|--------------------------|
||--5--5-5-5-5-5-5-5-5-5-5-5-|-1--1-1-1-1-1-1-1-1-1-1-1-|


 Gtr II
||---------------------------|--------------------------|
||o--------------------------|--------------------------|
||---------------------------|--------------------------|
||--7------------------------|-3------------------------|
||o-7------------------------|-3------------------------|
||--5------------------------|-1------------------------|



|--------------------------|----------------------------|
|--------------------------|----------------------------|
|--------------------------|----------------------------|
|--------------------------|----------------------------|
|--------------------------|----------------------------|
|-5--5-5-5-5-5-5-5-5-5-5-5-|-1--1-1-1-1-1-1-1-1-1-1-1---|


|--------------------------|----------------------------|
|--------------------------|----------------------------|
|--------------------------|----------------------------|
|-7------------------------|-3--------------------------|
|-7------------------------|-3--------------------------|
|-5------------------------|-1--------------------------|

|--------------------------|---------------------------|
|--------------------------|---------------------------|
|--------------------------|---------------------------|
|--------------------------|---------------------------|
|--------------------------|---------------------------|
|-4--4-4-4-4-4-4-4-4-4-4-4-|--4--4-4-4-4-4-4-4-4-4-4-4-|


|--------------------------|---------------------------|
|--------------------------|---------------------------|
|--------------------------|---------------------------|
|-6------------------------|-(6)-----------------------|
|-6------------------------|-(6)-----------------------|
|-4------------------------|-(4)-----------------------|


|--------------------------|-------------------------------||
|--------------------------|------------------------------o||
|--------------------------|-------------------------------||
|--------------------------|-------------------------------||
|--------------------------|------------------------------o||
|-0--0-0-0-0-0-0-0-0-0-0-0-|--0--0-0-0-0-0-0-0-0-0-0-0-----||
|
| H.                         +H.
|--------------------------|-------------------------------|
|--------------------------|------------------------------o|
|--------------------------|-------------------------------|
|-2------------------------|-(2)---------------------------|
|-2------------------------|-(2)--------------------------o|
|-0------------------------|-(0)---------------------------|


   "Let's kill... Let's die..."
|----------------------------|--------------------------|
|o---------------------------|--------------------------|
|----------------------------|--------------------------|
|----------------------------|--------------------------|
|o--3--3-3-3-3-3-3-3-3-3-3-3-|--------------------------|
|----------------------------|-4--4-4-4-4-4-4-4-4-4-4-4-|


|----------------------------|--------------------------|
|o---------------------------|--------------------------|
|----------------------------|--------------------------|
|--10------------------------|-6------------------------|
|o-10------------------------|-6------------------------|
|---8------------------------|-4------------------------|



|---------------------------|----------------------------|
|---------------------------|----------------------------|
|---------------------------|----------------------------|
|---------------------------|----------------------------|
|--3--3-3-3-3-3-3-3-3-3-3-3-|----------------------------|
|---------------------------|-4--4-4-4-4-4-4-4-4-4-4-4---|


|---------------------------|----------------------------|
|---------------------------|----------------------------|
|---------------------------|----------------------------|
|-10------------------------|-6--------------------------|
|-10------------------------|-6--------------------------|
|--8------------------------|-4--------------------------|


|--------------------------|---------------------------|
|--------------------------|---------------------------|
|--------------------------|---------------------------|
|--------------------------|---------------------------|
|-2--2-2-2-2-2-2-2-2-2-2-2-|--2--2-2-2-2-2-2-2-2-2-2-2-|
|--------------------------|---------------------------|


|--------------------------|---------------------------|
|--------------------------|---------------------------|
|--------------------------|---------------------------|
|-9------------------------|-(9)-----------------------|
|-9------------------------|-(9)-----------------------|
|-7------------------------|-(7)-----------------------|



|--------------------------|-------------------------------|
|--------------------------|------------------------------o|
|--------------------------|-------------------------------|
|--------------------------|-------------------------------|
|--------------------------|------------------------------o|
|-3--3-3-3-3-3-3-3-3-3-3-3-|--3--3-3-3-3-3-3-3-3-3-3-3-----|


|--------------------------|-------------------------------|
|--------------------------|------------------------------o|
|--------------------------|-------------------------------|
|-5------------------------|-(5)---------------------------|
|-5------------------------|-(5)--------------------------o|
|-3------------------------|-(3)---------------------------|



  Gtrs I, II
    PM|   PM--------|   PM        PM
|-----------------|-----------------|
|-----------------|-----------------|
|-----------------|-----------------|
|-----------------|---------1-------|
|-2-----1---------|---2---2---2-----|
|---0-3---0-0-2-3-|-0---0-------4-0-|


 "I don't want to feel..."

  PM--|   PM  PM                       PM--|   PM  PM          PM       PM
|-----------------|------------------|-----------------|-------------------|
|-----------------|------------------|-----------------|-------------------|
|-----------------|------------------|-----------------|-------------------|
|-----------------|------------------|-----------------|-------------------|
|-------2---1-----|------------------|-------2---1-----|-------------------|
|-0-2-3---0---0---|------------------|-0-2-3---0---0---|-3h4p3p0--3h4p3p0--|

  Gtr II
  PM--|   PM  PM----|     PM  PM       PM--|   PM  PM|         PM       PM
|-----------------|------------------|-----------------|-------------------|
|-----------------|------------------|-----------------|-------------------|
|-----------------|------------------|-----------------|-------------------|
|-----------------|------------------|-----------------|-------------------|
|-------2---1-----|---3-2---2--------|-------2---1-----|-------------------|
|-0-2-3---0---0-0-|-0-----0---0-2b3--|-0-2-3---0---0-0-|-3h4p3p0--3h4p3p0--|


  PM--|   PM  PM
|-----------------|
|-----------------|
|-----------------|
|-----------------|
|-------2---1-----|
|-0-2-3---0---0---|


 PM--|   PM  PM|
|-----------------|------------------------|
|-----------------|------------------------|
|-----------------|------------------------|
|-----------------|------------------------|
|-------2---1-----|-------2h5p2------------|
|-0-2-3---0---0-0-|-4h7p4-------1h4p1-[4]--|


  PM--|   PM  PM------|
|-----------------|------------------|
|-----------------|------------------|
|-----------------|---------4-7-6----|
|-----------------|-------5-------8--|
|-------2---1-----|-----5------------|
|-0-2-3---0---0-0-|-0-6--------------|

 PM--|   PM  PM------|
|-----------------|------------------|
|-----------------|------------------|
|-----------------|---------0-4-3----|
|-----------------|-------2-------5--|
|-------2---1-----|-----2------------|
|-0-2-3---0---0-0-|-0-3--------------|


  Gtrs I, II
  PM--|   PM  PM----|     PM-------------|   PM  PM|         PM       PM
|-----------------|----------------|-----------------|---------------------|
|-----------------|----------------|-----------------|---------------------|
|-----------------|----------------|-----------------|---------------------|
|-----------------|----------------|-----------------|---------------------|
|-------2---1-----|---3-2----------|-------2---1-----|---------------------|
|-0-2-3---0---0-0-|-0-----0-4-0-1--|-0-2-3---0---0-0-|-3h4p3p0--3h4p3p0----|



  Gtr I
  PM--|   PM  PM|
|-----------------|------------------------|
|-----------------|------------------------|
|-----------------|------------------------|
|-----------------|------------------------|
|-------2---1-----|-------2h5p2------------|
|-0-2-3---0---0-0-|-4h7p4-------1h4p1-[4]--|


 Gtr II
 PM--|   PM  PM|
|-----------------|------------------------|
|-----------------|------------------------|
|-----------------|------------------------|
|-----------------|------------------------|
|-------2---1-----|-------2h5p2------------|
|-0-2-3---0---0-0-|-4h7p4-------1h4p1-[4]--|


  PM--|   PM  PM|

|-----------------|----------7-10-9-----|
|-----------------|--------8--------11--|
|-----------------|------7--------------|
|-----------------|----8----------------|
|-------2---1-----|-7-------------------|
|-0-2-3---0---0-0-|---------------------|

  PM--|   PM  PM|
|-----------------|-------------7-6-----|
|-----------------|----------8-------8--|
|-----------------|--------9------------|
|-----------------|------9--------------|
|-------2---1-----|-7-10----------------|
|-0-2-3---0---0-0-|---------------------|


|----------7-10-9----|--------------7-10--9----|
|--------8--------11-|-----------8----------11-|
|------7-------------|--------7----------------|
|----8---------------|-----8-------------------|
|-7------------------|--7----------------------|
|--------------------|-------------------------|


|-------------7-6----|----------------14-12----|
|----------8-------8-|----------12-15-------15-|
|--------9-----------|-------11----------------|
|------9-------------|----12-------------------|
|-7-10---------------|-10----------------------|
|--------------------|-------------------------|



|--------------7-10--9----|----------------15-14----|
|-----------8----------11-|-------------17-------16-|
|--------7----------------|----------17-------------|
|-----8-------------------|-------17----------------|
|--7----------------------|-15-18-------------------|
|-------------------------|-------------------------|


|----------------14-12----|----------------12-11----|
|----------12-15-------15-|----------10-13-------12-|
|-------11----------------|--------9----------------|
|----12-------------------|----10-------------------|
|-10----------------------|-12----------------------|
|-------------------------|-------------------------|


|----------------15-14----|----------------15-14----|-------------15-14----|
|-------------17-------16-|-------------17-------16-|-----------17------16-|
|----------17-------------|----------17-------------|---------17-----------|
|-------17----------------|-------17----------------|-------17-------------|
|-15-18-------------------|-15-18-------------------|-15-18----------------|
|-------------------------|-------------------------|----------------------|
|
|  E  E  E  E  E  E  E  E    E  E  E  E  E  E  E  E    E  E  E  E  E  E  E  E
|----------------12-11----|-------------15-19-18----|-----------15-19-18---|
|----------10-13-------12-|----------17----------19-|--------17---------19-|
|--------9----------------|----12-16----------------|---12-16--------------|
|----10-------------------|-14----------------------|-14-------------------|
|-12----------------------|-------------------------|----------------------|
|-------------------------|-------------------------|----------------------|


   "This is just a party..."
    Slightly Faster Q=210
    E5
    Gtrs I, II
    PM--------------------------------------
    Q  +E  E +Q   Q    +E  E +Q   E E +Q
||-------------------|---------------------|
||o------------------|---------------------|
||-------------------|---------------------|
||-------------------|---------------------|
||o-2--(2)-2-(2)--2--|-(2)-2-(2)--2-2-(2)--|
||--0--(0)-0-(0)--0--|-(0)-0-(0)--0-0-(0)--|


                    3/4
 ----------------------------------|
  Q  +E  E +Q   Q    +E  E +E  E E E
|------------------|-------------------||
|------------------|------------------o||
|------------------|-------------------||
|------------------|-------------------||
|-2--(2)-2-(2)--2--|-(2)-2-(2)-2-2-2--o||
|-0--(0)-0-(0)--0--|-(0)-0-(0)-0-0-0---||


 4/4                                           3/4
  PM   PM   PM     PM   PM|      PM   PM   PM     PM  PM--|
  q  E q  E q    E q  E E E Q    q  E E Q  q    E E E E E E
|--------------|---------------|--------------|--------------|
|--------------|---------------|--------------|--------------|
|--------------|---------------|--------------|--------------|
|--------------|---------------|--------------|--------------|
|-2----2----2--|---2----2-2----|-2----2----2--|---2---2-2-2--|
|-0----0----0--|---0----0-0----|-0----0----0--|---0---0-0-0--|


 4/4
  PM   PM   PM     PM   PM|      PM   PM   PM
  q  E q  E q    E q  E E E Q    q  E E Q  q
|--------------|---------------|--------------|
|--------------|---------------|--------------|
|--------------|---------------|--------------|
|--------------|---------------|--------------|
|-2----2----2--|---2----2-2----|-2----2----2--|
|-0----0----0--|---0----0-0----|-0----0----0--|


        Slightly Faster Q=220   Slightly Faster Q=230
                                C#5G5
 3/4
    PM  PM-------------------|
  E E E E E E   q  E E E E   q  Q  Q
|-------------|------------|----------|
|-------------|------------|----------|
|-------------|------------|----------|
|-------------|------------|----6--5--|
|---2---2-2-2-|-2----2-2-2-|-2--4--5--|
|---0---0-0-0-|-0----0-0-0-|-0--4--3--|


  N.C.
  PM------------|              PM----|
  E E E E E E   q  E E E E   E E E E q    E E q  Q
|-------------|------------|------------|-----------||
|-------------|------------|------------|-----------||
|-------------|------------|------------|-----------||
|-------------|------------|------------|-5---------||
|-------5-----|-4--5-2p1-2p|=1----------|---4-------||
|-0-3-6---3-6-|------------|---3-2-3-0--|-----3-----||


   "Become the whore..."
    Faster Q=235
    N.C.
   4/4
          PM------------------------|                 PM------|
    E E E E E E E E   E E E E E E E E   E E E E E E E E   E E q  E E q
||------------------|-----------------|-----------------|----------------|
||o-----------------|-----------------|-----------------|----------------|
||------------------|-----------------|-----------------|----------------|
||--6---------------|-----------------|-----------------|--------5-------|
||o---5-----6-------|-2---------1-----|---2h5-2p1-2p1---|----------4-----|
||------4-7---4-0-1-|---3-0-1-0---1-0-|-3-------------3-|-2-3-0------3---|


                                      F5 E5 C#5A#5  E5 F5 N.C.
        PM------------------------|
  E E E E E E E E   E E E E E E E E   Q  Q  Q  Q    Q  Q  E E q
|-----------------|-----------------|-------------|---------------|
|-----------------|-----------------|-------------|---------------|
|-----------------|-----------------|-------6--3--|---------------|
|-6---------------|-----------------|-3--2--6--3--|-2--3--6-------|
|---5-----6-------|-2---------1-----|-3--2--4--1--|-2--3----5-----|
|-----4-7---4-0-1-|---3-0-1-0---1-0-|-1--0--------|-0--1------4---|


               1.                2.
  C5 N.CB5 N.C. A#5    E5 A#5    A#5    N.C.
  Gtr I
     PM         PM|              PM|    PM--|
                                        |-3-|
  Q  Q  Q  Q    E E Q  Q  Q      E E Q  Q Q Q
|-------------|---------------||--------------||
|-------------|--------------o||--------------||
|-5-----4-----|---------------||--------------||
|-5-----4--4--|--------2------||--------------||
|-3-----2-----|-1-1-1--2-----o||-1-1-1--------||
|----0--------|-1-1-1--0------||-1-1-1--0-1-2-||
|
| Gtr II
|    PM         PM|              PM|    PM--|
|                                       |-3-|
| Q  Q  Q  Q    E E Q  Q  Q      E E Q  Q Q Q
|-------------|---------------||--------------||
|-------------|--------------o||--------------||
|-5-----4-----|-----------3---||--------------||
|-5-----4--4--|-----------3---||--------------||
|-3-----2-----|-1-1-1-----1--o||-1-1-1--------||
|----0--------|-1-1-1---------||-1-1-1--0-1-2-||


   "What is love, the idea..."
    C5 N.CB5 N.C. A#5    N.C.    C5 N.CB5 N.C. A#5    N.C.
    Gtrs I, II
       PM         PM|    PM--|      PM         PM|    PM--|
                         |-3-|                        |-3-|
    Q  Q  Q  Q    E E Q  Q Q Q   Q  Q  Q  Q    E E Q  Q Q Q
||--------------|--------------|-------------|---------------||
||o-------------|--------------|-------------|--------------o||
||--5-----4-----|--------------|-5-----4-----|---------------||
||--5-----4--4--|--------------|-5-----4--4--|---------------||
||o-3-----2-----|-1-1-1--------|-3-----2-----|-1-1-1--------o||
||-----0--------|-1-1-1--0-1-2-|----0--------|-1-1-1--0-1-2--||


                            Faster Q=240
  C5 N.CB5 G5   F#5   B5 F5   E5                N.C.  F5
     PM                                         PM--|
  Q  Q  Q  Q    Q  Q  Q  Q    Q  Q  H      H    S S E Q
|-------------|-------------|------------|---------------|
|-------------|-------------|------------|---------------|
|-5-----4-----|-------4-----|------------|---------------|
|-5-----4--5--|-4-----4--3--|-2----------|------------3--|
|-3-----2--5--|-4-----2--3--|-2----------|------------3--|
|----0-----3--|-2--------1--|-0----------|------0-0-0-1--|


  E5                B5 F5   E5 G#5G5 E5   A#5F#5N.C.  F5
                                                PM--|
  Q  Q  H      H    Q  Q    Q  Q  Q  Q    Q  Q  S S E Q
|------------|------------|-------------|----------------|
|------------|------------|-------------|----------------|
|------------|------4-----|-------------|-3--------------|
|-2----------|------4--3--|-2--6--5--2--|-3--4--------3--|
|-2----------|------2--3--|-2--6--5--2--|-1--4--------3--|
|-0----------|---------1--|-0--4--3--0--|----2--0-0-0-1--|


  E5 G#5G5 E5   A#5F#5B5 F5   E5 G#5G5 E5   A#5F#5N.C.  F5
                                                  PM--|
  Q  Q  Q  Q    Q  Q  Q  Q    Q  Q  Q  Q    Q  Q  S S E Q
|-------------|-------------|-------------|----------------|
|-------------|-------------|-------------|----------------|
|-------------|-3-----4-----|-------------|-3--------------|
|-2--6--5--2--|-3--4--4--3--|-2--6--5--2--|-3--4--------3--|
|-2--6--5--2--|-1--4--2--3--|-2--6--5--2--|-1--4--------3--|
|-0--4--3--0--|----2-----1--|-0--4--3--0--|----2--0-0-0-1--|


  E5 G#5G5 E5   A#5F#5B5 F5   E5 G#5G5 E5   A#5F#5N.C.  F5
  Gtr I
                              PM------------------------|
  Q  Q  Q  Q    Q  Q  Q  Q    Q  Q  Q  Q    Q  Q  S S E Q
|-------------|-------------|-------------|----------------|
|-------------|-------------|-------------|----------------|
|-------------|-3-----4-----|-------------|----------------|
|-2--6--5--2--|-3--4--4--3--|-------------|-3--------------|
|-2--6--5--2--|-1--4--2--3--|-2--6--5--2--|-1--4--------3--|
|-0--4--3--0--|----2-----1--|-0--4--3--0--|----2--0-0-0-1--|
|
| Gtr II
|                                                 PM--|
| Q  Q  Q  Q    Q  Q  Q  Q    Q  Q  Q  Q    Q  Q  S S E Q
|-------------|-------------|-------------|----------------|
|-------------|-------------|-------------|----------------|
|-------------|-3-----4-----|-------------|-3--------------|
|-2--6--5--2--|-3--4--4--3--|-2--6--5--2--|-3--4--------3--|
|-2--6--5--2--|-1--4--2--3--|-2--6--5--2--|-1--4--------3--|
|-0--4--3--0--|----2-----1--|-0--4--3--0--|----2--0-0-0-1--|


  E5 G#5G5 E5   A#5F#5B5 F5   E5 G#5G5 E5   A#5F#5N.C.  F5
  PM---------------|                              PM--|
  Q  Q  Q  Q    Q  Q  Q  Q    Q  Q  Q  Q    Q  Q  S S E Q
|-------------|-------------|-------------|----------------|
|-------------|-------------|-------------|----------------|
|-------------|-------4-----|-------------|-3--------------|
|-------------|-3-----4--3--|-2--6--5--2--|-3--4--------3--|
|-2--6--5--2--|-1--4--2--3--|-2--6--5--2--|-1--4--------3--|
|-0--4--3--0--|----2-----1--|-0--4--3--0--|----2--0-0-0-1--|
|
|                                                 PM--|
| Q  Q  Q  Q    Q  Q  Q  Q    Q  Q  Q  Q    Q  Q  S S E Q
|-------------|-------------|-------------|----------------|
|-------------|-------------|-------------|----------------|
|-------------|-3-----4-----|-------------|-3--------------|
|-2--6--5--2--|-3--4--4--3--|-2--6--5--2--|-3--4--------3--|
|-2--6--5--2--|-1--4--2--3--|-2--6--5--2--|-1--4--------3--|
|-0--4--3--0--|----2-----1--|-0--4--3--0--|----2--0-0-0-1--|


  E5 G#5G5 E5   A#5F#5B5 F5   E5 G#5G5 E5   A#5F#5N.C.  F5
  Gtrs I, II
                                                  PM--|
  Q  Q  Q  Q    Q  Q  Q  Q    Q  Q  Q  Q    Q  Q  S S E Q
|-------------|-------------|-------------|----------------|
|-------------|-------------|-------------|----------------|
|-------------|-3-----4-----|-------------|-3--------------|
|-2--6--5--2--|-3--4--4--3--|-2--6--5--2--|-3--4--------3--|
|-2--6--5--2--|-1--4--2--3--|-2--6--5--2--|-1--4--------3--|
|-0--4--3--0--|----2-----1--|-0--4--3--0--|----2--0-0-0-1--|


                            Slower Q=230
  E5 G# G  E5   A#5F#mE5 E5   G#/A#B5
  Gtr I
  Q  Q  Q  Q    Q  Q  Q  Q    H    Q   Q     W
|-------------|-------------|--------------|------------------||
|-------------|-------------|--------------|------------------||
|-------------|-3--------9--|--------------|------------------||
|-2--6--5--2--|-3--4-----9--|-8----9-------|------------------||
|-2--6--5--2--|-1--4--2--7--|-9----9-------|------------------||
|-0--4--3--0--|----2--0-----|-6----7-------|------------------||
|
| Gtr II
| Q  Q  Q  Q    Q  Q  Q  Q    H    Q   Q     W
|-------------|-------------|--------------|------------------||
|-------------|-------------|--------------|------------------||
|-------------|----------9--|--------------|------------------||
|-2--------2--|----------9--|-8----9-------|------------------||
|-2--3--2--2--|-6--------7--|-9----9-------|------------------||
|-0--------0--|----5--0-----|-6----7-------|------------------||
|
| Gtr III
| W             W             H    E E E E   E E E E E E E E
|-------------|-------------|--------------|------------------||
|-------------|-------------|--------------|---------4h7p4----||
|-------------|-------------|------------4-|-------4-------4--||
|-------------|-------------|----------4---|-4---4------------||
|-------------|-------------|--------6-----|---6--------------||
|-------------|-------------|--------------|------------------||


  Slowly Q=205
  C#5         B5          A5
 3/4
  Gtr III
  Q   Q  Q    Q   Q  Q    S  S S S S S S S S S S S
|-----------|-----------|--------------------------|
|-----------|-----------|--------------------------|
|-6------6--|-8---9--8--|-9--9-9-9-9-9-9-9-9-9-9-9-|
|-----6-----|-----------|--------------------------|
|-----------|-----------|--------------------------|
|-----------|-----------|--------------------------|
|
| Gtrs I, II
| H.          H.          H.
|-----------|-----------|--------------------------|
|-----------|-----------|--------------------------|
|-6---------|-4---------|-2------------------------|
|-6---------|-4---------|-2------------------------|
|-4---------|-2---------|-0------------------------|
|-----------|-----------|--------------------------|
|
| Gtr IV
| Q   Q  Q    Q   Q  Q    S  S S S S S S S S S S S
|-----------|-----------|--------------------------|
|-5------5--|-7---9--7--|-9--9-9-9-9-9-9-9-9-9-9-9-|
|-----4-----|-----------|--------------------------|
|-----------|-----------|--------------------------|
|-----------|-----------|--------------------------|
|-----------|-----------|--------------------------|


  B5
   S   S  S  S S S S S  S  S  S  S
|----------------------------------|
|--------------9-9-9-9-10-10-10-10-|
|-11--11-11-11---------------------|
|----------------------------------|
|----------------------------------|
|----------------------------------|
|
|  H.
|----------------------------------|
|----------------------------------|
|--4-------------------------------|
|--4-------------------------------|
|--2-------------------------------|
|----------------------------------|
|
|  S   S  S  S S S S S  S  S  S  S
|--------------7-7-7-7--9--9--9--9-|
|-10--10-10-10---------------------|
|----------------------------------|
|----------------------------------|
|----------------------------------|
|----------------------------------|


  E5                         B5
  S  S S S S S S S S S S S    S   S  S  S S S S S  S  S  S  S
|--------------------------|----------------------------------|
|-9--9-9-9-9-9-9-9---------|--7---7--7--7-9-9-9-9--7--7--7--7-|
|------------------6-6-9-9-|----------------------------------|
|--------------------------|----------------------------------|
|--------------------------|----------------------------------|
|--------------------------|----------------------------------|
|
| H.                          H.
|--------------------------|----------------------------------|
|--------------------------|----------------------------------|
|--------------------------|--4-------------------------------|
|-2------------------------|--4-------------------------------|
|-2------------------------|--2-------------------------------|
|-0------------------------|----------------------------------|
|
| S  S S S S S S S S S S S    S   S  S  S S S S S  S  S  S  S
|-7--7-7-7-7-7-7-7---------|--------------7-7-7-7-------------|
|----------------------9-9-|-10--10-10-10---------10-10-10-10-|
|------------------9-9-----|----------------------------------|
|--------------------------|----------------------------------|
|--------------------------|----------------------------------|
|--------------------------|----------------------------------|


  F#5                                B5
   S   S  S  S  S  S S S  S  S S S   S  S S S S S S S  S  S  S  S
|----------------------------------|--------------------------------|
|-10--10-10-10-10-10-9-9--7--7-----|-------------------7--7--7--7---|
|------------------------------9-9-|----------8-8-8-8---------------|
|----------------------------------|-9--9-9-9-----------------------|
|----------------------------------|--------------------------------|
|----------------------------------|--------------------------------|
|
|  H.                                H.
|----------------------------------|--------------------------------|
|----------------------------------|--------------------------------|
|----------------------------------|-4------------------------------|
|--4-------------------------------|-4------------------------------|
|--4-------------------------------|-2------------------------------|
|--2-------------------------------|--------------------------------|
|
|  S   S  S  S  S  S S S  S  S S S   S  S S S S S S S  S  S  S  S
|--9---9--9--9--9--9-7-7-----------|--------------------------------|
|------------------------10-10-9-9-|----------7-7-7-7-10-10-10-10---|
|----------------------------------|-8--8-8-8-----------------------|
|----------------------------------|--------------------------------|
|----------------------------------|--------------------------------|
|----------------------------------|--------------------------------|


  C#5                        B5
  S  S S S S S S S S S S S   S  S S S S S S S S S S S
|--------------------------|--------------------------|
|--------------------------|--------------------------|
|-6--6-6-6---------6-6-6-6-|-8--8-8-8-9-9-9-9-8-8-8-8-|
|----------6-6-6-6---------|--------------------------|
|--------------------------|--------------------------|
|--------------------------|--------------------------|
|
| H.                         H.
|--------------------------|--------------------------|
|--------------------------|--------------------------|
|-6------------------------|-4------------------------|
|-6------------------------|-4------------------------|
|-4------------------------|-2------------------------|
|--------------------------|--------------------------|
|
| S  S S S S S S S S S S S   S  S S S S S S S S S S S
|--------------------------|--------------------------|
|-5--5-5-5---------5-5-5-5-|-7--7-7-7-9-9-9-9-7-7-7-7-|
|----------4-4-4-4---------|--------------------------|
|--------------------------|--------------------------|
|--------------------------|--------------------------|
|--------------------------|--------------------------|


  A5                         B5
  S  S S S S S S S S S S S    S   S  S  S S S S S  S  S  S  S
|--------------------------|------------------------------------|
|--------------------------|--------------9-9-9-9-10-10-10-10---|
|-9--9-9-9-9-9-9-9-9-9-9-9-|-11--11-11-11-----------------------|
|--------------------------|------------------------------------|
|--------------------------|------------------------------------|
|--------------------------|------------------------------------|
|
| H.                          H.
|--------------------------|------------------------------------|
|--------------------------|------------------------------------|
|-2------------------------|--4---------------------------------|
|-2------------------------|--4---------------------------------|
|-0------------------------|--2---------------------------------|
|--------------------------|------------------------------------|
|
| S  S S S S S S S S S S S    S   S  S  S S S S S  S  S  S  S
|--------------------------|--------------7-7-7-7--9--9--9--9---|
|-9--9-9-9-9-9-9-9-9-9-9-9-|-10--10-10-10-----------------------|
|--------------------------|------------------------------------|
|--------------------------|------------------------------------|
|--------------------------|------------------------------------|
|--------------------------|------------------------------------|


  E5                         B5
  S  S S S S S S S S S S S    S   S  S  S S S S S  S  S  S  S
|--------------------------|----------------------------------|
|-9--9-9-9-9-9-9-9---------|--7---7--7--7-9-9-9-9--7--7--7--7-|
|------------------6-6-9-9-|----------------------------------|
|--------------------------|----------------------------------|
|--------------------------|----------------------------------|
|--------------------------|----------------------------------|
|
| H.                          H.
|--------------------------|----------------------------------|
|--------------------------|----------------------------------|
|--------------------------|--4-------------------------------|
|-2------------------------|--4-------------------------------|
|-2------------------------|--2-------------------------------|
|-0------------------------|----------------------------------|
|
| S  S S S S S S S S S S S    S   S  S  S S S S S  S  S  S  S
|-7--7-7-7-7-7-7-7---------|--------------7-7-7-7-------------|
|----------------------9-9-|-10--10-10-10---------10-10-10-10-|
|------------------9-9-----|----------------------------------|
|--------------------------|----------------------------------|
|--------------------------|----------------------------------|
|--------------------------|----------------------------------|


  F#5                                B5
   S   S  S  S  S  S S S  S  S S S   S  S S S S S S S  S  S  S  S
|----------------------------------|--------------------------------|
|-10--10-10-10-10-10-9-9--7--7-----|-------------------7--7--7--7---|
|------------------------------9-9-|----------8-8-8-8---------------|
|----------------------------------|-9--9-9-9-----------------------|
|----------------------------------|--------------------------------|
|----------------------------------|--------------------------------|
|
|  H.                                H.
|----------------------------------|--------------------------------|
|----------------------------------|--------------------------------|
|----------------------------------|-4------------------------------|
|--4-------------------------------|-4------------------------------|
|--4-------------------------------|-2------------------------------|
|--2-------------------------------|--------------------------------|
|
|  S   S  S  S  S  S S S  S  S S S   S  S S S S S S S  S  S  S  S
|--9---9--9--9--9--9-7-7-----------|--------------------------------|
|------------------------10-10-9-9-|----------7-7-7-7-10-10-10-10---|
|----------------------------------|-8--8-8-8-----------------------|
|----------------------------------|--------------------------------|
|----------------------------------|--------------------------------|
|----------------------------------|--------------------------------|


  A5
  S  S S S S S S S S S S S    S  S S S S S S S S S S S
|--------------------------|---------------------------|
|--------------------------|---------------------------|
|-9--9-9-9-8-8-8-8-6-6-6-6-|-----------8-8-8-8-9-9-9-9-|
|--------------------------|--7--7-7-7-----------------|
|--------------------------|---------------------------|
|--------------------------|---------------------------|
|
| H.                         +H.
|--------------------------|---------------------------|
|--------------------------|---------------------------|
|-2------------------------|-(2)-----------------------|
|-2------------------------|-(2)-----------------------|
|-0------------------------|-(0)-----------------------|
|--------------------------|---------------------------|
|
| S  S S S S S S S S S S S    S  S S S S S S S S S S S
|--------------------------|---------------------------|
|-9--9-9-9-7-7-7-7---------|-----------7-7-7-7-9-9-9-9-|
|------------------9-9-9-9-|--6--6-6-6-----------------|
|--------------------------|---------------------------|
|--------------------------|---------------------------|
|--------------------------|---------------------------|


  B5
  S  S S S S S S S  S  S  S  S    S  S S S S S S S  S  S  S  S
|------------------------------|---------------------------------|
|-------------------7--7--7--7-|--------------------7--7--7--7---|
|-8--8-8-8-9-9-9-9-------------|-----------8-8-8-8---------------|
|------------------------------|--9--9-9-9-----------------------|
|------------------------------|---------------------------------|
|------------------------------|---------------------------------|
|
| H.                             +H.
|------------------------------|---------------------------------|
|------------------------------|---------------------------------|
|-4----------------------------|-(4)-----------------------------|
|-4----------------------------|-(4)-----------------------------|
|-2----------------------------|-(2)-----------------------------|
|------------------------------|---------------------------------|
|
| S  S S S S S S S  S  S  S  S    S  S S S S S S S  S  S  S  S
|------------------------------|---------------------------------|
|-7--7-7-7-9-9-9-9-10-10-10-10-|-----------7-7-7-7-10-10-10-10---|
|------------------------------|--8--8-8-8-----------------------|
|------------------------------|---------------------------------|
|------------------------------|---------------------------------|
|------------------------------|---------------------------------|


  G#5                            A5
  S  S S S  S  S  S  S S S S S    S  S  S  S S S S S S S S S
|------------------------------|-----------------------------|
|-9--9-9-9--7--7--7--7---------|-10-10-10-10-9-9-9-9---------|
|----------------------9-9-9-9-|---------------------9-9-9-9-|
|------------------------------|-----------------------------|
|------------------------------|-----------------------------|
|------------------------------|-----------------------------|
|
|                                 PM-----------------|
| H.                              Q          Q       Q
|------------------------------|-----------------------------|
|------------------------------|-----------------------------|
|------------------------------|-----------------------------|
|-6----------------------------|--2----------2-------2-------|
|-6----------------------------|--0----------0-------0-------|
|-4----------------------------|-----------------------------|
|
| S  S S S  S  S  S  S S S S S    S  S  S  S S S S S S S S S
|-7--7-7-7---------------------|--9--9--9--9-----------------|
|----------10-10-10-10-9-9-9-9-|-------------7-7-7-7-9-9-9-9-|
|------------------------------|-----------------------------|
|------------------------------|-----------------------------|
|------------------------------|-----------------------------|
|------------------------------|-----------------------------|


  B5                                     N.C.
   S   S  S  S  S  S  S  S  S  S  S  S    E   E  E E E  E
|--------------------------------------|-11---------------||
|-12--12-12-12-12-12-12-12-12-12-12-12-|-----12-10--------||
|--------------------------------------|-----------9------||
|--------------------------------------|-------------9----||
|--------------------------------------|---------------11-||
|--------------------------------------|------------------||
|
|  H.                                     H.
|--------------------------------------|------------------||
|--------------------------------------|------------------||
|--4-----------------------------------|------------------||
|--4-----------------------------------|--x\--------------||
|--2-----------------------------------|--x\--------------||
|--------------------------------------|--x\--------------||
|
|  S   S  S  S  S  S  S  S  S  S  S  S    H.
|-11--11-11-11-11-11-11-11-11-11-11-11-|-11---------------||
|--------------------------------------|------------------||
|--------------------------------------|------------------||
|--------------------------------------|------------------||
|--------------------------------------|------------------||
|--------------------------------------|------------------||


 "2005 welcome to..."
  E5                  B5               A5              B5
   E  E E E E +E        E  E E E E E   E  E E E E  E   E  E E E E E
|-------------------|----------------|---------------|--------------|
|-------------------|----------------|----------9-10-|-7------------|
|-------4---8-(8)b9-|---8--4---4-6-8-|-6--9----------|----4-------4-|
|-----6---6---------|--------6-------|------9-6------|------6---6---|
|--7----------------|----------------|---------------|--------7-----|
|-------------------|----------------|---------------|--------------|
|
|  H.                   H.             H.              H.
|-------------------|----------------|---------------|--------------|
|-------------------|----------------|---------------|--------------|
|-------------------|---4------------|-2-------------|-4------------|
|--2----------------|---4------------|-2-------------|-4------------|
|--2----------------|---2------------|-0-------------|-2------------|
|--0----------------|----------------|---------------|--------------|
|
|  H.                  +H.             H.              H.
|-12----------------|-(12)-----------|---------------|--------------|
|-------------------|----------------|---------------|--------------|
|-------------------|----------------|---------------|--------------|
|-------------------|----------------|---------------|--------------|
|-------------------|----------------|---------------|--------------|
|-------------------|----------------|---------------|--------------|


  E5                 B5             A5              B5
  E  E E E E +E      E  E E E E E   E  E E E E  E   E  E E E E E
|------------------|--------------|---------------|--------------|
|------------------|--------------|----------9-10-|-7------------|
|------4---8-(8)b9-|-8--4---4-6-8-|-6--9----------|----4-------4-|
|----6---6---------|------6-------|------9-6------|------6---6---|
|-7----------------|--------------|---------------|--------7-----|
|------------------|--------------|---------------|--------------|
|
| H.                 H.             H.              H.
|------------------|--------------|---------------|--------------|
|------------------|--------------|---------------|--------------|
|------------------|-4------------|-2-------------|-4------------|
|-2----------------|-4------------|-2-------------|-4------------|
|-2----------------|-2------------|-0-------------|-2------------|
|-0----------------|--------------|---------------|--------------|


  C#5                            A5                B5
  E  E E E E E    E  E E E E E   E  E E  E  E  E    E  E E  E  E  E
|--------------|---------------|-----------------|------------------|
|------------7-|--9--7---------|-----------10-12-|-10--9------------|
|-9----6-8-9---|-------9-6-----|-9----9-11-------|-------9----------|
|----6---------|-----------9-6-|----9------------|---------11-------|
|--------------|---------------|-----------------|------------11----|
|--------------|---------------|-----------------|---------------11-|
|
| H.             +H.             H.                 H.
|--------------|---------------|-----------------|------------------|
|--------------|---------------|-----------------|------------------|
|-6------------|-(6)-----------|-2---------------|--4---------------|
|-6------------|-(6)-----------|-2---------------|--4---------------|
|-4------------|-(4)-----------|-0---------------|--2---------------|
|--------------|---------------|-----------------|------------------|


  E5                 B5             A5              B5
  E  E E E E +E      E  E E E E E   E  E E E E  E   E  E E E E E
|------------------|--------------|---------------|--------------|
|------------------|--------------|----------9-10-|-7------------|
|------4---8-(8)b9-|-8--4---4-6-8-|-6--9----------|----4-------4-|
|----6---6---------|------6-------|------9-6------|------6---6---|
|-7----------------|--------------|---------------|--------7-----|
|------------------|--------------|---------------|--------------|
|
| H.                 H.             H.              H.
|------------------|--------------|---------------|--------------|
|------------------|--------------|---------------|--------------|
|------------------|-4------------|-2-------------|-4------------|
|-2----------------|-4------------|-2-------------|-4------------|
|-2----------------|-2------------|-0-------------|-2------------|
|-0----------------|--------------|---------------|--------------|


  E5                 B5             A5              B5
  E  E E E E +E      E  E E E E E   E  E E E E  E    E  E E E E E
|------------------|--------------|---------------|---------------|
|------------------|--------------|----------9-10-|--7------------|
|------4---8-(8)b9-|-8--4---4-6-8-|-6--9----------|-----4-------4-|
|----6---6---------|------6-------|------9-6------|-------6---6---|
|-7----------------|--------------|---------------|---------7-----|
|------------------|--------------|---------------|---------------|
|
| H.                 H.             H.               H.
|------------------|--------------|---------------|---------------|
|------------------|--------------|---------------|---------------|
|------------------|-4------------|-2-------------|--4------------|
|-2----------------|-4------------|-2-------------|--4------------|
|-2----------------|-2------------|-0-------------|--2------------|
|-0----------------|--------------|---------------|---------------|
|
| Gtr IV
| E  E E E E +E      E  E E E E E   E  E E E E  E    E  E E E E E
|------------------|--------------|----------7--9-|---------------|
|------4---7-(7)b9-|-7--4---4-5-7-|-5-------------|-10------------|
|----4---4---------|------4-------|----6----------|-----8-------8-|
|-6----------------|--------------|------6--------|-------9-6-9---|
|------------------|--------------|--------7------|---------------|
|------------------|--------------|---------------|---------------|


  E5                 B5             A5              B5
  E  E E E E +E      E  E E E E E   E  E E E E  E    E  E E E E E
|------------------|--------------|---------------|---------------|
|------------------|--------------|----------9-10-|--7------------|
|------4---8-(8)b9-|-8--4---4-6-8-|-6--9----------|-----4-------4-|
|----6---6---------|------6-------|------9-6------|-------6---6---|
|-7----------------|--------------|---------------|---------7-----|
|------------------|--------------|---------------|---------------|
|
| H.                 H.             H.               H.
|------------------|--------------|---------------|---------------|
|------------------|--------------|---------------|---------------|
|------------------|-4------------|-2-------------|--4------------|
|-2----------------|-4------------|-2-------------|--4------------|
|-2----------------|-2------------|-0-------------|--2------------|
|-0----------------|--------------|---------------|---------------|
|
| E  E E E E +E      E  E E E E E   E  E E E E  E    E  E E E E E
|------------------|--------------|----------7--9-|---------------|
|------4---7-(7)b9-|-7--4---4-5-7-|-5-------------|-10------------|
|----4---4---------|------4-------|----6----------|-----8-------8-|
|-6----------------|--------------|------6--------|-------9-6-9---|
|------------------|--------------|--------7------|---------------|
|------------------|--------------|---------------|---------------|


  C#5                               A5                B5
  E  E E  E E  E    E   E E E E E   E  E E  E  E  E    E  E E  E  E  E
|----------------|----------------|-----------------|------------------|
|--------------7-|--9---7---------|-----------10-12-|-10--9------------|
|-9----6--8-9----|--------9-6-----|-9----9-11-------|-------9----------|
|----6-----------|------------9-6-|----9------------|---------11-------|
|----------------|----------------|-----------------|------------11----|
|----------------|----------------|-----------------|---------------11-|
|
| H.               +H.              H.                 H.
|----------------|----------------|-----------------|------------------|
|----------------|----------------|-----------------|------------------|
|-6--------------|-(6)------------|-2---------------|--4---------------|
|-6--------------|-(6)------------|-2---------------|--4---------------|
|-4--------------|-(4)------------|-0---------------|--2---------------|
|----------------|----------------|-----------------|------------------|
|
| E  E E  E E  E    E   E E E E E   E  E E  E  E  E    E  E E  E  E  E
|----------------|----------------|------------9-11-|--9--7------------|
|-9---------9-10-|-12--10-9-7-----|-9----9-10-------|-------9----------|
|------9-11------|------------8---|----8------------|----------9-------|
|----9-----------|--------------9-|-----------------|-------------9----|
|----------------|----------------|-----------------|----------------9-|
|----------------|----------------|-----------------|------------------|


  E5                 B5             A5              B5
  E  E E E E +E      E  E E E E E   E  E E E E  E    E  E E E E E
|------------------|--------------|---------------|---------------|
|------------------|--------------|----------9-10-|--7------------|
|------4---8-(8)b9-|-8--4---4-6-8-|-6--9----------|-----4-------4-|
|----6---6---------|------6-------|------9-6------|-------6---6---|
|-7----------------|--------------|---------------|---------7-----|
|------------------|--------------|---------------|---------------|
|
| H.                 H.             H.               H.
|------------------|--------------|---------------|---------------|
|------------------|--------------|---------------|---------------|
|------------------|-4------------|-2-------------|--4------------|
|-2----------------|-4------------|-2-------------|--4------------|
|-2----------------|-2------------|-0-------------|--2------------|
|-0----------------|--------------|---------------|---------------|
|
| E  E E E E +E      E  E E E E E   E  E E E E  E    E  E E E E E
|------------------|--------------|----------7--9-|---------------|
|------4---7-(7)b9-|-7--4---4-5-7-|-5-------------|-10------------|
|----4---4---------|------4-------|----6----------|-----8-------8-|
|-6----------------|--------------|------6--------|-------9-6-9---|
|------------------|--------------|--------7------|---------------|
|------------------|--------------|---------------|---------------|


  N.C.                     F5  E5 F5   G#5 E5 F5
  Q   H       Q   Q   Q     Q  H       H.
|-----------|------------|-----------|-----------|
|-----------|------------|-----------|-----------|
|-9---------|-8----------|-----------|-----------|
|----11-----|----10------|-----------|-----------|
|-----------|--------10--|-11--------|-----------|
|-----------|------------|-----------|-----------|
|
| Q   Q  Q    Q   Q   Q     Q  Q  Q    Q   Q  Q
|-----------|------------|-----------|-----------|
|-----------|------------|-----------|-----------|
|-----------|------------|-----------|-----------|
|-----------|------------|--3--2--3--|-6---2--3--|
|-4---0-----|-3----------|--3--2--3--|-6---2--3--|
|--------2--|-----4---0--|--1--0--1--|-4---0--1--|
|
| Q   H       Q   Q   Q     Q  H       H.
|-----------|------------|-----------|-----------|
|-9---------|-8----------|-----------|-----------|
|-----9-----|-----8------|-----------|-----------|
|-----------|---------9--|-10--------|-----------|
|-----------|------------|-----------|-----------|
|-----------|------------|-----------|-----------|


  Faster Q=260
  N.C.
  Gtr III
  H.        H.         E  E  E  E  E  E    Q   Q   Q     Q   +E   E  +Q
|---------|---------|-------------------|-------------|-------------------||
|---------|---------|-13h17p13----------|-------------|-------------------||
|---------|---------|----------14-------|-------------|-------------------||
|---------|---------|-------------14----|-------------|-------------------||
|---------|---------|----------------15-|-11----------|----------11-(11)--||
|---------|---------|-------------------|-----12---8--|-12--(12)----------||
|
| Gtr IV
| H.        H.         E  E  E  E  E  E    Q   Q   Q     Q   +E   E  +Q
|---------|---------|-13h16p13----------|-------------|-------------------||
|---------|---------|----------13-------|-------------|-------------------||
|---------|---------|-------------14----|-------------|-------------------||
|---------|---------|----------------14-|-------------|-------------------||
|---------|---------|-------------------|-14----------|----------14-(14)--||
|---------|---------|-------------------|-----16--12--|-16--(16)----------||


 Outro
  Slowly Q=155
  Am          Fm          Am          Fm
   Q  H       H.          H.          H.
|-----------|-----------|-----------|-----------|
|-----------|-----------|-----------|-----------|
|-----------|-----------|-----------|-----------|
|-----------|-----------|-----------|-----------|
|-12--------|-----------|-----------|-----------|
|-----------|-----------|-----------|-----------|
|
|  Q  H       H.          H.          H.
|-----------|-----------|-----------|-----------|
|-----------|-----------|-----------|-----------|
|-----------|-----------|-----------|-----------|
|-----------|-----------|-----------|-----------|
|-15--------|-----------|-----------|-----------|
|-----------|-----------|-----------|-----------|
|
| Gtr VI
|  Q  q  q    Q   q  q    Q   q  q    Q   q  q
|-----5--5--|-----4--4--|-----5--5--|-----4--4--|
|-----5--5--|-----6--6--|-----5--5--|-----6--6--|
|-----5--5--|-----5--5--|-----5--5--|-----5--5--|
|--7--------|-6---------|-7---------|-6---------|
|-----------|-----------|-----------|-----------|
|-----------|-----------|-----------|-----------|


  Abm                   Em
  Gtr VI
  Q  q  q    Q  q  q    Q  q  q    Q  q  q
|----4--4--|----4--4--|----3--3--|----3--3--|
|----4--4--|----4--4--|----5--5--|----5--5--|
|----4--4--|----4--4--|----4--4--|----4--4--|
|-6--------|-6--------|-5--------|-5--------|
|----------|----------|----------|----------|
|----------|----------|----------|----------|


    Am                  Fm
    Gtr V
     E  E  E  E  E  E    E  E  E  E  E  E
||-----------------17-|-16----------------|
||o----12-13-15-17----|----18-17-15-------|
||--14----------------|-------------17-16-|
||--------------------|-------------------|
||o-------------------|-------------------|
||--------------------|-------------------|
|
|   Gtr VI
|    Q     q     q       Q     q     q
||---------5-----5----|--------4-----4----|
||o--------5-----5----|--------6-----6----|
||---------5-----5----|--------5-----5----|
||---7----------------|--6----------------|
||o-------------------|-------------------|
||--------------------|-------------------|


  Am                  Fm
   E  E  E  E  E  E    E  E  E  E  E  E
|-------------17-20-|-19-17-------------|
|----15-17-18-------|-------21-18-17-15-|
|-17----------------|-------------------|
|-------------------|-------------------|
|-------------------|-------------------|
|-------------------|-------------------|
|
|  Q     q     q       Q     q     q
|--------5-----5----|--------4-----4----|
|--------5-----5----|--------6-----6----|
|--------5-----5----|--------5-----5----|
|--7----------------|--6----------------|
|-------------------|-------------------|
|-------------------|-------------------|


  Abm
   E  E  E  E  E  E    E  E  E  E  E  E
|-------------------|-------------------|
|-16-14-------------|-12-14-12-11-------|
|-------16-15----15-|-------------13-11-|
|-------------18----|-------------------|
|-------------------|-------------------|
|-------------------|-------------------|
|
|  Q     q     q       Q     q     q
|--------4-----4----|--------4-----4----|
|--------4-----4----|--------4-----4----|
|--------4-----4----|--------4-----4----|
|--6----------------|--6----------------|
|-------------------|-------------------|
|-------------------|-------------------|


  Em
   E  E  E  E  E  E    E  E  E  E  E  E  4x
|-------12-14-15-19-|-20-19--------------||
|----12-------------|-------20-19-------o||
|-12----------------|-------------21-----||
|-------------------|----------------21--||
|-------------------|-------------------o||
|-------------------|--------------------||
|
|  Q     q     q       Q     q     q     4x
|--------3-----3----|--------3-----3-----||
|--------5-----5----|--------5-----5----o||
|--------4-----4----|--------4-----4-----||
|--5----------------|--5-----------------||
|-------------------|-------------------o||
|-------------------|--------------------||
comments
We did not receive enough feedback on this tab! Please rate:
print report bad tab
1 2 3 4 5
2 comments total.
0 reply
P1ayingW1thF1re wrote on January 27 2008, 07:48 pm

This looks pretty accurate I'm gonna go try it.

0 reply
Timmy Shredlock wrote on September 5 2009, 01:24 am

that lick after the intro is the coolest thing i've ever heard

I want to post or [tab]
guest
You may want to rate the tab now too:
select rating
Please do not post tabs as comments. Select "correction" instead!