Oops, an error
Loading. Please wait.

Selkies The Endless Obsession Bass Tab

ver2
ver2

Whole song

Interactive

More versions @911Tabs.com
7,429 views 3 this week
no commentswrite comment
1 2 3 4 5
accurate
x 7
add to favorites launch autoscroll
font size
0
reset
Autoscroll
+/-
esc
set tempo
stop
Contributor
Difficulty
advanced
WARNING: You are trying to view
                                    content from Ultimate-Guitar.com
                                    in an unauthorized application,
                                    which is prohibited.

                                    Please use an official Ultimate
                                    Guitar Tabs application for iPhone,
                                    iPad or Android to access legitimate
                                    chords, guitar, bass, and drum tabs
                                    from Ultimate-Guitar.com database.

                                    Type "ultimate guitar tabs" in Apple
                                    App Store's or Android Market's
                                    search to find the application.
Tuning: C# Standard
high to low (E, B, F#, C#)


|-----------------|
|-----9---10------|
|-0-7---7----10-7-|
|-----------------|x6

|------------------------------|
|-12-----------------10--9-----|
|-----------3--------------8-5-|
|------14-----1--12------------|

|-----------------------------------------------9---------------|
|--------10---------------10-----------10---------7----7-10-7---|
|-0--12-----12-10-12--10-----12-0--12-----12-10-----10--------7-|
|---------------------------------------------------------------|

|-----------------|
|-----9---10------|
|-0-7---7----10-7-|
|-----------------|x6

|------------------------------|
|-12-----------------10--9-----|
|-----------3--------------8-5-|
|------14-----1--12------------|

|--------------------------------------------------------------|
|--------10---------------10-----------10----------------------|
|-0--12-----12-10-12--10-----12-0--12-----12-10-12--10---------|
|-------------------------------------------------------10--8--|

|-----------------------------------------------9-----------9-|
|--------10---------------10-----------10---------7----7-10---|
|-0--12-----12-10-12--10-----12-0--12-----12-10-----10--------|
|-------------------------------------------------------------|

|-----------------------------------------|
|--------------8--10----------------------|
|-15\----------------10------10---8---6---|
|------8\---8-----------8\------8---8---8-|

|-2---------------------2-----------------------|
|-----------------------------------2-----------|
|----0--3-0---0-----3-0----0--3-0------0--3--2--|
|-----------3----3----------------3-------------|

|-7--------------------------|
|---9-7---0------------------|
|-------9---2-3-0--------2-3-|
|------------------2-3-4-----|

|-------------|
|-------------|
|-4--2--------|
|-------5-2-0-|x3

|---------------|
|---------------|
|-4-------2-3-4-|
|---2-3-4-------|

|-------------|
|-------------|
|-5--3--------|
|-------6-3-1-|x3

|-----------------------2-------|
|-------------------4-1---4-1---|
|-5-------3-4-5-6-3-----------3-|
|---3-4-5-----------------------|

|-------------|
|-------------|
|-4--2--------|
|-------5-2-0-|x3

|---------------|
|---------------|
|-4-------2-3-4-|
|---2-3-4-------|

|-------------|
|-------------|
|-5--3--------|
|-------6-3-1-|x3

|-----------------------2-------------|
|-------------------4-1---4-1---------|
|-5-------3-4-5-6-3-----------3-6-----|
|---3-4-5-----------------------------|

|--------------------------------------------------------------------------|
|-13-----------------------------------------------------------------------|
|----15-12----15-12---------9----12-9--------------1~--------------3---2---|
|----------14-------14-11-8---11------11-0~------------3~--4~---0----0---0-|

|---------------------------0-------|
|-------------------------------2---|
|-----------3-2---------------2---2-|
|-0~------------3-2~----------------|x2

|--------------------------------0-------------------------------------|
|------------------------------------2---------------------------------|
|----1-----------3-2---------------2---2-----------3-2-----------------|
|-0-----3--4--0------3-2~----------------0~------------3-2-2-2--2-2--3-|

|-------------|
|-------------|
|-------------|
|-0~------0-0-|

|------------------------------------------------------|
|------------------------------------------------------|
|-------------------------4-3--3-0------2-3--3---------|
|-2-0--2-3--3-2-0--2-3--3----------4--4--------2-2-2-2-|x2

|-------|
|-------|
|-------|
|-1~----|

|-------------------------------------------------------|
|-------------------------------------------------------|
|-------------------------4-3--3-0------2-3--3----------|
|-2-0--2-3--3-2-0--2-3--3----------4--4--------2--2--2--|x2

|------------------------------------------|
|------------------------------------------|
|---------------------------------5--5-4---|
|-2--2--2--2--2--2--2--2--1-0--4-----------|


*This is played very fast, I just spaced out the notes.
|-------------------------------------------------------------|
|---------------0-------------------2-2-0-2-0-2-0-------------|
|-------------2---4-4---------3-2-0---------------2-1-0-------|
|-1-1-0-0-4-4---------3-3-2-2---------------------------2-4\1-|x3

|-----------------------------------------------------------------|
|---------------0-------------------2-2-0-2-0---------------------|
|-------------2---4-4---------3-2-0-----------2-1-0---------------|
|-1-1-0-0-4-4---------3-3-2-2-----------------------4-3-2-1-4-1-1-|

|---------------------|
|---------------------|
|------0-----5-4------|
|-1-0-----4---------1-|

|---------------------------|
|---------------------------|
|-----5-6-------5-6-----4-5-|
|-3-4-------3-4-----3-4-----|x7

|-------------------|
|-------------------|
|---------------2-5-|
|-0--0--0--0--0-----|

|-----------------------------------------------------------|
|-----------------------------------------------0---4-1-----|
|-------------------------------------------2-----2-----2-6-|
|-4-1-4-1---4-1-4-1-4-1-4-1---4-1-4-1---4-1---4-------------|

|----------------------------------------|
|--------------------6-8-----------------|
|-5-2------------6-8---------------------|
|-----4-1/5--/5----------/5--/5---x-0--0-|

|-----------------------------------------------------------|
|-------------------------------------------------6-9-------|
|---------------------------2---2-5-2---------5-8-----------|
|-4-1-4-1---4-1-4-1-4-1-4-1---4-------5/5--5----------/5--5-|

|---------------------------|
|----------3------------6-9-|
|-------1-----1-----5-8-----|
|-0-1-2----------2----------|x8

|------------------|
|------------------|
|------------------|
|-6--6--0--0--0--0-|


*The timing here is weird, so listen closly to the song.
|------------------------------------------------------------|
|-2--------2---------2--------------------2--------2---------|
|------------------2---------------------------------------2-|
|----0--0-----1--0------0--0--0--0--0--8-----0--0-----1--0---|

|---------------------------------------------------------------|
|-2-------------------------------------------------------------|
|----------------------6---------6---------------------------5--|
|----0--0--0--0--0--0------5--3-----5--3--4--4----4-4--4--5-----|

|----------------------------------------------------|
|-------------------------------7-----0--------------|
|----------------------------------8-----2--3--8-5---|
|-4--4------4--4------4--4-------------------------7-|


|-----------------|
|-----9---10------|
|-0-7---7----10-7-|
|-----------------|x6

|-------------------------------7-9--------5-----------------------|
|-12--------------------10--9-------10-5-7---7-5-------------------|
|-----------3--------10-------8------------------------------------|
|------14-----1---12-----------------------------5~----------------|


|----------------------------------------------------------|
|---------------------------------------------2/10---9-7---|
|-7\----0---0---0-5-8---8---8\-5---5---5-7-0-------------7-|
|----------------------------------------------------------|x4

|----------------------------------------|
|----------------------------------------|
|---------------------5~-----------------|
|-5~--------1~---------------3-5~--------|

|-----------------------------------------|
|-----------------------------------7~----|
|---------------------5~------------------|
|-5~--------1~---------------3-5~---------|

|-----------------------------------------------------------|
|-----------------------------------------7~----------------|
|---------------------5~---------------7--------------------|
|-5~--------1~---------------3-5~---------------------------|


|----------------------------------------------------|
|---------------------------------------2/10---9-7---|
|-----------5-8-8-8-8-8--5-5-5-5-5-7-0-------------7-|
|-5-5-5-5-5------------------------------------------|x2

|----------------------------------------------|
|-----------------8----------------------------|
|-----------6-8-8----8-8-6-6-6---6-------------|
|-4-4-4-4-4-------------------------1-1-3--3-3-|

|-------------------------------------------------------------|
|-----------12-10-----------12-10-7-----------7---------------|
|--------10--------------10----------7------7-------7-----7---|
|-8---8-----------8---8----------------5--------------5-----8-|

|----------------------------------------------------------|
|-------------------5-----------2/10---9-7------5----5---5-|
|-----------------5-----5----0-------------7---------------|
|-1--1---1--3--3------3---3------------------3----3----3---|

|-------------------------------------------------------------|
|-----------12-10-----------12-10-7-----------7---------------|
|--------10--------------10----------7------7-------7-----7---|
|-8---8-----------8---8----------------5--------------5-----8-|

|----------------------------------------------------------|
|-------------------5-----------2/10---9-7------5----5---5-|
|-----------------5-----5----0-------------7---------------|
|-1--1---1--3--3------3---3------------------3----3----3---|

|---------------------------------------------------------------|
|-10--10------12-10-----------12-10-7-----------7---------------|
|----------10--------------10----------7------7-------7-----7---|
|-------------------8---8----------------5--------------5-----8-|

|----------------------------------------------------------|
|-------------------5-----------2/10---9-7------5----5---5-|
|-----------------5-----5----0-------------7---------------|
|-1--1---1--3--3------3---3------------------3----3----3---|


*This starts fading out after awile.
|-------------------------------------------------------------|
|-----------12-10-----------12-10-7-----------7---------------|
|--------10--------------10----------7------7-------7-----7---|
|-8---8-----------8---8----------------5--------------5-----8-|
                                                                 x2
|----------------------------------------------------------|
|-------------------5-----------2/10---9-7------5----5---5-|
|-----------------5-----5----0-------------7---------------|
|-1--1---1--3--3------3---3------------------3----3----3---|
comments
print report bad tab
I want to post or [tab]
guest
You may want to rate the tab now too:
select rating
Please do not post tabs as comments. Select "correction" instead!