Oops, an error
Loading. Please wait.

Selkies The Endless Obsession Tab

ver2
ver2

Solo

Whole song

Video

More versions @911Tabs.com
4,453 views 3 this week
11 commentsread comments
1 2 3 4 5
accurate
x 4
Autoscroll
+/-
esc
set tempo
stop
Contributor
WARNING: You are trying to view
                                    content from Ultimate-Guitar.com
                                    in an unauthorized application,
                                    which is prohibited.

                                    Please use an official Ultimate
                                    Guitar Tabs application for iPhone,
                                    iPad or Android to access legitimate
                                    chords, guitar, bass, and drum tabs
                                    from Ultimate-Guitar.com database.

                                    Type "ultimate guitar tabs" in Apple
                                    App Store's or Android Market's
                                    search to find the application.
I got all of this tab from asteiosmetal's Guitar Pro, I give him all the credit for 
it out I just felt that this tab needed to be posted as a real tab because I know not 
has Guitar Pro and I know that before I had Guitar Pro I wanted to learn this song so
bad, but couldn't because there was no text tab.  So here it is.  Enjoy, everyone.

Between The Buried and Me
Selkies: The Endless Obsession
Technically tabbed by: asteiosmetal
Put into text by: Antiflag125462

Guitar I(Paul)-   C#G#C#F#A#D# (Main Part)
Guitar II(Dusty)- C#G#C#F#A#D# (Main Part)
Guitar III(Paul)- C#G#C#F#A#D# (Harmony)
Guitar IV(Paul)-  C#G#C#F#A#D# (Clean)
Guitar V(Dusty)-  C#G#C#F#A#D# (Acoustic)

Update- I added where the guitars are at during the song.
Update 2- I added the times where guitars are playing what.

Order of Song(also labeled on individual parts)
Intro           0:00-1:24
Verse Part 1    1:24-1:47
Verse Part 2    1:47-2:11
Verse Part 3    2:11-2:28
Verse Part 4    2:28-2:41
Verse Part 5    2:41-2:54
Verse Part 6    2:54-3:07
Verse Part 7    3:07-3:33
Bridge          3:33-3:46
Piano           3:46-4:05
Verse 2         4:05-4:43
Clean Solo      4:43-5:22
Ending Solo     ---------
Part 1          5:22-5:41
Part 2          5:41-5:48
Harmony Part    5:48-6:28
Pick Sweeping   6:28-6:49
Closing of song 6:49-7:23



Guitar I- Paul

Intro

       W                H.
D#||----------------------------------||
A#||----------------------------------||
F#||*--------------------------------*||
C#||*--------------------------------*||
G#||----------------------------------||
C#||----------------------------------||


   E  E  E  E  E  E  E  E  E  E  E  E  E  E   3x  E  E  E  E  E  E  E  E
----------------------------------------------||--------------------------|
----------------------------------------------||--------------------------|
*--------------------------------------------*||--5-----------------------|
*--------7-----8--------------7-----8--------*||-----5--2-----2--3--------|
------5-----------8--5-----5-----------8--5---||-----------3--------1-----|
---5--------5-----------5--------5------------||-----------------------1--|


  E  E  E  Q    E  E  E     E  E  E  E  E  E  E  E  E  E  E  E  E
-------------------------|-----------------------------------------|
-------------------------|-----------------------------------------|
-----------3----2-----5--|--7--0--5--0--3--0-----7--0--5--0--3--0--|
-----0--3----------0-----|--------------------3--------------------|
-------------------------|-----------------------------------------|
--L----------------------|-----------------------------------------|


  E  E  E  E  E  E  E  E  E  E  E  E  E  E
--------------------------------------------|
--------------------------------------------|
--7--0--5--0--3--0-----7--0-----0--3--0-----|
--------------------3--------3-----------3--|
--------------------------------------------|
--------------------------------------------|


    E  E  E  E  E  E  E  E  E  E  E  E  E  E
|----------------------------------------------||
|----------------------------------------------||
|*--------------------------------------------*||
|*--------7-----8--------------7-----8--------*||
|------5-----5-----8--5--5--5-----------8--5---||
|---5--------5-----------5--------5------------||


  E  E  E  E  E  E  E  E  E  E  E  E  E  E     E  E  E  E  E  E  E  E
--------------------------------------------|--------------------------|
--------------------------------------------|--------------------------|
--------------------------------------------|--5-----------------------|
--------7-----8--------------7-----8--------|-----5--2-----2--3--------|
-----5-----5-----8--5--5--5-----------8--5--|-----------3--------1-----|
--5--------5-----------5--------5-----------|-----------------------1--|


  E  E  E  Q    E  E  E     E  E  E  E  E  E  E  E  E  E  E  E  E
-------------------------|-----------------------------------------|
-------------------------|-----------------------------------------|
-----------3----2-----5--|--7--0--5--0--3--0-----7--0--5--0--3--0--|
-----0--3----------0-----|--------------------3--------------------|
-------------------------|-----------------------------------------|
--L----------------------|-----------------------------------------|


  E  E  E  E  E  E  E  E  E  E  E  E  E  E  E
-----------------------------------------------|
-----------------------------------------------|
--7--0--5--0--3--0-----7--0-----0--5--0--3--0--|
--------------------3--------3-----------------|
-----------------------------------------------|
-----------------------------------------------|


  E  E  E  E  E  E  E  E  E  E  E  E  E
-----------------------------------------|
-----------------------------------------|
--7--0--5--0--3--0-----7--0--5--0--3--0--|
--------------------3--------------------|
-----------------------------------------|
-----------------------------------------|


  E  E  E  E  E  E  E  E  E  E  E  E  E
-----------------------------------------|
-----------------------------------------|
--7--0--5--0--3--0-----7--0-----0--3--7--|
--------------------3--------3-----------|
-----------------------------------------|
-----------------------------------------|


   E  E  E  E   E  E   E   E  E  E  E   E  E
----------------------------------------------|
----------------------------------------------|
--10-----8----------------10-----8------------|
------8-----8--11--8----------8-----8--11--8--|
----------------------11----------------------|
----------------------------------------------|


   E  E  E  E   E  E   E   E  E  E  E   E  E
----------------------------------------------|
----------------------------------------------|
--10-----8----------------10-----8------------|
------8-----8--11--8----------8-----8--11--8--|
----------------------11----------------------|
----------------------------------------------|


  E  E  E  E  E  E  E  E  E  E  E  E  E
-----------------------------------------|
-----------------------------------------|
--7--0--5--0--3--0-----7--0--5--0--3--0--|
--------------------3--------------------|
-----------------------------------------|
-----------------------------------------|


  E  E  E  E  E  E  E  E  E  E  E  E  E  E  E
-----------------------------------------------|
-----------------------------------------------|
--7--0--5--0--3--0-----7--0-----0--5--0--3--0--|
--------------------3--------3-----------------|
-----------------------------------------------|
-----------------------------------------------|


  E  E  E  E  E  E  E  Q    E  E  E  E  E
-------------------------------------------|
-------------------------------------------|
--2----------------------------------------|
-----3--0--2-------------------------------|
--------------3--0--1----------------0--1--|
-----------------------5----2--3--4--------|


  E  E  E  E  E  E  E  E  E  E  E  E  E  E
--------------------------------------------|
--------------------------------------------|
--------------------------------------------|
--------------------------------------------|
--2-----0--------------2-----0--------------|
-----2-----2--5--2--0--------------5--2--0--|


  E  E  E  E  E  E  E  E  E  E  E  E  E  E
--------------------------------------------|
--------------------------------------------|
--------------------------------------------|
--------------------------------------------|
--2-----0--------------2-----------0--1--2--|
-----2-----2--5--2--0-----2--3--4-----------|


  E  E  E  E  E  E  E  E  E  E  E  E  E  E
--------------------------------------------|
--------------------------------------------|
--------------------------------------------|
--------------------------------------------|
--3-----1--------------3-----1--------------|
-----3-----3--6--3--1--------------6--3--1--|


  E  E  E  E  E  E  E  E  E  E  E  E  E  E     E  E  E  E  E  E  E  E
--------------------------------------------|--------------------------|
--------------------------------------------|--------------------------|
--------------------------------------------|--------------0-----------|
--------------------------------------------|--------2--------2--------|
--3-----1--------------3-----------1--2--3--|--4--1-----4--------4--3--|
-----3-----3--6--3--1-----3--4--5-----------|--------------------------|


  E  E  E  E  E  E  E  E  E  E  E  E  E  E
--------------------------------------------|
--------------------------------------------|
--------------------------------------------|
--------------------------------------------|
--2-----0--------------2-----0--------------|
-----2-----2--5--2--0--------------5--2--0--|


  E  E  E  E  E  E  E  E  E  E  E  E  E  E
--------------------------------------------|
--------------------------------------------|
--------------------------------------------|
--------------------------------------------|
--2-----0--------------2-----------0--1--2--|
-----2-----2--5--2--0-----2--3--4-----------|


  E  E  E  E  E  E  E  E  E  E  E  E  E  E
--------------------------------------------|
--------------------------------------------|
--------------------------------------------|
--------------------------------------------|
--3-----1--------------3-----1--------------|
-----3-----3--6--3--1--------------6--3--1--|


  E  E  E  E  E  E  E  E  E  E  E  E  E  E
--------------------------------------------|
--------------------------------------------|
--------------------------------------------|
--------------------------------------------|
--3-----1--------------3-----------1--2--3--|
-----3-----3--6--3--1-----3--4--5-----------|


  E  E  E  E  E  E  E  E  E  E  H
-----------------------------------------|
-----------------------------------------|
--------------0--------------------------|
--------2--------2-----2-----5-----------|
--4--1-----4--------4--1-----4-----------|
-----------------------------------------|

                                             

  E  E  E  E  E  E  E  E  E  E  E  E  E  E     W
--------------------------------------------|-------------------|
--2-----------------------------------------|-------------------|
-----3--0-----3--0-----------------0--------|--7----------------|
-----------2-----------------2--------2-----|--7----------------|
--------------------4--1--------4--------4--|--5----------------|
--------------------------5-----------------|-------------------|


  W                   Q.     Q.     Q       E  Q.     E  E  E  E
-------------------|---------------------|------------------------|
-------------------|---------------------|------------------------|
--L----------------|--7------7------7----|--L--7------------------|
--L----------------|--6------3------4----|--L--7------------------|
--L----------------|--5------5------5----|--L--5------8--0--5--0--|
-------------------|---------------------|------------------------|



Verse 1:24

           ^
  H        H           H        E  E  E  E     W
--------------------|-----------------------|-------------------|
--------------------|-----------------------|-------------------|
-----------7--------|--L--------------------|-------------------|
-----------7--------|--L--------------------|-------------------|
-----------5--------|--L--------1--0-----2--|--L----------------|
--0-----------------|-----------------3--2--|--L----------------|


                                   ^
  H        E  E  E  E     H        H           H        E  E  E  E
-----------------------|--------------------|-----------------------|
-----------------------|--------------------|-----------------------|
-----------------------|-----------7--------|--L--------------------|
-----------------------|-----------7--------|--L--------------------|
--L--------8--0--5--0--|-----------5--------|--L--------1--0-----2--|
--L--------------------|--0-----------------|-----------------3--2--|


  W                   H        E  E  E  E     Q    Q.     Q.
-------------------|-----------------------|---------------------|
-------------------|-----------------------|---------------------|
-------------------|-----------------------|-------7------7------|
-------------------|-----------------------|-------0------0------|
--L----------------|--L--------8--0--5--0--|--0------------------|
--L----------------|--L--------------------|--0----6------3------|


  Q    Q    E  E  E  E     W                   H        E  E  E  E
------------------------|-------------------|-----------------------|
------------------------|-------------------|-----------------------|
--7---------------------|-------------------|-----------------------|
--0---------------------|-------------------|-----------------------|
------------1--0-----2--|--L----------------|--L--------8--0--5--0--|
--4----0----------3--2--|--L----------------|--L--------------------|


           ^
  H        H           H        E  E  E  E     E  E  E  E  Q.     E
--------------------|-----------------------|------------------------|
--------------------|-----------------------|------------------------|
-----------7--------|--L--------------------|------------------------|
-----------7--------|--L--------------------|------------------------|
-----------5--------|--L--------1--0-----2--|-----2-----2---------2--|
--0-----------------|-----------------3--2--|-----2-----2---------2--|


                                         PM    PM
  E  E  Q.     Q.        H.           E  E     Q    H.
----------------------|---------------------|--------------------|
----------------------|---------------------|--------------------|
---------------2------|---------------------|--------------------|
----------------------|---------------------|--------------------|
-----2----------------|--0------------L--0--|--0-----------------|
-----2---------3------|--0------------L--0--|--0-----------------|


Verse Part 2 1:47


    E  Q    Q    Q    E     E  Q    Q    Q    E     E  Q    E  E  Q    E
|------------------------|-----------------------|------------------------|
|------------------------|-----------------------|------------------------|
|*-----------------------|-----------------------|------------------------|
|*-----------------------|-----------------------|------------------------|
|---2--0----2----3----3--|--2--0----2----3----3--|--9--8----8--5--4----4--|
|---2--0----2----3----3--|--2--0----2----3----3--|--9--8----8--5--4----4--|


  E  Q    E  E  E  E  E       H           E  Q    Q    Q    E
--------------------------||-----------|-----------------------|
--------------------------||-----------|-----------------------|
-------------------------*||-----------|-----------------------|
-------------------------*||--1--------|-----------------------|
--7--8----8--2--2--2--2---||--1--------|--2--0----2----3----3--|
--7--8----8--2--2--2--2---||--1--------|--2--0----2----3----3--|


                                                              PM   PM   PM
                                                              |----3----|
  E  Q    Q    Q    E     E  Q    E  E  Q    E     E  Q    E  Q    Q    Q
-----------------------|------------------------|----------------------------|
-----------------------|------------------------|----------------------------|
-----------------------|------------------------|----------------------------|
-----------------------|------------------------|----------------------------|
--2--0----2----3----3--|--9--8----8--5--4----4--|--7--8----8--2----2----2----|
--2--0----2----3----3--|--9--8----8--5--4----4--|--7--8----8--2----2----2----|


  E  Q    Q    Q    E     E  Q    Q    Q    E     E  Q    E  E  Q    E
-----------------------|-----------------------|------------------------|
-----------------------|-----------------------|------------------------|
-----------------------|-----------------------|------------------------|
-----------------------|-----------------------|------------------------|
--2--0----2----3----3--|--2--0----2----3----3--|--9--8----8--5--4----4--|
--2--0----2----3----3--|--2--0----2----3----3--|--9--8----8--5--4----4--|


                               PM   PM   PM   PM   PM   PM      PM   PM   PM
             |----3----|       |----3----|    |----3----|       |----3----|
  E  Q    E  Q    Q    Q       Q    Q    Q    Q    Q    Q       Q    Q    Q
----------------------------|--------------------------------|-----------------|
----------------------------|--------------------------------|-----------------|
----------------------------|--------------------------------|-----------------|
----------------------------|--------------------------------|-----------------|
--7--8----8--2----2----2----|--2----2----2----2----2----2----|--2----2----2----|
--7--8----8--2----2----2----|--2----2----2----2----2----2----|--2----2----2----|


Verse Part 3 2:11


                                PM PM PM PM PM PM       PM PM PM PM PM
  S E  S S E  S    E  Q.        S  S  S  S  S  S  S S S S  S  S  S  S  S S
----------------|------------|---------------------------------------------|
----------------|------------|---------------------------------------------|
----------------|------------|---------------------------------------------|
----------------|------------|---------------------------------------------|
---------x-3--3-|--2---------|--------------------0-3-2-2--------------1-0-|
--1-0--4-x------|------------|--1--1--0--0--4--4-----------3--3--2--2------|


    PM PM PM
  S S  S  S  S S S S S S S S E   E
------------------------------------|
------------------------------------|
------------------------------------|
------------------------------------|
----5--5--3--5-3-0-5-0--------------|
--0--------------------6-4-2-4\--1--|


  PM PM PM PM PM PM       PM PM PM PM PM
  S  S  S  S  S  S  S S S S  S  S  S  S  S S
---------------------------------------------|
---------------------------------------------|
---------------------------------------------|
---------------------------------------------|
--------------------0-3-2-2--------------1-0-|
--1--1--0--0--4--4-----------3--3--2--2------|


    PM PM PM
  S S  S  S  S S S S S S S S E   E
------------------------------------|
------------------------------------|
------------------------------------|
------------------------------------|
----5--5--3--5-3-0-5-0--------------|
--0--------------------6-4-2-4\--1--|


  PM PM PM PM PM PM       PM PM PM PM PM
  S  S  S  S  S  S  S S S S  S  S  S  S  S S
---------------------------------------------|
---------------------------------------------|
---------------------------------------------|
---------------------------------------------|
--------------------0-3-2-2--------------1-0-|
--1--1--0--0--4--4-----------3--3--2--2------|


    PM PM PM
  S S  S  S  S S S S S S S S E   E
------------------------------------|
------------------------------------|
------------------------------------|
------------------------------------|
----5--5--3--5-3-0-5-0--------------|
--0--------------------6-4-2-4\--1--|


  PM PM PM PM PM PM       PM PM PM PM PM
  S  S  S  S  S  S  S S S S  S  S  S  S  S S
---------------------------------------------|
---------------------------------------------|
---------------------------------------------|
---------------------------------------------|
--------------------0-3-2-2--------------1-0-|
--1--1--0--0--4--4-----------3--3--2--2------|


    PM PM PM                                              ^
  S S  S  S  S S S S S S S S E   E     S E  E  E  S E  E  Q
------------------------------------|--------------------------|
------------------------------------|--------------------------|
------------------------------------|--------------------------|
------------------------------------|----------4--5-4-----2----|
----5--5--3--5-3-0-5-0--------------|--1-0--3--3--3-2----------|
--0--------------------6-4-2-4\--1--|--1-0--4--4--5-4-----1----|


Verse Part 4 2:28


  S S S S E  S S S S S S S S E     S S S S E  S S S S S S S S E
--------------------------------|--------------------------------|
--------------------------------|--------------------------------|
--------------------------------|--------------------------------|
--------------------------------|--------------------------------|
------3-4--------3-4-----1-3----|------3-4--------3-4-----1-3----|
--3-4--------3-4-----3-4--------|--3-4--------3-4-----3-4--------|


  S S S S E  S S S S S S S S E     S S S S E  S S S S S S S S E
--------------------------------|--------------------------------|
--------------------------------|--------------------------------|
--------------------------------|--------------------------------|
--------------------------------|--------------------------------|
------3-4--------3-4-----1-3----|------3-4--------3-4-----1-3----|
--3-4--------3-4-----3-4--------|--3-4--------3-4-----3-4--------|


  S S S S E  S S S S S S S S E     S S S S E  S S S S S S S S E
--------------------------------|--------------------------------|
--------------------------------|--------------------------------|
--------------------------------|--------------------------------|
--------------------------------|--------------------------------|
------3-4--------3-4-----1-3----|------3-4--------3-4-----1-3----|
--3-4--------3-4-----3-4--------|--3-4--------3-4-----3-4--------|


                                   PM PM PM PM PM PM PM PM
  S S S S E  S S S S S S S S E     S  E  S  E  S  E  S  E  S S S S
--------------------------------|----------------------------------|
--------------------------------|----------------------------------|
--------------------------------|----------------------------------|
--------------------------------|------------------------------4-7-|
------3-4--------3-4-----1-3----|-----0-----0-----0-----0--3-6-----|
--3-4--------3-4-----3-4--------|--0--0--0--0--0--0--0--0----------|


Verse Part 5 2:41

  PM PM PM PM    PM PM PM PM PM PM PM PM
  S  S  S  S  E  S  S  S  S  S  S  S  S  E
--------------------------------------------|
--------------------------------------------|
--------------------------------------------|
--------------------------------------------|
-----------------------------0--3-----------|
--4--1--4--1-----4--1--4--1--------4--1-----|


  PM PM PM PM    PM PM   PM PM   PM PM   PM
  S  S  S  S  E  S  S  S S  S  S S  S  S S
--------------------------------------------|
--------------------------------------------|
--------------------------------------------|
-----------------------------------------4--|
-----------------------0----3--0-4--7--0----|
--4--1--4--1-----4--1----4------------------|


  S S S S E.  E  S S S S E.  Q    S E.  Q
---------------------------------------------|
---------------------------------------------|
---------------------------------------------|
---------------------4-6---------------------|
--3-0-----4---4--4-6-----4---4----x-4---4----|
------4-1-5---5----------5---5----x-0---0----|


  PM PM PM PM    PM PM PM PM PM PM PM PM
  S  S  S  S  E  S  S  S  S  S  S  S  S  E
--------------------------------------------|
--------------------------------------------|
--------------------------------------------|
--------------------------------------------|
-----------------------------0--3-----------|
--4--1--4--1-----4--1--4--1--------4--1-----|


  PM PM PM PM    PM PM PM PM PM PM PM PM
  S  S  S  S  E  S  S  S  S  S  S  S  S  S S
---------------------------------------------|
---------------------------------------------|
---------------------------------------------|
---------------------------------------------|
-----------------------------0--3--------0-3-|
--4--1--4--1-----4--1--4--1--------4--1------|


                                         Verse Part 6 2:54



  S S S S  E.  E  S S S S  E.  Q    S     S S E  E  E  E  E  S S S S
---------------------------------------|-----------------------------|
---------------------------------------|-----------------------------|
---------------------------------------|-----------------------------|
----------------------4-7--------------|-------------------------4-7-|
--3-6-3---/4---4--3-6-----\4---4----L\-|------------6--------3-6-----|
--------5-/5---5----------\5---5----L\-|--0-1-2--6-----6--2----------|


  S S E  E  E  E  E  S S S S    S S E  E  E  E  E  S S S S
-----------------------------|-----------------------------|
-----------------------------|-----------------------------|
-----------------------------|-----------------------------|
-------------------------4-7-|-------------------------4-7-|
------------6--------3-6-----|------------6--------3-6-----|
--0-1-2--6-----6--2----------|--0-1-2--6-----6--2----------|


  S S E  E  E  E  E  S S S S    S S E  E  E  E  E  S S S S
-----------------------------|-----------------------------|
-----------------------------|-----------------------------|
-----------------------------|-----------------------------|
-------------------------4-7-|-------------------------4-7-|
------------6--------3-6-----|------------6--------3-6-----|
--0-1-2--6-----6--2----------|--0-1-2--6-----6--2----------|


  S S E  E  E  E  E  S S S S    S S E  E  E  E  E  S S S S
-----------------------------|-----------------------------|
-----------------------------|-----------------------------|
-----------------------------|-----------------------------|
-------------------------4-7-|-------------------------4-7-|
------------6--------3-6-----|------------6--------3-6-----|
--0-1-2--6-----6--2----------|--0-1-2--6-----6--2----------|


                              Verse Part 7 3:07


  S S E  E  E  E  E  S S S S    E.  Q.     E.  Q.     E.  Q    E.
-----------------------------|-------------------------------------|
-----------------------------|-------------------------------------|
-----------------------------|-------------------------------------|
-------------------------4-7-|-------------------------------------|
------------6--------3-6-----|--4---4------0---0------0---0--------|
--0-1-2--6-----6--2----------|--6---6------6---6------0---0--------|


  PM  PM            PM  PM            PM  PM            PM  PM  PM  PM
  E.  E.  Q.        E.  E.  Q.        E.  E.  Q.        E.  E.  E.  E.
-----------------|-----------------|-----------------|------------------|
-----------------|-----------------|-----------------|------------------|
-----------------|-----------------|-----------------|------------------|
-----------------|-----------------|-----------------|------------------|
--0---0----------|--0---0----------|--0---0----------|--0---0---0---0---|
--0---0----------|--0---0----------|--0---0----------|--0---0---0---0---|


  PM  PM            PM  PM            PM  PM            PM  PM  PM  PM
  E.  E.  Q.        E.  E.  Q.        E.  E.  Q.        E.  E.  E.  E.
-----------------|-----------------|-----------------|------------------|
-----------------|-----------------|-----------------|------------------|
-----------------|-----------------|-----------------|------------------|
-----------------|-----------------|-----------------|------------------|
--0---0----------|--0---0----------|--0---0----------|--0---0---0---0---|
--0---0----------|--0---0----------|--0---0----------|--0---0---0---0---|


  PM  PM            PM  PM            PM  PM            PM  PM  PM  PM
  E.  E.  Q.        E.  E.  Q.        E.  E.  Q.        E.  E.  E.  E.
-----------------|-----------------|-----------------|------------------|
-----------------|-----------------|-----------------|------------------|
-----------------|-----------------|-----------------|------------------|
-----------------|-----------------|-----------------|------------------|
--3---3----------|--3---3----------|--3---3----------|--3---3---3---3---|
--4---4----------|--4---4----------|--4---4----------|--4---4---4---4---|


  PM  PM            PM  PM            PM  PM             PM    PM
  E.  E.  Q.        E.  E.  Q.        E.  E.  Q.         E  E  E  E
-----------------|-----------------|-----------------|---------------|
-----------------|-----------------|-----------------|---------------|
-----------------|-----------------|-----------------|---------------|
-----------------|-----------------|-----------------|---8-----5-----|
--3---3----------|--3---3----------|--3---3----------|--10-----6-----|
--4---4----------|--4---4----------|--4---4----------|---------------|
 

                                   Bridge 3:33


  PM                                 PM PM    PM
  E  E  E  E     E  S    E  E  E     E  E  E  E  E  E  E
--------------|-------|-----------|-----------------------|
--------------|-------|-----------|-----------------------|
--------------|-------|-----------|-----------------------|
--1-----------|--0----|-----------|--------7-----8--------|
--3-----3-----|--1----|--6--------|-----5-----5-----8--5--|
--------7-----|-------|-----8--7--|--5--------5-----------|


  PM PM    PM          PM PM    PM
  E  E  E  E  E  E  E  E  E  E  E  E  E  E
--------------------------------------------|
--------------------------------------------|
--------------------------------------------|
--------7-----8--------------7-----8--------|
-----5-----5-----8--5-----5-----5-----8--5--|
--5--------5-----------5--------5-----------|


  PM PM    PM          PM PM    PM
  E  E  E  E  E  E  E  E  E  E  E  E  E  E
--------------------------------------------|
--------------------------------------------|
--------------------------------------------|
--------7-----8--------------7-----8--------|
-----5-----5-----8--5-----5-----5-----8--5--|
--5--------5-----------5--------5-----------|


  PM PM    PM          PM PM    PM
  E  E  E  E  E  E  E  E  E  E  E  E  E  E     E  E  E  E  E  E  E  E
--------------------------------------------|--------------------------|
--------------------------------------------|--------------------------|
--------------------------------------------|--5-----------------------|
--------7-----8--------------7-----8--------|-----5--2-----2--3--------|
-----5-----5-----8--5-----5-----5-----8--5--|-----------3--------1-----|
--5--------5-----------5--------5-----------|-----------------------1--|


                                                     Piano plays 3:46


  E  E  E  Q    E  E  E     E  E  E  E  E  E  E  E     W
-------------------------|--------------------------|-------------------|
-------------------------|--------------------------|-------------------|
-----------3----2-----5--|--7--0-----0--3--0--------|-------------------|
-----0--3----------1-----|--------3-----------0--7--|--L----------------|
-------------------------|-----------------------5--|--L----------------|
--L----------------------|-----------------------5--|--L----------------|


  W                   W                   W                   W
-------------------|-------------------|-------------------|-------------------|
-------------------|-------------------|-------------------|-------------------|
-------------------|-------------------|-------------------|-------------------|
--L----------------|--L----------------|--L----------------|-------------------|
--L----------------|--L----------------|--L----------------|-------------------|
--L----------------|--L----------------|--L----------------|-------------------|


  W                   W                   W
-------------------|-------------------|-------------------|
-------------------|-------------------|-------------------|
-------------------|-------------------|-------------------|
-------------------|-------------------|-------------------|
-------------------|-------------------|-------------------|
-------------------|-------------------|-------------------|


Verse 2 4:05


    W                   W                   W
|--------------------|-------------------|-------------------|
|--------------------|-------------------|-------------------|
|*-------------------|-------------------|-------------------|
|*-------------------|-------------------|-------------------|
|--------------------|-------------------|-------------------|
|--------------------|-------------------|-------------------|

                        4:25
  W                     W                   E  Q    E   H
--------------------||-------------------|-----------------------|
--------------------||-------------------|-----8----Ls--3--------|
-------------------*||-------------------|-----------------------|
-------------------*||-------------------|-----------------------|
--------------------||-------------------|-----------------------|
--------------------||-------------------|-----------------------|


   E.   E.   E.   Q     S  S  S     Q     H.              W
---------------------------------|---------------------|-------------------|
-------10---13---11-----L-10--Ls-|--6\-----------------|-------------------|
---------------------------------|---------------------|-------------------|
--10-----------------------------|---------------------|-------------------|
---------------------------------|---------------------|-------------------|
---------------------------------|---------------------|-------------------|


  E  Q    E   H            E.   E.   E.   Q     S  S  S     Q     H.
-----------------------|---------------------------------|---------------------|
-----8----Ls--3--------|-------10---13---11-----L-10--Ls-|--6\-----------------|
-----------------------|---------------------------------|---------------------|
-----------------------|--10-----------------------------|---------------------|
-----------------------|---------------------------------|---------------------|
-----------------------|---------------------------------|---------------------|


Clean Solo 4:43


  E   S  S  S S  S  Q     S  S  S  S  S     S  S  E   E   E   S Q.     S
----------------------------------------|--------------------------------|
----------------------------10-11-10----|--------------------------------|
-----------10---10-12-----L----------10-|------------10--12--------------|
-----10-12------------------------------|--12-10-------------10-8--------|
----------------------------------------|--------13----------------------|
----------------------------------------|--------------------------------|


  E  T  T  S S  S  S  S  S  S S S S S S  S     Q.      Q     E    E   E
-------------------------------------------|-----------------------------|
-------------8-10-11-10--------------------|-------------------------13--|
----------10------------12-10-8-7-5--------|----------12----12s--14--14--|
-----7-10---------------------------7-8-10-|--12-------------------------|
-------------------------------------------|-----------------------------|
-------------------------------------------|-----------------------------|


                              |--3-|
   S   E.   E   S   Q.      S S S  S     E.   E.   Q    E  S   E.
-------------------------------------|-----------------------------|
--13S-15---10--10S-11-------L--------|-----------------------------|
--14S-15---10--10S-12-------L---7-10-|-----------------------------|
------------------------------8------|--13---12--------------------|
-------------------------------------|------------13----8--8S-10---|
-------------------------------------|-----------------------------|


  E  S S S  S S  S S  S S  S T T T  T S  S      E   S  S  S  S   H         E
-----------------------------8-9-8---------|-----------------------------------|
------------------------8-11-------11-8-11-|--/10------------------------------|
-------------------8-10--------------------|-------10--------------------------|
--------------8-10-------------------------|----------10-------/12---------L\--|
-----6-6-8-10------------------------------|-------------12-10-----------------|
-------------------------------------------|-----------------------------------|


  Q     E     Q      E     Q        S   S S   S S  S  S  S  S  S S   Q     S
-------14br---Lb-----Lpbr-------|--11p-10-8h----8-10-------------------------|
--------------------------------|------------11------11----------------------|
--------------------------------|-----------------------10-12-12---/14-----L-|
--------------------------------|--------------------------------------------|
--------------------------------|--------------------------------------------|
--------------------------------|--------------------------------------------|


  E   S  S  S  S  S  S  S  S  S  S  S  S  S S
----------------------------------------------|
----------------------------------------------|
--------------10----12-10-14------------------|
-----10-13-12----13----------10-12-10---------|
--------------------------------------12-10-8-|
----------------------------------------------|


         |-3-|
   S S S S S S S S E.  S S S S S S    H.           E  E
-----------------------------------|---------------------|
-----------------------------------|---------------------|
-----------------------------------|---------------------|
---------------------------------3-|--5------------L--3--|
--/5-3-0-3-1-0---------1---1-3-5---|---------------------|
---------------5-3-5-----3---------|---------------------|


                                                       |--3--|
   H        E  S  S S  S  S  S     E   S  E  S  Q.     E  E  E
-------------------------------|--------------------------------|
-------------------------------|--------------------------------|
----------------------------10-|--12----------------------------|
--/5--------L-------8-10-12----|------12-10--8-10------8--7-----|
---------------8-10------------|-----------------------------8--|
-------------------------------|--------------------------------|


                           Ending Solo Part 1 5:22


   E  S  H.            S       E.   E     S  Q     Q     S   S
-------------------------||------------------------------------|
-------------------------||---10----Lbr---L--------------------|
-------------------------||*----------------10----------10S-12-|
-------------------------||*----------------------12-----------|
--10--3S-5~--------------||------------------------------------|
-------------------------||------------------------------------|


   E.    E.   Q     Q    E      Q     E    Q    Q     E
----------------------------|----------------------------|
-------------10-------------|------------------------10--|
---L---/12---------10-------|--------10--/12----8--------|
-------------------------8--|--10------------------------|
----------------------------|----------------------------|
----------------------------|----------------------------|



                                     Ending Solo Part 2 5:41


   E   Q       Q       E   E   E        Q.     H        E
-----------------------------------||----------------------|
---L---Lbr-----Lbr------------10---||--11------9--------L--|
--------------------------12------*||----------------------|
----------------------12----------*||----------------------|
-----------------------------------||----------------------|
-----------------------------------||----------------------|


   E   E     E   H         E      E   E     E   H         E
--------------------------11--|--------------------------16--|
--11---Lbr---L--13------------|--14---Lbr---L----------------|
------------------------------|----------------13------------|
------------------------------|------------------------------|
------------------------------|------------------------------|
------------------------------|------------------------------|


Harmony comes in 5:48


   S    S  S  S  E     H         T  T  T  T
---Lbr-15-----------------------------------|
----------18----16br---L--------------------|
-------------15-----------------------12-14-|
-----------------------------------12-------|
--------------------------------15----------|
--------------------------------------------|


   E.   S    S  S  H         T  T  T  T     E.   S    S  S  Q     Q     E
----------------------------------------|----------------------------------|
----------------------------------------|----------------------------------|
--15----Lbr--L-14-15--------------12-14-|--15----Lbr--L-14-15----14----12--|
-------------------------------12-------|----------------------------------|
----------------------------15----------|----------------------------------|
----------------------------------------|----------------------------------|


   E.   S    S S  Q      Q     E      E   E   E   E   E   E   E   E
----------------------------------|----------------------------------|
-----------------------/11----11--|---L--13--13----------------------|
--10----Lbr--L-8-10---------------|--------------12--12--14--14--10--|
----------------------------------|----------------------------------|
----------------------------------|----------------------------------|
----------------------------------|----------------------------------|


   W                    S   E.   Q     Q     Q       W
--------------------|-----------------------------|-------------------|
--------------------|--10-------------------10----|-------------------|
--12----------------|-----/10---------------------|--7----------------|
--------------------|-----------10----13----------|-------------------|
--------------------|-----------------------------|-------------------|
--------------------|-----------------------------|-------------------|


   |--3--|  |--3--|  |--3--|  |--3--|     |--3--|  |--3--|  |--3--|  |--3--|
   S  S  S  S  S  S  S  S  S  S  S  S     S  S  S  S  S  S  S  S  S  S  S  S
-----------------------------------------------------------------------------|
-----------------------------------------------------------------------------|
--------------------------------------12g14-12-------------------------------|
--15-15-13-12----------------12-13-15----------15-13-12----------------------|
--------------15-13-12-13-15----------------------------15-13-12-10----10-12-|
--------------------------------------------------------------------13-------|


  Q.     Q.     Q       E  Q    Q    Q     E      H         E   E  E  E
---------------------|------------------------|--------------------------|
---------------------|------------------------|--------------------------|
---------------------|---------------7----10--|--10---------L--10--------|
--7------0------3----|--L--7----8-------------|--------------------7--8--|
---------------------|------------------------|--------------------------|
---------------------|------------------------|--------------------------|


  E  Q    H        S S     Q     E     Q     S  S  E.   S
-----------------------|--13-----Lbr---L-------------------|
-----------------------|--------------------11-10-11----L\-|
-----------------------|-----------------------------------|
--L--7-----------------|-----------------------------------|
----------8--------6-5-|-----------------------------------|
-----------------------|-----------------------------------|


  E   S  S    S  S  S  S  S  S    S  S  S  S  S  S
-----17--Lbr--L-15----15---------------------------|
-------------------18----15--Lbr--L----18----15----|
------------------------------------17----15----15-|
---------------------------------------------------|
---------------------------------------------------|
---------------------------------------------------|


   S  S    S  S  S  S  Q     T  T  T  T  Q
----------------------------------------18\----|
-------------------------------------15--------|
--14--Lbr--L----14----------------15-----------|
-------------15----15-17-----L-17--------------|
-----------------------------------------------|
-----------------------------------------------|


   |--3--|  |--3--|  |--3--|  |--3--|  |--3--|  |--3--|  |--3--|
   S  S  S  S  S  S  S  S  S  S  S  S  S  S  S  S  S  S  S  S  S  E
--17-15--------------------------------------------------------------|
--------18-16-15----15-16-15-----------------------------------------|
-----------------17----------17-15-14--------------------------------|
--------------------------------------17-15-13-12--------------------|
--------------------------------------------------15-13-12-----------|
-----------------------------------------------------------17-15--L--|


Sweeps 6:28


   |--3--|  |--3--|   |---3--|  |--3--|   |---3--|  |--3--|  |--3--|  |--3--|
   S  S  S  S  S  S   S   S  S  S  S  S   S   S  S  S  S  S  S  S  S  S  S  S
---------------------20p-----------------18p-------------------------------13h-|
-----------------18h-----18----------18h-----18-------------------------15-----|
--------------19------------19----19------------19-------------------15--------|
-----------20------------------20------------------20-------------15-----------|
-----17-20--------------------------------------------20-17----17--------------|
--20--------------------------------------------------------20-----------------|


   |---3--|  |--3--|  |--3--|  |--3--|  |---3---|  |--3--|  |--3--|  |--3--|
   S   S  S  S  S  S  S  S  S  S  S  S  S   S   S  S  S  S  S  S  S  S  S  S
--17p-13-------------------------10-13-17h-18p-17-------------------------17-|
---------15-------------------10------------------18-------------------13----|
------------14-------------10------------------------19-------------14-------|
---------------15-12----12------------------------------19-------15----------|
---------------------13------------------------------------20-17-------------|
-----------------------------------------------------------------------------|


   |---3--|  |--3--|  |---3--|  |--3--|  |--3--|  |--3--|  |---3--|  |--3--|
   S   S  S  S  S  S  S   S  S  S  S  S  S  S  S  S  S  S  S   S  S  S  S  S
--15p-------------10-15p-------------------------------10-15p-------------10-|
------15-------11--------15-------------------------11--------15-------11----|
---------15-12--------------15-12----------------12--------------15-12-------|
----------------------------------12----------12-----------------------------|
-------------------------------------13-10-13--------------------------------|
-----------------------------------------------------------------------------|


   |----3----|  |--3--|  |--3--|  |----3---|   |--3--|  |--3--|  |--3--|  |--3--
   T  T   S  S  S  S  S  S  S  S  S  S  T  T   S  S  S  S  S  S  S  S  S  S  S
--13-17p-13-------------------------10-13-17h-18-17-------------------------13-1-|
------------15-------------------10-----------------18-------------------15------|
---------------14-------------10-----------------------19-------------14---------|
------------------15-12----12-----------------------------19-------15------------|
------------------------13-----------------------------------20-17---------------|
---------------------------------------------------------------------------------|


   |---3--|  |--3--|  |---3--|  |--3--|  |-3-|  |--3--|  |---3--|  |--3--|
   S   S  S  S  S  S  S   S  S  S  S  S  E   S  S  S  S  S   S  S  S  S  S
--18p-15----------15-18p-15--------------------------15-18p-15-------------|
---------16----16-----------16--------------------16-----------16----------|
------------15-----------------15--------------15-----------------15-------|
----------------------------------17--------17-----------------------17----|
-------------------------------------18-18------------------------------18-|
---------------------------------------------------------------------------|


   |---3--|  |--3--|  |---3--|  |--3--|  |---3--|  |--3--|
   S   S  S  S  S  S  S   S  S  S  S  S  S   S  S  S  S  S  Q
---------------13-17-20p-17----------17-20p-17-------------------|
------------13--------------18----18-----------18----------------|
---------14--------------------17-----------------17-------------|
------15---------------------------------------------19----------|
--15h---------------------------------------------------20-------|
-----------------------------------------------------------22----|


   |--3--|  |--3--|  |--3--|  |--3--|  |--3--|  |--3--|  |--3--|  |--3--|
   S  S  S  S  S  S  S  S  S  S  S  S  S  S  S  S  S  S  S  S  S  S  S  S
--------------------------------------------------------------------------|
--23-23-23----------------------------------------------------------------|
-----------24-24-24-------------------------------------------------------|
--------------------24-24-24-20-20-20-17-17-17----------------------------|
-----------------------------------------------17-17-17-13-13-13-10-10-10-|
--------------------------------------------------------------------------|


   |--3--|  |--3--|   |---3--|  |--3--|   |---3--|  |--3--|  |--3--|  |--3-|
   S  S  S  S  S  S   S   S  S  S  S  S   S   S  S  S  S  S  S  S  S  S S  S
-----------------11h-17p-------------11h-17p----------------------------8-11-|
-------------------------16-------13---------16----------------------10------|
--------------17------------17-14---------------17-14-------------10---------|
--------15-19-----------------------------------------15---------------------|
-----12--------------------------------------------------12----12------------|
--15--------------------------------------------------------15---------------|


Closing of the song 6:49


   S   S   S  S  S   S   S  S  S   S   S  S  S   S   S   S
--17h-18p-17-----------------------------------------------|
-------------18--------------------------------------------|
----------------17h-19p-17-15-14h-15p-14-------------------|
-----------------------------------------15----------------|
--------------------------------------------15h-17p-15p-13-|
-----------------------------------------------------------|


   S   S   S  S  S   S   S  S  S   S   S  S  S   S   S   S
--17h-18p-17-----------------------------------------------|
-------------18--------------------------------------------|
----------------17h-19p-17-15-14h-15p-14-------------------|
-----------------------------------------15----------------|
--------------------------------------------15h-17p-15p-13-|
-----------------------------------------------------------|


   S   S   S  S  S   S   S  S  S   S   S  S  S   S   S   S
--17h-18p-17-----------------------------------------------|
-------------18--------------------------------------------|
----------------17h-19p-17-15-14h-15p-14-------------------|
-----------------------------------------15----------------|
--------------------------------------------15h-17p-15p-13-|
-----------------------------------------------------------|


   S   S   S  S  S   S   S  S  S   S   S  S  S   S   S   S
--17h-18p-17-----------------------------------------------|
-------------18--------------------------------------------|
----------------17h-19p-17-15-14h-15p-14-------------------|
-----------------------------------------15----------------|
--------------------------------------------15h-17p-15p-13-|
-----------------------------------------------------------|


   S   S   S  S  S   S   S  S  S   S   S  S  S   S   S   S
--17h-18p-17-----------------------------------------------|
-------------18--------------------------------------------|
----------------17h-19p-17-15-14h-15p-14-------------------|
-----------------------------------------15----------------|
--------------------------------------------15h-17p-15p-13-|
-----------------------------------------------------------|


   S   S   S  S  S   S   S  S  S   S   S  S  S   S   S   S
--17h-18p-17-----------------------------------------------|
-------------18--------------------------------------------|
----------------17h-19p-17-15-14h-15p-14-------------------|
-----------------------------------------15----------------|
--------------------------------------------15h-17p-15p-13-|
-----------------------------------------------------------|


   S   S   S  S  S   S   S  S  S   S   S  S  S   S   S   S
--17h-18p-17-----------------------------------------------|
-------------18--------------------------------------------|
----------------17h-19p-17-15-14h-15p-14-------------------|
-----------------------------------------15----------------|
--------------------------------------------15h-17p-15p-13-|
-----------------------------------------------------------|


   S   S   S  S  S   S   S  S  S   S   S  S  S   S   S   S
--17h-18p-17-----------------------------------------------|
-------------18--------------------------------------------|
----------------17h-19p-17-15-14h-15p-14-------------------|
-----------------------------------------15----------------|
--------------------------------------------15h-17p-15p-13-|
-----------------------------------------------------------|


   S   S   S  S  S   S   S  S  S   S   S  S  S   S   S   S
--17h-18p-17-----------------------------------------------|
-------------18--------------------------------------------|
----------------17h-19p-17-15-14h-15p-14-------------------|
-----------------------------------------15----------------|
--------------------------------------------15h-17p-15p-13-|
-----------------------------------------------------------|


   S   S   S  S  S   S   S  S  S   S   S  S  S   S   S   S
--17h-18p-17-----------------------------------------------|
-------------18--------------------------------------------|
----------------17h-19p-17-15-14h-15p-14-------------------|
-----------------------------------------15----------------|
--------------------------------------------15h-17p-15p-13-|
-----------------------------------------------------------|


   S   S   S  S  S   S   S  S  S   S   S  S  S   S   S   S
--17h-18p-17-----------------------------------------------|
-------------18--------------------------------------------|
----------------17h-19p-17-15-14h-15p-14-------------------|
-----------------------------------------15----------------|
--------------------------------------------15h-17p-15p-13-|
-----------------------------------------------------------|


   S   S   S  S  S   S   S  S  S   S   S  S  S   S   S   S
--17h-18p-17-----------------------------------------------|
-------------18--------------------------------------------|
----------------17h-19p-17-15-14h-15p-14-------------------|
-----------------------------------------15----------------|
--------------------------------------------15h-17p-15p-13-|
-----------------------------------------------------------|


   S   S   S  S  S   S   S  S  S   S   S  S  S   S   S   S
--17h-18p-17-----------------------------------------------|
-------------18--------------------------------------------|
----------------17h-19p-17-15-14h-15p-14-------------------|
-----------------------------------------15----------------|
--------------------------------------------15h-17p-15p-13-|
-----------------------------------------------------------|


   S   S   S  S  S   S   S  S  S   S   S  S  S   S   S   S
--17h-18p-17-----------------------------------------------|
-------------18--------------------------------------------|
----------------17h-19p-17-15-14h-15p-14-------------------|
-----------------------------------------15----------------|
--------------------------------------------15h-17p-15p-13-|
-----------------------------------------------------------|


   S   S   S  S  S   S   S  S  S   S   S  S  S   S   S   S
--17h-18p-17-----------------------------------------------|
-------------18--------------------------------------------|
----------------17h-19p-17-15-14h-15p-14-------------------|
-----------------------------------------15----------------|
--------------------------------------------15h-17p-15p-13-|
-----------------------------------------------------------|


   S   S   S  S  S   S   S  S  S   S   S  S  S   S   S   S
--17h-18p-17-----------------------------------------------||
-------------18--------------------------------------------||
----------------17h-19p-17-15-14h-15p-14-------------------||
-----------------------------------------15----------------||
--------------------------------------------15h-17p-15p-13-||
-----------------------------------------------------------||





Guitar II- Dusty




Intro 0:00


       W                H.
D#||----------------------------------||
A#||----------------------------------||
F#||*--------------------------------*||
C#||*--------------------------------*||
G#||----------------------------------||
C#||----------------------------------||


   E  E  E  E  E  E  E  E  E  E  E  E  E  E   3x  E  E  E  E  E  E  E  E
----------------------------------------------||--------------------------|
----------------------------------------------||--------------------------|
*--------------------------------------------*||--5-----------------------|
*--------7-----8--------------7-----8--------*||-----5--2-----2--3--------|
------5-----------8--5-----5-----------8--5---||-----------3--------1-----|
---5--------5-----------5--------5------------||-----------------------1--|


  E  E  E  Q    E  E  E     E  E  E  E  E  E  E  E  E  E  E  E  E
-------------------------|-----------------------------------------|
-------------------------|-----------------------------------------|
-----------3----2-----5--|--7--0--5--0--3--0-----7--0--5--0--3--0--|
-----0--3----------0-----|--------------------3--------------------|
-------------------------|-----------------------------------------|
--L----------------------|-----------------------------------------|


  E  E  E  E  E  E  E  E  E  E  E  E  E  E
--------------------------------------------|
--------------------------------------------|
--7--0--5--0--3--0-----7--0-----0--3--0-----|
--------------------3--------3-----------3--|
--------------------------------------------|
--------------------------------------------|


    E  E  E  E  E  E  E  E  E  E  E  E  E  E
|----------------------------------------------||
|----------------------------------------------||
|*--------5-----7--5-----------5-----7--5-----*||
|*--------------------8--------------------8--*||
|---5--5-----5-----------5--5-----5------------||
|---5--------5-----------5--------5------------||


  E  E  E  E  E  E  E  E  E  E  E  E  E  E      E   E   E   E  E   E   E  E
--------------------------------------------|--------------------------------|
--------6-----8--6-----------6-----8--6-----|--13---------------------11-----|
-----7--------------7-----7--------------7--|------12----------9--10------8--|
--------------------------------------------|----------14--10----------------|
--5--------5-----------5--------5-----------|--------------------------------|
--5--------5-----------5--------5-----------|--------------------------------|


  E  E  E   Q    E  E  E      E  E  E  E   E  E   E   E  E  E  E   E  E
--------------------------|----------------------------------------------|
--------8--11-------------|--10-----8----------------10-----8------------|
--L--7-----------5--7--0--|------7-----7--10--7----------7-----7--10--7--|
--------------------------|----------------------10----------------------|
--------------------------|----------------------------------------------|
--------------------------|----------------------------------------------|


   E  E  E  E   E  E   E   E  E   E  E  E  E   E  E
-----------------------------------------------------|
--10-----8----------------10------------8------------|
------7-----7--10--7----------7------7-----7--10--7--|
----------------------10---------10------------------|
-----------------------------------------------------|
-----------------------------------------------------|


   E  E  E  E   E  E   E   E  E  E  E   E  E
----------------------------------------------|
--10-----8----------------10-----8------------|
------7-----7--10--7----------7-----7--10--7--|
----------------------10----------------------|
----------------------------------------------|
----------------------------------------------|


   E  E  E  E   E  E   E   E  E   E  E   E   E
------------------------------------------------|
--10-----8----------------10----------------10--|
------7-----7--10--7----------7------7--10------|
----------------------10---------10-------------|
------------------------------------------------|
------------------------------------------------|


  E  E  E  E  E  E  E  E  E  E  E  E  E
-----------------------------------------|
--9-----8-----6--------9-----8-----6-----|
-----6-----6-----6--5-----6-----6-----6--|
-----------------------------------------|
-----------------------------------------|
-----------------------------------------|


  E  E  E  E  E  E  E  E  E  E  E  E  E
-----------------------------------------|
--9-----8-----6--------9-----8-----6-----|
-----6-----6-----6--5-----6-----6-----6--|
-----------------------------------------|
-----------------------------------------|
-----------------------------------------|


   E  E  E  E   E  E   E   E  E  E  E   E  E
----------------------------------------------|
--10-----8----------------10-----8------------|
------7-----7--10--7----------7-----7--10--7--|
----------------------10----------------------|
----------------------------------------------|
----------------------------------------------|


   E  E  E  E   E  E   E   E  E   E  E  E  E   E  E
-----------------------------------------------------|
--10-----8----------------10------------8------------|
------7-----7--10--7----------7------7-----7--10--7--|
----------------------10---------10------------------|
-----------------------------------------------------|
-----------------------------------------------------|


  E  E  E  E  E  E  E  Q    E  E  E  E  E
-------------------------------------------|
-------------------------------------------|
--5--2-------------------------------------|
--------3--5--2----------------------------|
-----------------3--5--1-------------0--1--|
----------------------------2--3--4--------|


  E  E  E  E  E  E  E  E  E  E  E  E  E  E
--------------------------------------------|
--------------------------------------------|
--------------------------------------------|
--------------------------------------------|
--2-----0--------------2-----0--------------|
-----2-----2--5--2--0--------------5--2--0--|


  E  E  E  E  E  E  E  E  E  E  E  E  E  E
--------------------------------------------|
--------------------------------------------|
--------------------------------------------|
--------------------------------------------|
--2-----0--------------2-----------0--1--2--|
-----2-----2--5--2--0-----2--3--4-----------|


  E  E  E  E  E  E  E  E  E  E  E  E  E  E
--------------------------------------------|
--------------------------------------------|
--------------------------------------------|
--------------------------------------------|
--3-----1--------------3-----1--------------|
-----3-----3--6--3--1--------------6--3--1--|


  E  E  E  E  E  E  E  E  E  E  E  E  E  E     E  E  E  E  E  E  E  E
--------------------------------------------|--------------------------|
--------------------------------------------|--------------------------|
--------------------------------------------|--------------0-----------|
--------------------------------------------|--------2--------2--------|
--3-----1--------------3-----------1--2--3--|--4--1-----4--------4--3--|
-----3-----3--6--3--1-----3--4--5-----------|--------------------------|


  E  E  E  E  E  E  E  E  E  E  E  E  E  E
--------------------------------------------|
--------------------------------------------|
--------------------------------------------|
--------------------------------------------|
--2-----0--------------2-----0--------------|
-----2-----2--5--2--0--------------5--2--0--|


  E  E  E  E  E  E  E  E  E  E  E  E  E  E
--------------------------------------------|
--------------------------------------------|
--------------------------------------------|
--------------------------------------------|
--2-----0--------------2-----------0--1--2--|
-----2-----2--5--2--0-----2--3--4-----------|


  E  E  E  E  E  E  E  E  E  E  E  E  E  E
--------------------------------------------|
--------------------------------------------|
--------------------------------------------|
--------------------------------------------|
--3-----1--------------3-----1--------------|
-----3-----3--6--3--1--------------6--3--1--|


  E  E  E  E  E  E  E  E  E  E  E  E  E  E
--------------------------------------------|
--------------------------------------------|
--------------------------------------------|
--------------------------------------------|
--3-----1--------------3-----------1--2--3--|
-----3-----3--6--3--1-----3--4--5-----------|


  E  E  E  E  E  E  E  E  E  E  E  E  E  E
-----------------------------------0--------|
-----------------------------2--------2-----|
--------------0--------3--0-----3--------3--|
--------2--------2--------------------------|
--4--1-----4--------4-----------------------|
--------------------------------------------|


  E  E  E  E  E  E  E  E  E  E  E  E  E  E     W
--------------------------------------------|-------------------|
--2-----------------------------------------|-------------------|
-----3--0-----3--0-----------------0--------|--7----------------|
-----------2-----------------2--------2-----|--7----------------|
--------------------4--1--------4--------4--|--5----------------|
--------------------------5-----------------|-------------------|


  W                   Q.     Q.     Q       E  Q.     E  E  E  E
-------------------|---------------------|------------------------|
-------------------|---------------------|------------------------|
--L----------------|--7------7------7----|--L--7------------------|
--L----------------|--6------3------4----|--L--7------------------|
--L----------------|--5------5------5----|--L--5------8--0--5--0--|
-------------------|---------------------|------------------------|


Verse Part 1 1:24

           ^
  H        H           H        E  E  E  E     H.           E  E
--------------------|-----------------------|---------------------|
--------------------|-----------------------|---------------------|
-----------7--------|--L--------------------|---------------------|
-----------7--------|--L--------------------|---------------------|
-----------5--------|--L--------1--0-----2--|--L------------2--2--|
--0-----------------|-----------------3--2--|--L------------2--2--|


                                       ^
  S S E  E  E  E  E  E  E     H        H           H        E  E  E  E
---------------------------|--------------------|-----------------------|
---------------------------|--------------------|-----------------------|
---------------------------|-----------7--------|--L--------------------|
---------------------------|-----------7--------|--L--------------------|
--2-2-2--2--2--8--0--5--0--|-----------5--------|--L--------1--0-----2--|
--2-2-2--2--2--------------|--0-----------------|-----------------3--2--|


  H.           E  E     S S E  E  E  E  E  E  E     Q    Q.     Q.
---------------------|---------------------------|---------------------|
---------------------|---------------------------|---------------------|
---------------------|---------------------------|---------------------|
---------------------|---------------------------|---------------------|
--L------------2--2--|--2-2-2--2--2--8--0--5--0--|---------------------|
--L------------2--2--|--2-2-2--2--2--------------|--0----6------3------|


  Q    Q    E  E  E  E     H.           E  E     S S E  E  E  E  E  E  E
------------------------|---------------------|---------------------------|
------------------------|---------------------|---------------------------|
------------------------|---------------------|---------------------------|
------------------------|---------------------|---------------------------|
------------1--0-----2--|--L------------2--2--|--2-2-2--2--2--8--0--5--0--|
--4----0----------3--2--|--L------------2--2--|--2-2-2--2--2--------------|


           ^
  H        H           H        E  E  E  E     E  E  E  E  Q.     E
--------------------|-----------------------|------------------------|
--------------------|-----------------------|------------------------|
-----------7--------|--L--------------------|------------------------|
-----------7--------|--L--------------------|------------------------|
-----------5--------|--L--------1--0-----2--|-----2-----2---------2--|
--0-----------------|-----------------3--2--|-----2-----2---------2--|


  E  E  Q.     Q.        H.           E  E     Q    H.
----------------------|---------------------|--------------------|
----------------------|---------------------|--------------------|
---------------2------|---------------------|--------------------|
----------------------|---------------------|--------------------|
-----2----------------|--0------------L--0--|--0-----------------|
-----2---------3------|--0------------L--0--|--0-----------------|


Verse Part 2 1:47


    E  Q    Q    Q    E     E  Q    Q    Q    E     E  Q    E  E  Q    E
|------------------------|-----------------------|------------------------|
|------------------------|-----------------------|------------------------|
|*-----------------------|-----------------------|------------------------|
|*-----------------------|-----------------------|------------------------|
|---2--0----2----3----3--|--2--0----2----3----3--|--9--8----8--5--4----4--|
|---2--0----2----3----3--|--2--0----2----3----3--|--9--8----8--5--4----4--|


  E  Q    E  E  E  E  E       H           E  Q    Q    Q    E
--------------------------||-----------|-----------------------|
--------------------------||-----------|-----------------------|
-------------------------*||-----------|-----------------------|
-------------------------*||-----------|-----------------------|
--7--8----8--2--2--2--2---||--1--------|--2--0----2----3----3--|
--7--8----8--2--2--2--2---||--1--------|--2--0----2----3----3--|


                                                              |----3----|
  E  Q    Q    Q    E     E  Q    E  E  Q    E     E  Q    E  Q    Q    Q
-----------------------|------------------------|----------------------------|
-----------------------|------------------------|----------------------------|
-----------------------|------------------------|----------------------------|
-----------------------|------------------------|----------------------------|
--2--0----2----3----3--|--9--8----8--5--4----4--|--7--8----8--2----2----2----|
--2--0----2----3----3--|--9--8----8--5--4----4--|--7--8----8--2----2----2----|


  E  Q    Q    Q    E     E  Q    Q    Q    E     E  Q    E  E  Q    E
-----------------------|-----------------------|------------------------|
-----------------------|-----------------------|------------------------|
-----------------------|-----------------------|------------------------|
-----------------------|-----------------------|------------------------|
--2--0----2----3----3--|--2--0----2----3----3--|--9--8----8--5--4----4--|
--2--0----2----3----3--|--2--0----2----3----3--|--9--8----8--5--4----4--|


                               PM   PM   PM   PM   PM   PM      PM   PM   PM
             |----3----|       |----3----|    |----3----|       |----3----|
  E  Q    E  Q    Q    Q       Q    Q    Q    Q    Q    Q       Q    Q    Q
----------------------------|--------------------------------|-----------------|
----------------------------|--------------------------------|-----------------|
----------------------------|--------------------------------|-----------------|
----------------------------|--------------------------------|-----------------|
--7--8----8--2----2----2----|--2----2----2----2----2----2----|--2----2----2----|
--7--8----8--2----2----2----|--2----2----2----2----2----2----|--2----2----2----|


Verse Part 3 2:11

                                PM PM PM PM PM PM       PM PM PM PM PM
  S E  S S E  S    E  Q.        S  S  S  S  S  S  S S S S  S  S  S  S  S S
----------------|------------|---------------------------------------------|
----------------|------------|---------------------------------------------|
----------------|------------|---------------------------------------------|
----------------|------------|---------------------------------------------|
---------x-3--3-|--2---------|--------------------0-3-2-2--------------1-0-|
--1-0--4-x------|------------|--1--1--0--0--4--4-----------3--3--2--2------|


  PM  PMPM PM PM PM PM PM             PM
  S   S S  S  S  S  S  S  S S S S E   E
-----------------------------------------|
-----------------------------------------|
-----------------------------------------|
-----------------------------------------|
--0--10-9--6--5--6--5--3--2-3-2-1-2\-----|
--------------------------------------1--|


  PM PM PM PM PM PM       PM PM PM PM PM
  S  S  S  S  S  S  S S S S  S  S  S  S  S S
---------------------------------------------|
---------------------------------------------|
---------------------------------------------|
---------------------------------------------|
--------------------0-3-2-2--------------1-0-|
--1--1--0--0--4--4-----------3--3--2--2------|


  PM  PMPM PM PM PM PM
  S   S S  S  S  S  S  S S S S S E  S S
----------------------------------------|
----------------------------------------|
----------------------------------------|
------------------------------------4-7-|
--0--10-9--6--9--6--5--6-2-1-3-2--------|
---------------------------------1------|


  PM PM PM PM PM PM       PM PM PM PM PM
  S  S  S  S  S  S  S S S S  S  S  S  S  S S
---------------------------------------------|
---------------------------------------------|
---------------------------------------------|
---------------------------------------------|
--------------------0-3-2-2--------------1-0-|
--1--1--0--0--4--4-----------3--3--2--2------|


  PM PM
  S  S  S S S S S S S S S S S S S S
------------------------------------|
------------------------------------|
------------------------------------|
------------------------------------|
--0--9--7-6-9-6-4-2-1-4-1---1-0-----|
--------------------------5-----5-7-|


  PM PM PM PM PM PM       PM PM PM PM PM
  S  S  S  S  S  S  S S S S  S  S  S  S  S S
---------------------------------------------|
---------------------------------------------|
---------------------------------------------|
---------------------------------------------|
--------------------0-3-2-2--------------1-0-|
--1--1--0--0--4--4-----------3--3--2--2------|


  PM  PMPM PM PM PM PM                                         ^
  S   S S  S  S  S  S  S S S S S E  S S    S E  E  E   S E  E  Q
----------------------------------------|---------------------------|
----------------------------------------|---------------------------|
----------------------------------------|---------------------------|
------------------------------------4-7-|----------------------3----|
--0--10-9--6--9--6--5--6-2-1-3-2--------|-------4--2--10-9-----2----|
---------------------------------1------|--1-0--5--4--10-9-----1----|


Verse Part 4 2:28


  S S S S E  S S S S S S S S E     S S S S E  S S S S S S S S E
--------------------------------|--------------------------------|
--------------------------------|--------------------------------|
--------------------------------|--------------------------------|
--------------------------------|--------------------------------|
------3-4--------3-4-----1-3----|------3-4--------3-4-----1-3----|
--3-4--------3-4-----3-4--------|--3-4--------3-4-----3-4--------|


  S S S S E  S S S S S S S S E     S S S S E  S S S S S S S S E
--------------------------------|--------------------------------|
--------------------------------|--------------------------------|
--------------------------------|--------------------------------|
--------------------------------|--------------------------------|
------3-4--------3-4-----1-3----|------3-4--------3-4-----1-3----|
--3-4--------3-4-----3-4--------|--3-4--------3-4-----3-4--------|


  S S S S E  S S S S S S S S E     S S S S E  S S S S S S S S E
--------------------------------|--------------------------------|
--------------------------------|--------------------------------|
--------------------------------|--------------------------------|
--------------------------------|--------------------------------|
------3-4--------3-4-----1-3----|------3-4--------3-4-----1-3----|
--3-4--------3-4-----3-4--------|--3-4--------3-4-----3-4--------|


                                   PM PM PM PM PM PM PM PM
  S S S S E  S S S S S S S S E     S  E  S  E  S  E  S  E  S S S S
--------------------------------|----------------------------------|
--------------------------------|----------------------------------|
--------------------------------|----------------------------------|
--------------------------------|------------------------------4-7-|
------3-4--------3-4-----1-3----|-----0-----0-----0-----0--3-6-----|
--3-4--------3-4-----3-4--------|--0--0--0--0--0--0--0--0----------|


Verse Part 5 2:41


  PM PM PM PM    PM PM PM PM PM PM PM PM
  S  S  S  S  E  S  S  S  S  S  S  S  S  E
--------------------------------------------|
--------------------------------------------|
--------------------------------------------|
--------------------------------------------|
-----------------------------0--3-----------|
--4--1--4--1-----4--1--4--1--------4--1-----|


  PM PM PM PM    PM PM PM PM PM PM PM PM PM PM
  S  S  S  S  E  S  S  S  S  S  S  S  S  S  S
-----------------------------------------------|
-----------------------------------------------|
-----------------------------------------------|
--------------------------------------------4--|
-----------------------------3-----4--7--------|
--4--1--4--1-----4--1--7--4-----7--------7-----|


  S S S S E.  E  S S S S E.  Q    S E.  Q
---------------------------------------------|
---------------------------------------------|
---------------------------------------------|
---------------------4-6---------------------|
--3-0-----4---4--4-6-----4---4----x-0---0----|
------4-1-5---5----------5---5----x-0---0----|


  PM PM PM PM    PM PM PM PM PM PM PM PM
  S  S  S  S  E  S  S  S  S  S  S  S  S  E
--------------------------------------------|
--------------------------------------------|
--------------------------------------------|
--------------------------------------------|
-----------------------------0--3-----------|
--4--1--4--1-----4--1--4--1--------4--1-----|


  PM PM PM PM    PM PM PM PM PM PM PM PM
  S  S  S  S  E  S  S  S  S  S  S  S  S  S S
---------------------------------------------|
---------------------------------------------|
---------------------------------------------|
---------------------------------------------|
-----------------------------0--3--------0-3-|
--4--1--4--1-----4--1--4--1--------4--1------|


                                        Verse Part 6 2:54


  S S S S  E.  E  S S S S  E.  Q    S     S S E  E  E  E  E  S S S S
---------------------------------------|-----------------------------|
---------------------------------------|-----------------------------|
---------------------------------------|-----------------------------|
----------------------4-7--------------|---------2-------------------|
--3-6-3---/4---4--3-6-----\4---4----L\-|------------2--3---------2-3-|
--------5-/5---5----------\5---5----L\-|--0-1-2-----------6--2-3-----|


  S S E  E  E  E  E  S S S S    S S E  E  E  E  E  S S S S
-----------------------------|-----------------------------|
-----------------------------|-----------------------------|
-----------------------------|-----------------------------|
---------2-------------------|---------2-------------------|
------------2--3---------2-3-|------------2--3---------2-3-|
--0-1-2-----------6--2-3-----|--0-1-2-----------6--2-3-----|


  S S E  E  E  E  E  S S S S    S S E  E  E  E  E  S S S S
-----------------------------|-----------------------------|
-----------------------------|-----------------------------|
-----------------------------|-----------------------------|
---------2-------------------|---------2-------------------|
------------2--3---------2-3-|------------2--3---------2-3-|
--0-1-2-----------6--2-3-----|--0-1-2-----------6--2-3-----|


  S S E  E  E  E  E  S S S S    S S E  E  E  E  E  S S S S
-----------------------------|-----------------------------|
-----------------------------|-----------------------------|
-----------------------------|-----------------------------|
---------2-------------------|---------2-------------------|
------------2--3---------2-3-|------------2--3---------2-3-|
--0-1-2-----------6--2-3-----|--0-1-2-----------6--2-3-----|
                               

                              Verse Part 7 3:07


  S S E  E  E  E  E  S S S S    E.  Q.     E.  Q.     E.  Q    E.
-----------------------------|-------------------------------------|
-----------------------------|-------------------------------------|
-----------------------------|-------------------------------------|
---------2-------------------|-------------------------------------|
------------2--3---------2-3-|--4---4------0---0------0---0--------|
--0-1-2-----------6--2-3-----|--6---6------6---6------0---0--------|


  PM  PM            PM  PM            PM  PM            PM  PM  PM  PM
  E.  E.  Q.        E.  E.  Q.        E.  E.  Q.        E.  E.  E.  E.
-----------------|-----------------|-----------------|------------------|
-----------------|-----------------|-----------------|------------------|
-----------------|-----------------|-----------------|------------------|
-----------------|-----------------|-----------------|------------------|
--0---0----------|--0---0----------|--0---0----------|--0---0---0---0---|
--0---0----------|--0---0----------|--0---0----------|--0---0---0---0---|


  PM  PM            PM  PM            PM  PM            PM  PM  PM  PM
  E.  E.  Q.        E.  E.  Q.        E.  E.  Q.        E.  E.  E.  E.
-----------------|-----------------|-----------------|------------------|
-----------------|-----------------|-----------------|------------------|
-----------------|-----------------|-----------------|------------------|
-----------------|-----------------|-----------------|------------------|
--0---0----------|--0---0----------|--0---0----------|--0---0---0---0---|
--0---0----------|--0---0----------|--0---0----------|--0---0---0---0---|


  PM  PM            PM  PM            PM  PM            PM  PM  PM  PM
  E.  E.  Q.        E.  E.  Q.        E.  E.  Q.        E.  E.  E.  E.
-----------------|-----------------|-----------------|------------------|
-----------------|-----------------|-----------------|------------------|
-----------------|-----------------|-----------------|------------------|
-----------------|-----------------|-----------------|------------------|
--3---3----------|--3---3----------|--3---3----------|--3---3---3---3---|
--4---4----------|--4---4----------|--4---4----------|--4---4---4---4---|


   S  S  S  S  S  S  S  S  S  S  S  S     S  S  S  S  S  S  S  S  S  S  S  S
--------------------------------------|--------------------------------------|
--------------------------------------|--------------------------------------|
--------------------------------------|--------------------------------------|
--16-16-10-10-16-16-10-10-16-16-10-10-|--16-16-10-10-16-16-10-10-16-16-10-10-|
--------------------------------------|--------------------------------------|
--------------------------------------|--------------------------------------|


   S  S  S  S  S  S  S  S  S  S  S  S     S  S S  S S S S S
--------------------------------------|---------------------|
--------------------------------------|---------------------|
--------------------------------------|--12-11-8-11-8-7-8-7-|
--16-16-10-10-16-16-10-10-16-16-10-10-|---------------------|
--------------------------------------|---------------------|
--------------------------------------|---------------------|

                      
                                            Bridge 3:33


   S S S S S T  T S S    S  S S    E  E  E     H        Q    E
----------------------|---------|-----------|-------------------|
----------------------|---------|-----------|-------------------|
----------------------|---------|-----------|-------------------|
--10-8-7-8-7------7-8-|--7------|-----------|-------------------|
-------------9-10-----|----10-9-|--6--------|-------------------|
----------------------|---------|-----8--7--|-------------------|


  PM PM    PM          PM PM    PM
  E  E  E  E  E  E  E  E  E  E  E  E  E  E
--------------------------------------------|
--------------------------------------------|
--------------------------------------------|
--------7-----8--------------7-----8--------|
-----5-----5-----8--5-----5-----5-----8--5--|
--5--------5-----------5--------5-----------|


  PM PM    PM          PM PM    PM
  E  E  E  E  E  E  E  E  E  E  E  E  E  E
--------------------------------------------|
--------------------------------------------|
--------------------------------------------|
--------7-----8--------------7-----8--------|
-----5-----5-----8--5-----5-----5-----8--5--|
--5--------5-----------5--------5-----------|


  PM PM    PM          PM PM    PM
  E  E  E  E  E  E  E  E  E  E  E  E  E  E     E  E  E  E  E  E  E  E
--------------------------------------------|--------------------------|
--------------------------------------------|--------------------------|
--------------------------------------------|--5-----------------------|
--------7-----8--------------7-----8--------|-----5--2-----2--3--------|
-----5-----5-----8--5-----5-----5-----8--5--|-----------3--------1-----|
--5--------5-----------5--------5-----------|-----------------------1--|


  E  E  E  Q    E  E  E     E  E  E  E  E  E  E  E     W
-------------------------|--------------------------|-------------------|
-------------------------|--------------------------|-------------------|
-----------3----2-----5--|--7--0-----0--3--0--------|-------------------|
-----0--3----------1-----|--------3-----------0--7--|--L----------------|
-------------------------|-----------------------5--|--L----------------|
--L----------------------|-----------------------5--|--L----------------|


  W                   W                   W                   W
-------------------|-------------------|-------------------|-------------------|
-------------------|-------------------|-------------------|-------------------|
-------------------|-------------------|-------------------|-------------------|
--L----------------|--L----------------|--L----------------|-------------------|
--L----------------|--L----------------|--L----------------|-------------------|
--L----------------|--L----------------|--L----------------|-------------------|


  W                   W                   W
-------------------|-------------------|-------------------|
-------------------|-------------------|-------------------|
-------------------|-------------------|-------------------|
-------------------|-------------------|-------------------|
-------------------|-------------------|-------------------|
-------------------|-------------------|-------------------|


Verse 2 


    W                   W                   W
|--------------------|-------------------|-------------------|
|--------------------|-------------------|-------------------|
|*-------------------|-------------------|-------------------|
|*-------------------|-------------------|-------------------|
|--------------------|-------------------|-------------------|
|--------------------|-------------------|-------------------|


  W                     W                   W
--------------------||-------------------|-------------------|
--------------------||-------------------|-------------------|
-------------------*||-------------------|-------------------|
-------------------*||-------------------|-------------------|
--------------------||-------------------|-------------------|
--------------------||-------------------|-------------------|


  W                   W                   W                   W
-------------------|-------------------|-------------------|-------------------|
-------------------|-------------------|-------------------|-------------------|
-------------------|-------------------|-------------------|-------------------|
-------------------|-------------------|-------------------|-------------------|
-------------------|-------------------|-------------------|-------------------|
-------------------|-------------------|-------------------|-------------------|


  W                   W                   W                   W
-------------------|-------------------|-------------------|-------------------|
-------------------|-------------------|-------------------|-------------------|
-------------------|-------------------|-------------------|-------------------|
-------------------|-------------------|-------------------|-------------------|
-------------------|-------------------|-------------------|-------------------|
-------------------|-------------------|-------------------|-------------------|


  W                   W                   W                   W
-------------------|-------------------|-------------------|-------------------|
-------------------|-------------------|-------------------|-------------------|
-------------------|-------------------|-------------------|-------------------|
-------------------|-------------------|-------------------|-------------------|
-------------------|-------------------|-------------------|-------------------|
-------------------|-------------------|-------------------|-------------------|


  W                   W                   W                   W
-------------------|-------------------|-------------------|-------------------|
-------------------|-------------------|-------------------|-------------------|
-------------------|-------------------|-------------------|-------------------|
-------------------|-------------------|-------------------|-------------------|
-------------------|-------------------|-------------------|-------------------|
-------------------|-------------------|-------------------|-------------------|


  W                   W                   W                   W
-------------------|-------------------|-------------------|-------------------|
-------------------|-------------------|-------------------|-------------------|
-------------------|-------------------|-------------------|-------------------|
-------------------|-------------------|-------------------|-------------------|
-------------------|-------------------|-------------------|-------------------|
-------------------|-------------------|-------------------|-------------------|


                                         Ending Solo 5:22


  W                   W                     E.  S S S E.  E.  E  E
-------------------|-------------------||---------------------------|
-------------------|-------------------||---------------------------|
-------------------|-------------------||*--------------------------|
-------------------|-------------------||*--7---7-x-x-7---7---7--7--|
-------------------|-------------------||---5---5-x-x-5---5---5--5--|
-------------------|-------------------||---5---5-x-x-5---5---5--5--|


  E.  S S S E.  E.  E  E     E.  S S S E.  E.  E  E
--------------------------|--------------------------|
--------------------------|--------------------------|
--3---3-x-x-3---3---3--3--|--------------------------|
--1---1-x-x-1---1---1--1--|--3---3-x-x-3---3---3--3--|
--1---1-x-x-1---1---1--1--|--3---3-x-x-3---3---3--3--|
--1---1-x-x-1---1---1--1--|--3---3-x-x-3---3---3--3--|


  E.  S S S E.  E.  E  E       E.  S S S E.  E.  E  E
---------------------------||--------------------------|
---------------------------||--------------------------|
--------------------------*||--6---6-x-x-6---6---6--6--|
--8---8-x-x-7---7---7--7--*||--6---6-x-x-6---6---6--6--|
--5---5-x-x-5---5---5--5---||--4---4-x-x-4---4---4--4--|
--5---5-x-x-5---5---5--5---||--4---4-x-x-4---4---4--4--|


  E.  S S S E.  E.  E  E     E.  S S S E.  E.  E  E
--------------------------|--------------------------|
--------------------------|--7---7-x-x-7---7---7--7--|
--8---8-x-x-8---8---8--8--|--6---6-x-x-6---6---6--6--|
--8---8-x-x-8---8---8--8--|--4---4-x-x-4---4---4--4--|
--6---6-x-x-6---6---6--6--|--4---4-x-x-4---4---4--4--|
--6---6-x-x-6---6---6--6--|--4---4-x-x-4---4---4--4--|


  E.  S S S E.  E.  E  E      E.   S  S  S  E.   E.   E   E
--------------------------|----------------------------------|
--------------------------|----------------------------------|
--3---3-x-x-5---5---5--5--|--10---10--x--x-10---10---10--10--|
--1---1-x-x-3---3---3--3--|--10---10--x--x--8----8----8---8--|
--1---1-x-x-3---3---3--3--|---8----8--x--x--8----8----8---8--|
--1---1-x-x-3---3---3--3--|---8----8--x--x--8----8----8---8--|


   E.   S  S  S  E.   E.   E   E     E.  S  S  S E.  E.  E  E
----------------------------------|----------------------------|
----------------------------------|----------------------------|
--10---10--x--x-10---10---10--10--|--7---7--x--x-7---7---7--7--|
--10---10--x--x--8----8----8---8--|--8---8--x--x-7---7---7--7--|
---8----8--x--x--8----8----8---8--|--5---5--x--x-5---5---5--5--|
---8----8--x--x--8----8----8---8--|--5---5--x--x-5---5---5--5--|


  E.  S  S  S E.  E.  E  E     E.  S S S E.  E.  E  E
----------------------------|--------------------------|
----------------------------|--------------------------|
--7---7--x--x-7---7---7--7--|--3---3-x-x-3---3---3--3--|
--8---8--x--x-7---7---7--7--|--3---3-x-x-3---3---3--3--|
--5---5--x--x-5---5---5--5--|--1---1-x-x-1---1---1--1--|
--5---5--x--x-5---5---5--5--|--1---1-x-x-1---1---1--1--|


  E.  S S S E.  E.  E  E     E.  S  S  S E.  E.  E  E
--------------------------|----------------------------|
--------------------------|----------------------------|
--5---5-x-x-5---5---5--5--|--7---7--x--x-7---7---7--7--|
--5---5-x-x-5---5---5--5--|--8---8--x--x-7---7---7--7--|
--3---3-x-x-3---3---3--3--|--5---5--x--x-5---5---5--5--|
--3---3-x-x-3---3---3--3--|--5---5--x--x-5---5---5--5--|


  E.  S S S E.  E.  E  E      E.   S  S  S  E.   E.   E   E
--------------------------|----------------------------------|
--------------------------|----------------------------------|
--5---5-x-x-5---5---5--5--|--10---10--x--x-10---10---10--10--|
--3---3-x-x-3---3---3--3--|--10---10--x--x--8----8----8---8--|
--3---3-x-x-3---3---3--3--|---8----8--x--x--8----8----8---8--|
--3---3-x-x-3---3---3--3--|---8----8--x--x--8----8----8---8--|


   E.   S  S  S  E.   E.   E   E     E.  S  S  S E.  E.  E  E
----------------------------------|----------------------------|
----------------------------------|----------------------------|
--10---10--x--x-10---10---10--10--|--7---7--x--x-7---7---7--7--|
--10---10--x--x--8----8----8---8--|--8---8--x--x-7---7---7--7--|
---8----8--x--x--8----8----8---8--|--5---5--x--x-5---5---5--5--|
---8----8--x--x--8----8----8---8--|--5---5--x--x-5---5---5--5--|


  E.  S  S  S E.  E.  E  E     E.  S S S E.  E.  E  E
----------------------------|--------------------------|
----------------------------|--------------------------|
--7---x--x--7-7---7---7--7--|--3---3-x-x-3---3---3--3--|
--8---8--x--x-7---7---7--7--|--3---3-x-x-3---3---3--3--|
--5---5--x--x-5---5---5--5--|--1---1-x-x-1---1---1--1--|
--5---5--x--x-5---5---5--5--|--1---1-x-x-1---1---1--1--|


  E.  S S S E.  E.  E  E     E.  S  S  S E.  E.  E  E
--------------------------|----------------------------|
--------------------------|----------------------------|
--5---5-x-x-5---5---5--5--|--7---7--x--x-7---7---7--7--|
--5---5-x-x-5---5---5--5--|--8---8--x--x-7---7---7--7--|
--3---3-x-x-3---3---3--3--|--5---5--x--x-5---5---5--5--|
--3---3-x-x-3---3---3--3--|--5---5--x--x-5---5---5--5--|


  E.  S S S E.  E.  E  E      E.   S  S  S  E.   E.   E   E
--------------------------|----------------------------------|
--------------------------|----------------------------------|
--5---5-x-x-5---5---5--5--|--10---10--x--x-10---10---10--10--|
--3---3-x-x-3---3---3--3--|--10---10--x--x--8----8----8---8--|
--3---3-x-x-3---3---3--3--|---8----8--x--x--8----8----8---8--|
--3---3-x-x-3---3---3--3--|---8----8--x--x--8----8----8---8--|


   E.   S  S  S  E.   E.   E   E     E.  S  S  S E.  E.  E  E
----------------------------------|----------------------------|
----------------------------------|----------------------------|
--10---10--x--x-10---10---10--10--|--7---7--x--x-7---7---7--7--|
--10---10--x--x--8----8----8---8--|--8---8--x--x-7---7---7--7--|
---8----8--x--x--8----8----8---8--|--5---5--x--x-5---5---5--5--|
---8----8--x--x--8----8----8---8--|--5---5--x--x-5---5---5--5--|


  E.  S  S  S E.  E.  E  E     E.  S S S E.  E.  E  E
----------------------------|--------------------------|
----------------------------|--------------------------|
--7---7--x--x-7---7---7--7--|--3---3-x-x-3---3---3--3--|
--8---8--x--x-7---7---7--7--|--3---3-x-x-3---3---3--3--|
--5---5--x--x-5---5---5--5--|--1---1-x-x-1---1---1--1--|
--5---5--x--x-5---5---5--5--|--1---1-x-x-1---1---1--1--|


  E.  S S S E.  E.  E  E     E.  S  S  S E.  E.  E  E
--------------------------|----------------------------|
--------------------------|----------------------------|
--5---5-x-x-5---5---5--5--|--7---7--7--7-7---7---7--7--|
--5---5-x-x-5---5---5--5--|--8---8--x--x-7---7---7--7--|
--3---3-x-x-3---3---3--3--|--5---5--x--x-5---5---5--5--|
--3---3-x-x-3---3---3--3--|--5---5--x--x-5---5---5--5--|


  E.  S S S E.  E.  E  E      E.   S  S  S  E.   E.   E   E
--------------------------|----------------------------------|
--------------------------|----------------------------------|
--5---5-x-x-5---5---5--5--|--10---10--x--x-10---10---10--10--|
--3---3-x-x-3---3---3--3--|--10---10--x--x--8----8----8---8--|
--3---3-x-x-3---3---3--3--|---8----8--x--x--8----8----8---8--|
--3---3-x-x-3---3---3--3--|---8----8--x--x--8----8----8---8--|


   E.   S  S  S  E.   E.   E   E     E.  S  S  S E.  E.  E  E
----------------------------------|----------------------------|
----------------------------------|----------------------------|
--10---10--x--x-10---10---10--10--|--7---7--x--x-7---7---7--7--|
--10---10--x--x--8----8----8---8--|--8---8--x--x-7---7---7--7--|
---8----8--x--x--8----8----8---8--|--5---5--x--x-5---5---5--5--|
---8----8--x--x--8----8----8---8--|--5---5--x--x-5---5---5--5--|


  E.  S  S  S E.  E.  E  E     E.  S S S E.  E.  E  E
----------------------------|--------------------------|
----------------------------|--------------------------|
--7---7--x--x-7---7---7--7--|--3---3-x-x-3---3---3--3--|
--8---8--x--x-7---7---7--7--|--3---3-x-x-3---3---3--3--|
--5---5--x--x-5---5---5--5--|--1---1-x-x-1---1---1--1--|
--5---5--x--x-5---5---5--5--|--1---1-x-x-1---1---1--1--|


  E.  S S S E.  E.  E  E     E.  S  S  S E.  E.  E  E
--------------------------|----------------------------|
--------------------------|----------------------------|
--5---5-x-x-5---5---5--5--|--7---7--7--7-7---7---7--7--|
--5---5-x-x-5---5---5--5--|--8---8--x--x-7---7---7--7--|
--3---3-x-x-3---3---3--3--|--5---5--x--x-5---5---5--5--|
--3---3-x-x-3---3---3--3--|--5---5--x--x-5---5---5--5--|


  E.  S S S E.  E.  E  E      E.   S  S  S  E.   E.   E   E
--------------------------|----------------------------------|
--------------------------|----------------------------------|
--5---5-x-x-5---5---5--5--|--10---10--x--x-10---10---10--10--|
--3---3-x-x-3---3---3--3--|--10---10--x--x--8----8----8---8--|
--3---3-x-x-3---3---3--3--|---8----8--x--x--8----8----8---8--|
--3---3-x-x-3---3---3--3--|---8----8--x--x--8----8----8---8--|


   E.   S  S  S  E.   E.   E   E     E.  S  S  S E.  E.  E  E
----------------------------------|----------------------------|
----------------------------------|----------------------------|
--10---10--x--x-10---10---10--10--|--7---7--x--x-7---7---7--7--|
--10---10--x--x--8----8----8---8--|--8---8--x--x-7---7---7--7--|
---8----8--x--x--8----8----8---8--|--5---5--x--x-5---5---5--5--|
---8----8--x--x--8----8----8---8--|--5---5--x--x-5---5---5--5--|


  E.  S  S  S E.  E.  E  E     E.  S S S E.  E.  E  E
----------------------------|--------------------------|
----------------------------|--------------------------|
--7---7--x--x-7---7---7--7--|--3---3-x-x-3---3---3--3--|
--8---8--x--x-7---7---7--7--|--3---3-x-x-3---3---3--3--|
--5---5--x--x-5---5---5--5--|--1---1-x-x-1---1---1--1--|
--5---5--x--x-5---5---5--5--|--1---1-x-x-1---1---1--1--|


  E.  S S S E.  E.  E  E     E.  S  S  S E.  E.  E  E
--------------------------|----------------------------|
--------------------------|----------------------------|
--5---5-x-x-5---5---5--5--|--7---7--7--7-7---7---7--7--|
--5---5-x-x-5---5---5--5--|--8---8--x--x-7---7---7--7--|
--3---3-x-x-3---3---3--3--|--5---5--x--x-5---5---5--5--|
--3---3-x-x-3---3---3--3--|--5---5--x--x-5---5---5--5--|


  E.  S S S E.  E.  E  E
--------------------------||
--------------------------||
--5---5-x-x-5---5---5--5--||
--3---3-x-x-3---3---3--3--||
--3---3-x-x-3---3---3--3--||
--3---3-x-x-3---3---3--3--||






Guitar III- Paul- Comes in during Harmony part of solo





D#||-----------------------------------||-----------------------------------||
A#||-----------------------------------||-----------------------------------||
F#||*---------------------------------*||*---------------------------------*||
C#||*---------------------------------*||*---------------------------------*||
G#||-----------------------------------||-----------------------------------||
C#||-----------------------------------||-----------------------------------||


  W                   W                   W                H        E
-------------------|-------------------|-------------------------------|
-------------------|-------------------|-------------------------------|
-------------------|-------------------|-------------------------------|
-------------------|-------------------|-------------------------------|
-------------------|-------------------|-------------------------------|
-------------------|-------------------|-------------------------------|


  W                H        Q         W                H        Q
---------------------------------||-----------------------------------||
---------------------------------||-----------------------------------||
---------------------------------||*---------------------------------*||
---------------------------------||*---------------------------------*||
---------------------------------||-----------------------------------||
---------------------------------||-----------------------------------||


  W                H        Q       W                   W
---------------------------------|-------------------|-------------------|
---------------------------------|-------------------|-------------------|
---------------------------------|-------------------|-------------------|
---------------------------------|-------------------|-------------------|
---------------------------------|-------------------|-------------------|
---------------------------------|-------------------|-------------------|


  W                H        E     W                H        Q    E
-------------------------------|------------------------------------|
-------------------------------|------------------------------------|
-------------------------------|------------------------------------|
-------------------------------|------------------------------------|
-------------------------------|------------------------------------|
-------------------------------|------------------------------------|


  W                H        E     W                H        E
-------------------------------|-------------------------------|
-------------------------------|-------------------------------|
-------------------------------|-------------------------------|
-------------------------------|-------------------------------|
-------------------------------|-------------------------------|
-------------------------------|-------------------------------|


  W                H        E     W                H        E
-------------------------------|-------------------------------|
-------------------------------|-------------------------------|
-------------------------------|-------------------------------|
-------------------------------|-------------------------------|
-------------------------------|-------------------------------|
-------------------------------|-------------------------------|


  W                H        E     W                H        Q    E
-------------------------------|------------------------------------|
-------------------------------|------------------------------------|
-------------------------------|------------------------------------|
-------------------------------|------------------------------------|
-------------------------------|------------------------------------|
-------------------------------|------------------------------------|


  W                H        Q       W                H        Q
---------------------------------|---------------------------------|
---------------------------------|---------------------------------|
---------------------------------|---------------------------------|
---------------------------------|---------------------------------|
---------------------------------|---------------------------------|
---------------------------------|---------------------------------|


  W                H        Q       W                H        Q
---------------------------------|---------------------------------|
---------------------------------|---------------------------------|
---------------------------------|---------------------------------|
---------------------------------|---------------------------------|
---------------------------------|---------------------------------|
---------------------------------|---------------------------------|


  W                H        Q       W
---------------------------------|-------------------|
---------------------------------|-------------------|
---------------------------------|-------------------|
---------------------------------|-------------------|
---------------------------------|-------------------|
---------------------------------|-------------------|


  W                H        Q       W                H        Q
---------------------------------|---------------------------------|
---------------------------------|---------------------------------|
---------------------------------|---------------------------------|
---------------------------------|---------------------------------|
---------------------------------|---------------------------------|
---------------------------------|---------------------------------|


  W                H        Q       W                H        Q
---------------------------------|---------------------------------|
---------------------------------|---------------------------------|
---------------------------------|---------------------------------|
---------------------------------|---------------------------------|
---------------------------------|---------------------------------|
---------------------------------|---------------------------------|


  W                H        Q       W                H        Q
---------------------------------|---------------------------------|
---------------------------------|---------------------------------|
---------------------------------|---------------------------------|
---------------------------------|---------------------------------|
---------------------------------|---------------------------------|
---------------------------------|---------------------------------|


  W                   W                   W                   W
-------------------|-------------------|-------------------|-------------------|
-------------------|-------------------|-------------------|-------------------|
-------------------|-------------------|-------------------|-------------------|
-------------------|-------------------|-------------------|-------------------|
-------------------|-------------------|-------------------|-------------------|
-------------------|-------------------|-------------------|-------------------|


  W                   W                   W                   W
-------------------|-------------------|-------------------|-------------------|
-------------------|-------------------|-------------------|-------------------|
-------------------|-------------------|-------------------|-------------------|
-------------------|-------------------|-------------------|-------------------|
-------------------|-------------------|-------------------|-------------------|
-------------------|-------------------|-------------------|-------------------|


  W                   W                   W                   W
-------------------|-------------------|-------------------|-------------------|
-------------------|-------------------|-------------------|-------------------|
-------------------|-------------------|-------------------|-------------------|
-------------------|-------------------|-------------------|-------------------|
-------------------|-------------------|-------------------|-------------------|
-------------------|-------------------|-------------------|-------------------|


  W                   W                   W                   W
-------------------|-------------------|-------------------|-------------------|
-------------------|-------------------|-------------------|-------------------|
-------------------|-------------------|-------------------|-------------------|
-------------------|-------------------|-------------------|-------------------|
-------------------|-------------------|-------------------|-------------------|
-------------------|-------------------|-------------------|-------------------|


  W                   W                   W                   W
-------------------|-------------------|-------------------|-------------------|
-------------------|-------------------|-------------------|-------------------|
-------------------|-------------------|-------------------|-------------------|
-------------------|-------------------|-------------------|-------------------|
-------------------|-------------------|-------------------|-------------------|
-------------------|-------------------|-------------------|-------------------|


  W                   W                     W
-------------------|-------------------||--------------------|
-------------------|-------------------||--------------------|
-------------------|-------------------||*-------------------|
-------------------|-------------------||*-------------------|
-------------------|-------------------||--------------------|
-------------------|-------------------||--------------------|


  W                   W                   W                     H
-------------------|-------------------|--------------------||-----------|
-------------------|-------------------|--------------------||-----------|
-------------------|-------------------|-------------------*||-----------|
-------------------|-------------------|-------------------*||-----------|
-------------------|-------------------|--------------------||-----------|
-------------------|-------------------|--------------------||-----------|


  W                   W                   W                   W
-------------------|-------------------|-------------------|-------------------|
-------------------|-------------------|-------------------|-------------------|
-------------------|-------------------|-------------------|-------------------|
-------------------|-------------------|-------------------|-------------------|
-------------------|-------------------|-------------------|-------------------|
-------------------|-------------------|-------------------|-------------------|


  W                   W                   W                   W
-------------------|-------------------|-------------------|-------------------|
-------------------|-------------------|-------------------|-------------------|
-------------------|-------------------|-------------------|-------------------|
-------------------|-------------------|-------------------|-------------------|
-------------------|-------------------|-------------------|-------------------|
-------------------|-------------------|-------------------|-------------------|


  W                   H           H           H           W
-------------------|-----------|-----------|-----------|-------------------|
-------------------|-----------|-----------|-----------|-------------------|
-------------------|-----------|-----------|-----------|-------------------|
-------------------|-----------|-----------|-----------|-------------------|
-------------------|-----------|-----------|-----------|-------------------|
-------------------|-----------|-----------|-----------|-------------------|


  W                   W                   W                   W
-------------------|-------------------|-------------------|-------------------|
-------------------|-------------------|-------------------|-------------------|
-------------------|-------------------|-------------------|-------------------|
-------------------|-------------------|-------------------|-------------------|
-------------------|-------------------|-------------------|-------------------|
-------------------|-------------------|-------------------|-------------------|


  W                   W                   W                   W
-------------------|-------------------|-------------------|-------------------|
-------------------|-------------------|-------------------|-------------------|
-------------------|-------------------|-------------------|-------------------|
-------------------|-------------------|-------------------|-------------------|
-------------------|-------------------|-------------------|-------------------|
-------------------|-------------------|-------------------|-------------------|


  W                   W                   W                   W
-------------------|-------------------|-------------------|-------------------|
-------------------|-------------------|-------------------|-------------------|
-------------------|-------------------|-------------------|-------------------|
-------------------|-------------------|-------------------|-------------------|
-------------------|-------------------|-------------------|-------------------|
-------------------|-------------------|-------------------|-------------------|


  W                   W                   W                   W
-------------------|-------------------|-------------------|-------------------|
-------------------|-------------------|-------------------|-------------------|
-------------------|-------------------|-------------------|-------------------|
-------------------|-------------------|-------------------|-------------------|
-------------------|-------------------|-------------------|-------------------|
-------------------|-------------------|-------------------|-------------------|


  W                   W                   W                H        Q
-------------------|-------------------|---------------------------------|
-------------------|-------------------|---------------------------------|
-------------------|-------------------|---------------------------------|
-------------------|-------------------|---------------------------------|
-------------------|-------------------|---------------------------------|
-------------------|-------------------|---------------------------------|


  W                   W                   W                Q    S
-------------------|-------------------|--------------------------|
-------------------|-------------------|--------------------------|
-------------------|-------------------|--------------------------|
-------------------|-------------------|--------------------------|
-------------------|-------------------|--------------------------|
-------------------|-------------------|--------------------------|


  W                   W                   W                   W
-------------------|-------------------|-------------------|-------------------|
-------------------|-------------------|-------------------|-------------------|
-------------------|-------------------|-------------------|-------------------|
-------------------|-------------------|-------------------|-------------------|
-------------------|-------------------|-------------------|-------------------|
-------------------|-------------------|-------------------|-------------------|


  W                   W                   W                   W
-------------------|-------------------|-------------------|-------------------|
-------------------|-------------------|-------------------|-------------------|
-------------------|-------------------|-------------------|-------------------|
-------------------|-------------------|-------------------|-------------------|
-------------------|-------------------|-------------------|-------------------|
-------------------|-------------------|-------------------|-------------------|


  W                H        Q       H        Q       H        Q
---------------------------------|----------------|----------------|
---------------------------------|----------------|----------------|
---------------------------------|----------------|----------------|
---------------------------------|----------------|----------------|
---------------------------------|----------------|----------------|
---------------------------------|----------------|----------------|


  H        Q       H        Q       H        Q       H        Q
----------------|----------------|----------------|----------------|
----------------|----------------|----------------|----------------|
----------------|----------------|----------------|----------------|
----------------|----------------|----------------|----------------|
----------------|----------------|----------------|----------------|
----------------|----------------|----------------|----------------|


  H        Q       H        Q       H        Q       H        Q
----------------|----------------|----------------|----------------|
----------------|----------------|----------------|----------------|
----------------|----------------|----------------|----------------|
----------------|----------------|----------------|----------------|
----------------|----------------|----------------|----------------|
----------------|----------------|----------------|----------------|


  H        Q       H        Q       H        Q       H        Q
----------------|----------------|----------------|----------------|
----------------|----------------|----------------|----------------|
----------------|----------------|----------------|----------------|
----------------|----------------|----------------|----------------|
----------------|----------------|----------------|----------------|
----------------|----------------|----------------|----------------|


  H        Q       H           H           E  S    Q    E     H        Q    E
----------------|-----------|-----------|-------|----------|-------------------|
----------------|-----------|-----------|-------|----------|-------------------|
----------------|-----------|-----------|-------|----------|-------------------|
----------------|-----------|-----------|-------|----------|-------------------|
----------------|-----------|-----------|-------|----------|-------------------|
----------------|-----------|-----------|-------|----------|-------------------|


  W                H        Q       W                H        Q
---------------------------------|---------------------------------|
---------------------------------|---------------------------------|
---------------------------------|---------------------------------|
---------------------------------|---------------------------------|
---------------------------------|---------------------------------|
---------------------------------|---------------------------------|


  W                H        Q       W                   W
---------------------------------|-------------------|-------------------|
---------------------------------|-------------------|-------------------|
---------------------------------|-------------------|-------------------|
---------------------------------|-------------------|-------------------|
---------------------------------|-------------------|-------------------|
---------------------------------|-------------------|-------------------|


  W                   W                   W                   W
-------------------|-------------------|-------------------|-------------------|
-------------------|-------------------|-------------------|-------------------|
-------------------|-------------------|-------------------|-------------------|
-------------------|-------------------|-------------------|-------------------|
-------------------|-------------------|-------------------|-------------------|
-------------------|-------------------|-------------------|-------------------|


  W                   W                   W                   W
-------------------|-------------------|-------------------|-------------------|
-------------------|-------------------|-------------------|-------------------|
-------------------|-------------------|-------------------|-------------------|
-------------------|-------------------|-------------------|-------------------|
-------------------|-------------------|-------------------|-------------------|
-------------------|-------------------|-------------------|-------------------|


  W                     W                   W
-------------------||--------------------|-------------------|
-------------------||--------------------|-------------------|
-------------------||*-------------------|-------------------|
-------------------||*-------------------|-------------------|
-------------------||--------------------|-------------------|
-------------------||--------------------|-------------------|


  W                   W                     W
-------------------|--------------------||-------------------|
-------------------|--------------------||-------------------|
-------------------|-------------------*||-------------------|
-------------------|-------------------*||-------------------|
-------------------|--------------------||-------------------|
-------------------|--------------------||-------------------|


  W                   W                   W                   W
-------------------|-------------------|-------------------|-------------------|
-------------------|-------------------|-------------------|-------------------|
-------------------|-------------------|-------------------|-------------------|
-------------------|-------------------|-------------------|-------------------|
-------------------|-------------------|-------------------|-------------------|
-------------------|-------------------|-------------------|-------------------|


  W                   W                   W                   W
-------------------|-------------------|-------------------|-------------------|
-------------------|-------------------|-------------------|-------------------|
-------------------|-------------------|-------------------|-------------------|
-------------------|-------------------|-------------------|-------------------|
-------------------|-------------------|-------------------|-------------------|
-------------------|-------------------|-------------------|-------------------|


  W                   W                   W                   W
-------------------|-------------------|-------------------|-------------------|
-------------------|-------------------|-------------------|-------------------|
-------------------|-------------------|-------------------|-------------------|
-------------------|-------------------|-------------------|-------------------|
-------------------|-------------------|-------------------|-------------------|
-------------------|-------------------|-------------------|-------------------|


  W                   W                   W                   W
-------------------|-------------------|-------------------|-------------------|
-------------------|-------------------|-------------------|-------------------|
-------------------|-------------------|-------------------|-------------------|
-------------------|-------------------|-------------------|-------------------|
-------------------|-------------------|-------------------|-------------------|
-------------------|-------------------|-------------------|-------------------|


  W                   W                   W                   W
-------------------|-------------------|-------------------|-------------------|
-------------------|-------------------|-------------------|-------------------|
-------------------|-------------------|-------------------|-------------------|
-------------------|-------------------|-------------------|-------------------|
-------------------|-------------------|-------------------|-------------------|
-------------------|-------------------|-------------------|-------------------|


  W                   W                   W
-------------------|-------------------|-------------------|
-------------------|-------------------|-------------------|
-------------------|-------------------|-------------------|
-------------------|-------------------|-------------------|
-------------------|-------------------|-------------------|
-------------------|-------------------|-------------------|


Ending Solo Begins


    W                   W                   W
|--------------------|-------------------|-------------------|
|--------------------|-------------------|-------------------|
|*-------------------|-------------------|-------------------|
|*-------------------|-------------------|-------------------|
|--------------------|-------------------|-------------------|
|--------------------|-------------------|-------------------|


  W                     W                   W
--------------------||-------------------|-------------------|
--------------------||-------------------|-------------------|
-------------------*||-------------------|-------------------|
-------------------*||-------------------|-------------------|
--------------------||-------------------|-------------------|
--------------------||-------------------|-------------------|


Guitar 2 of the Harmony comes in 5:48


  W                   H        Q.      S  S     E.   S    S  S  H         S  S
-------------------|------------------------|----------------------------------|
-------------------|---------------------13-|--15----Lbr--L-13-15-----------13-|
-------------------|------------------15----|----------------------------15----|
-------------------|------------------------|----------------------------------|
-------------------|------------------------|----------------------------------|
-------------------|------------------------|----------------------------------|


   E.   S    S  S  Q     Q     E      E.   S    S S  Q    Q    E
----------------------------------|-------------------------------|
--15----Lbr--L-13-15----13----11--|--10----Lbr--L-8-10---------8--|
----------------------------------|-----------------------7-------|
----------------------------------|-------------------------------|
----------------------------------|-------------------------------|
----------------------------------|-------------------------------|


  E   E   E   E   E   E   E   E
---------------------------------|
--L--10--10--11--11--13--13--15--|
---------------------------------|
---------------------------------|
---------------------------------|
---------------------------------|


      E   E   E   Q     T  T  T  T  S  S  S  S
--------------------------------15-18-15-------|
--15g16--15------------------------------16-18-|
-------------15--12----------17----------------|
--------------------------17-------------------|
-----------------------18----------------------|
-----------------------------------------------|


   S   E.   S  S  S  S  S  S  S  S  E   S  S     Q     E     Q     Q     E
---------------------------------------------|------------------------------|
--18----------------13-------16----15--------|------------------------------|
-----/19---17-14-15-------17----17-----------|--14-----Lbr---L----------12--|
-----------------------15--------------13-15-|--------------------12--------|
---------------------------------------------|------------------------------|
---------------------------------------------|------------------------------|


   |--3--|     |--3--|  |--3--|  |--3--|  |--3--|  |--3--|  |--3--|  |--3-|
   S  S  S     S  S  S  S  S  S  S  S  S  S  S  S  S  S  S  S  S  S  S  S S
----------------------------------------------------------------------------|
----------------------------------------------------------------------------|
--14-12-------------------------12-14-15-17-15-14---------------------------|
--------15-12g13-12----12-13-15-------------------17-15-13-12-10------------|
--------------------15-------------------------------------------13-12-10-8-|
----------------------------------------------------------------------------|


  Q.     Q.       Q        E   Q     Q     Q      E
-----------------------|-----------------------------|
-----------------------|------------------------/11--|
----------------/10----|---L--------------10---------|
---------8-------------|------10----12---------------|
--8--------------------|-----------------------------|
-----------------------|-----------------------------|


   Q     E     Q     E   E   E      E   Q     H          S  S
--------------------------------|-----------------------------|
--10-----Lbr---L----------------|------------13~--------11-10-|
--------------------10----------|------10---------------------|
------------------------10--12--|---L-------------------------|
--------------------------------|-----------------------------|
--------------------------------|-----------------------------|


  E  E  E  Q    E  T T S E     E  E  E   Q    E  T T S E
----------------------------|-----------------------------|
----------------------------|-----------------------------|
--------7--8----7--5-7-5----|-----5--8--10----8--7-8-7-5--|
-----5-------------------8--|--7--------------------------|
--6-------------------------|-----------------------------|
----------------------------|-----------------------------|


  E  E   E   Q     Q     E         W                    W
----------------------------|-----------------------|--------------------|
----------------------------|-----------------------|--------------------|
-----7--10--12----15----14--|------L----------------|--15----------------|
--8-------------------------|-----------------------|--------------------|
----------------------------|-----------------------|--------------------|
----------------------------|-----------------------|--------------------|


   W                   W                   W
--------------------|-------------------|-------------------|
--------------------|-------------------|-------------------|
---L----------------|-------------------|-------------------|
--------------------|-------------------|-------------------|
--------------------|-------------------|-------------------|
--------------------|-------------------|-------------------|


  W                   W                   W                   W
-------------------|-------------------|-------------------|-------------------|
-------------------|-------------------|-------------------|-------------------|
-------------------|-------------------|-------------------|-------------------|
-------------------|-------------------|-------------------|-------------------|
-------------------|-------------------|-------------------|-------------------|
-------------------|-------------------|-------------------|-------------------|


  W                   W                   W                   W
-------------------|-------------------|-------------------|-------------------|
-------------------|-------------------|-------------------|-------------------|
-------------------|-------------------|-------------------|-------------------|
-------------------|-------------------|-------------------|-------------------|
-------------------|-------------------|-------------------|-------------------|
-------------------|-------------------|-------------------|-------------------|


  W                   W                   W                   W
-------------------|-------------------|-------------------|-------------------|
-------------------|-------------------|-------------------|-------------------|
-------------------|-------------------|-------------------|-------------------|
-------------------|-------------------|-------------------|-------------------|
-------------------|-------------------|-------------------|-------------------|
-------------------|-------------------|-------------------|-------------------|


  W                   W                   W                   W
-------------------|-------------------|-------------------|-------------------|
-------------------|-------------------|-------------------|-------------------|
-------------------|-------------------|-------------------|-------------------|
-------------------|-------------------|-------------------|-------------------|
-------------------|-------------------|-------------------|-------------------|
-------------------|-------------------|-------------------|-------------------|


  W                   W                   W
-------------------|-------------------|-------------------|
-------------------|-------------------|-------------------|
-------------------|-------------------|-------------------|
-------------------|-------------------|-------------------|
-------------------|-------------------|-------------------|
-------------------|-------------------|-------------------|


  W
-------------------||
-------------------||
-------------------||
-------------------||
-------------------||
-------------------||





Guitar IV- Paul- Comes in 2nd Verse



       W                H        Q          W                H        Q     3x
D#||-----------------------------------||-----------------------------------||
A#||-----------------------------------||-----------------------------------||
F#||*---------------------------------*||*---------------------------------*||
C#||*---------------------------------*||*---------------------------------*||
G#||-----------------------------------||-----------------------------------||
C#||-----------------------------------||-----------------------------------||


  W                   W                   W                H        E
-------------------|-------------------|-------------------------------|
-------------------|-------------------|-------------------------------|
-------------------|-------------------|-------------------------------|
-------------------|-------------------|-------------------------------|
-------------------|-------------------|-------------------------------|
-------------------|-------------------|-------------------------------|


  W                H        Q         W                H        Q
---------------------------------||-----------------------------------||
---------------------------------||-----------------------------------||
---------------------------------||*---------------------------------*||
---------------------------------||*---------------------------------*||
---------------------------------||-----------------------------------||
---------------------------------||-----------------------------------||


  W                H        Q       W                   W
---------------------------------|-------------------|-------------------|
---------------------------------|-------------------|-------------------|
---------------------------------|-------------------|-------------------|
---------------------------------|-------------------|-------------------|
---------------------------------|-------------------|-------------------|
---------------------------------|-------------------|-------------------|


  W                H        E     W                H        Q    E
-------------------------------|------------------------------------|
-------------------------------|------------------------------------|
-------------------------------|------------------------------------|
-------------------------------|------------------------------------|
-------------------------------|------------------------------------|
-------------------------------|------------------------------------|


  W                H        E     W                H        E
-------------------------------|-------------------------------|
-------------------------------|-------------------------------|
-------------------------------|-------------------------------|
-------------------------------|-------------------------------|
-------------------------------|-------------------------------|
-------------------------------|-------------------------------|


  W                H        E     W                H        E
-------------------------------|-------------------------------|
-------------------------------|-------------------------------|
-------------------------------|-------------------------------|
-------------------------------|-------------------------------|
-------------------------------|-------------------------------|
-------------------------------|-------------------------------|


  W                H        E     W                H        Q    E
-------------------------------|------------------------------------|
-------------------------------|------------------------------------|
-------------------------------|------------------------------------|
-------------------------------|------------------------------------|
-------------------------------|------------------------------------|
-------------------------------|------------------------------------|


  W                H        Q       W                H        Q
---------------------------------|---------------------------------|
---------------------------------|---------------------------------|
---------------------------------|---------------------------------|
---------------------------------|---------------------------------|
---------------------------------|---------------------------------|
---------------------------------|---------------------------------|


  W                H        Q       W                H        Q
---------------------------------|---------------------------------|
---------------------------------|---------------------------------|
---------------------------------|---------------------------------|
---------------------------------|---------------------------------|
---------------------------------|---------------------------------|
---------------------------------|---------------------------------|


  W                H        Q       W
---------------------------------|-------------------|
---------------------------------|-------------------|
---------------------------------|-------------------|
---------------------------------|-------------------|
---------------------------------|-------------------|
---------------------------------|-------------------|


  W                H        Q       W                H        Q
---------------------------------|---------------------------------|
---------------------------------|---------------------------------|
---------------------------------|---------------------------------|
---------------------------------|---------------------------------|
---------------------------------|---------------------------------|
---------------------------------|---------------------------------|


  W                H        Q       W                H        Q
---------------------------------|---------------------------------|
---------------------------------|---------------------------------|
---------------------------------|---------------------------------|
---------------------------------|---------------------------------|
---------------------------------|---------------------------------|
---------------------------------|---------------------------------|


  W                H        Q       W                H        Q
---------------------------------|---------------------------------|
---------------------------------|---------------------------------|
---------------------------------|---------------------------------|
---------------------------------|---------------------------------|
---------------------------------|---------------------------------|
---------------------------------|---------------------------------|


  W                   W                   W                   W
-------------------|-------------------|-------------------|-------------------|
-------------------|-------------------|-------------------|-------------------|
-------------------|-------------------|-------------------|-------------------|
-------------------|-------------------|-------------------|-------------------|
-------------------|-------------------|-------------------|-------------------|
-------------------|-------------------|-------------------|-------------------|


  W                   W                   W                   W
-------------------|-------------------|-------------------|-------------------|
-------------------|-------------------|-------------------|-------------------|
-------------------|-------------------|-------------------|-------------------|
-------------------|-------------------|-------------------|-------------------|
-------------------|-------------------|-------------------|-------------------|
-------------------|-------------------|-------------------|-------------------|


  W                   W                   W                   W
-------------------|-------------------|-------------------|-------------------|
-------------------|-------------------|-------------------|-------------------|
-------------------|-------------------|-------------------|-------------------|
-------------------|-------------------|-------------------|-------------------|
-------------------|-------------------|-------------------|-------------------|
-------------------|-------------------|-------------------|-------------------|


  W                   W                   W                   W
-------------------|-------------------|-------------------|-------------------|
-------------------|-------------------|-------------------|-------------------|
-------------------|-------------------|-------------------|-------------------|
-------------------|-------------------|-------------------|-------------------|
-------------------|-------------------|-------------------|-------------------|
-------------------|-------------------|-------------------|-------------------|


  W                   W                   W                   W
-------------------|-------------------|-------------------|-------------------|
-------------------|-------------------|-------------------|-------------------|
-------------------|-------------------|-------------------|-------------------|
-------------------|-------------------|-------------------|-------------------|
-------------------|-------------------|-------------------|-------------------|
-------------------|-------------------|-------------------|-------------------|


  W                   W                     W
-------------------|-------------------||--------------------|
-------------------|-------------------||--------------------|
-------------------|-------------------||*-------------------|
-------------------|-------------------||*-------------------|
-------------------|-------------------||--------------------|
-------------------|-------------------||--------------------|


  W                   W                   W                     H
-------------------|-------------------|--------------------||-----------|
-------------------|-------------------|--------------------||-----------|
-------------------|-------------------|-------------------*||-----------|
-------------------|-------------------|-------------------*||-----------|
-------------------|-------------------|--------------------||-----------|
-------------------|-------------------|--------------------||-----------|


  W                   W                   W                   W
-------------------|-------------------|-------------------|-------------------|
-------------------|-------------------|-------------------|-------------------|
-------------------|-------------------|-------------------|-------------------|
-------------------|-------------------|-------------------|-------------------|
-------------------|-------------------|-------------------|-------------------|
-------------------|-------------------|-------------------|-------------------|


  W                   W                   W                   W
-------------------|-------------------|-------------------|-------------------|
-------------------|-------------------|-------------------|-------------------|
-------------------|-------------------|-------------------|-------------------|
-------------------|-------------------|-------------------|-------------------|
-------------------|-------------------|-------------------|-------------------|
-------------------|-------------------|-------------------|-------------------|


  W                   H           H           H           W
-------------------|-----------|-----------|-----------|-------------------|
-------------------|-----------|-----------|-----------|-------------------|
-------------------|-----------|-----------|-----------|-------------------|
-------------------|-----------|-----------|-----------|-------------------|
-------------------|-----------|-----------|-----------|-------------------|
-------------------|-----------|-----------|-----------|-------------------|


  W                   W                   W                   W
-------------------|-------------------|-------------------|-------------------|
-------------------|-------------------|-------------------|-------------------|
-------------------|-------------------|-------------------|-------------------|
-------------------|-------------------|-------------------|-------------------|
-------------------|-------------------|-------------------|-------------------|
-------------------|-------------------|-------------------|-------------------|


  W                   W                   W                   W
-------------------|-------------------|-------------------|-------------------|
-------------------|-------------------|-------------------|-------------------|
-------------------|-------------------|-------------------|-------------------|
-------------------|-------------------|-------------------|-------------------|
-------------------|-------------------|-------------------|-------------------|
-------------------|-------------------|-------------------|-------------------|


  W                   W                   W                   W
-------------------|-------------------|-------------------|-------------------|
-------------------|-------------------|-------------------|-------------------|
-------------------|-------------------|-------------------|-------------------|
-------------------|-------------------|-------------------|-------------------|
-------------------|-------------------|-------------------|-------------------|
-------------------|-------------------|-------------------|-------------------|


  W                   W                   W                   W
-------------------|-------------------|-------------------|-------------------|
-------------------|-------------------|-------------------|-------------------|
-------------------|-------------------|-------------------|-------------------|
-------------------|-------------------|-------------------|-------------------|
-------------------|-------------------|-------------------|-------------------|
-------------------|-------------------|-------------------|-------------------|


  W                   W                   W                H        Q
-------------------|-------------------|---------------------------------|
-------------------|-------------------|---------------------------------|
-------------------|-------------------|---------------------------------|
-------------------|-------------------|---------------------------------|
-------------------|-------------------|---------------------------------|
-------------------|-------------------|---------------------------------|


  W                   W                   W                Q    S
-------------------|-------------------|--------------------------|
-------------------|-------------------|--------------------------|
-------------------|-------------------|--------------------------|
-------------------|-------------------|--------------------------|
-------------------|-------------------|--------------------------|
-------------------|-------------------|--------------------------|


  W                   W                   W                   W
-------------------|-------------------|-------------------|-------------------|
-------------------|-------------------|-------------------|-------------------|
-------------------|-------------------|-------------------|-------------------|
-------------------|-------------------|-------------------|-------------------|
-------------------|-------------------|-------------------|-------------------|
-------------------|-------------------|-------------------|-------------------|


  W                   W                   W                   W
-------------------|-------------------|-------------------|-------------------|
-------------------|-------------------|-------------------|-------------------|
-------------------|-------------------|-------------------|-------------------|
-------------------|-------------------|-------------------|-------------------|
-------------------|-------------------|-------------------|-------------------|
-------------------|-------------------|-------------------|-------------------|


  W                H        Q       H        Q       H        Q
---------------------------------|----------------|----------------|
---------------------------------|----------------|----------------|
---------------------------------|----------------|----------------|
---------------------------------|----------------|----------------|
---------------------------------|----------------|----------------|
---------------------------------|----------------|----------------|


  H        Q       H        Q       H        Q       H        Q
----------------|----------------|----------------|----------------|
----------------|----------------|----------------|----------------|
----------------|----------------|----------------|----------------|
----------------|----------------|----------------|----------------|
----------------|----------------|----------------|----------------|
----------------|----------------|----------------|----------------|


  H        Q       H        Q       H        Q       H        Q
----------------|----------------|----------------|----------------|
----------------|----------------|----------------|----------------|
----------------|----------------|----------------|----------------|
----------------|----------------|----------------|----------------|
----------------|----------------|----------------|----------------|
----------------|----------------|----------------|----------------|


  H        Q       H        Q       H        Q       H        Q
----------------|----------------|----------------|----------------|
----------------|----------------|----------------|----------------|
----------------|----------------|----------------|----------------|
----------------|----------------|----------------|----------------|
----------------|----------------|----------------|----------------|
----------------|----------------|----------------|----------------|


  H        Q       H           H           E  S    Q    E     H        Q    E
----------------|-----------|-----------|-------|----------|-------------------|
----------------|-----------|-----------|-------|----------|-------------------|
----------------|-----------|-----------|-------|----------|-------------------|
----------------|-----------|-----------|-------|----------|-------------------|
----------------|-----------|-----------|-------|----------|-------------------|
----------------|-----------|-----------|-------|----------|-------------------|


  W                H        Q       W                H        Q
---------------------------------|---------------------------------|
---------------------------------|---------------------------------|
---------------------------------|---------------------------------|
---------------------------------|---------------------------------|
---------------------------------|---------------------------------|
---------------------------------|---------------------------------|


  W                H        Q       W                   W
---------------------------------|-------------------|-------------------|
---------------------------------|-------------------|-------------------|
---------------------------------|-------------------|-------------------|
---------------------------------|-------------------|-------------------|
---------------------------------|-------------------|-------------------|
---------------------------------|-------------------|-------------------|


  W                   W                   W                   W
-------------------|-------------------|-------------------|-------------------|
-------------------|-------------------|-------------------|-------------------|
-------------------|-------------------|-------------------|-------------------|
-------------------|-------------------|-------------------|-------------------|
-------------------|-------------------|-------------------|-------------------|
-------------------|-------------------|-------------------|-------------------|


  W                   W                   W                   W
-------------------|-------------------|-------------------|-------------------|
-------------------|-------------------|-------------------|-------------------|
-------------------|-------------------|-------------------|-------------------|
-------------------|-------------------|-------------------|-------------------|
-------------------|-------------------|-------------------|-------------------|
-------------------|-------------------|-------------------|-------------------|


                     2nd Verse 4:05


                         With delay
  W                      Q.         Q.      Q        E   H.            E
-------------------||---18---------17------------|------------------------|
-------------------||----------------------18----|---L--15-------------L--|
-------------------||*---------------------------|------------------------|
-------------------||*---------------------------|------------------------|
-------------------||----------------------------|------------------------|
-------------------||----------------------------|------------------------|


   Q.      H         E      W                      Q.      Q.      Q
------------------------|---------------------||--18------17------------|
--13------15---------L--|--15-----------------||------------------18----|
------------------------|--------------------*||------------------------|
------------------------|--------------------*||------------------------|
------------------------|---------------------||------------------------|
------------------------|---------------------||------------------------|


   E   H.            E      Q.      H         E      W
------------------------|------------------------|--------------------|
---L--15-------------L--|--13------15---------L--|--15----------------|
------------------------|------------------------|--------------------|
------------------------|------------------------|--------------------|
------------------------|------------------------|--------------------|
------------------------|------------------------|--------------------|


   Q.      Q.      Q        E   H.            E      H        H
--18------17------------|------------------------|---------------------|
------------------18----|---L--15-------------L--|--13-----------------|
------------------------|------------------------|---------------------|
------------------------|------------------------|---------------------|
------------------------|------------------------|---------------------|
------------------------|------------------------|---------------------|


  W                   W                   W                   W
-------------------|-------------------|-------------------|-------------------|
-------------------|-------------------|-------------------|-------------------|
-------------------|-------------------|-------------------|-------------------|
-------------------|-------------------|-------------------|-------------------|
-------------------|-------------------|-------------------|-------------------|
-------------------|-------------------|-------------------|-------------------|


  W                   W                   W                   W
-------------------|-------------------|-------------------|-------------------|
-------------------|-------------------|-------------------|-------------------|
-------------------|-------------------|-------------------|-------------------|
-------------------|-------------------|-------------------|-------------------|
-------------------|-------------------|-------------------|-------------------|
-------------------|-------------------|-------------------|-------------------|


  W                   W                   W                   W
-------------------|-------------------|-------------------|-------------------|
-------------------|-------------------|-------------------|-------------------|
-------------------|-------------------|-------------------|-------------------|
-------------------|-------------------|-------------------|-------------------|
-------------------|-------------------|-------------------|-------------------|
-------------------|-------------------|-------------------|-------------------|


  W                   W                   W                   W
-------------------|-------------------|-------------------|-------------------|
-------------------|-------------------|-------------------|-------------------|
-------------------|-------------------|-------------------|-------------------|
-------------------|-------------------|-------------------|-------------------|
-------------------|-------------------|-------------------|-------------------|
-------------------|-------------------|-------------------|-------------------|


  W                     W                   W
-------------------||--------------------|-------------------|
-------------------||--------------------|-------------------|
-------------------||*-------------------|-------------------|
-------------------||*-------------------|-------------------|
-------------------||--------------------|-------------------|
-------------------||--------------------|-------------------|


  W                   W                     W
-------------------|--------------------||-------------------|
-------------------|--------------------||-------------------|
-------------------|-------------------*||-------------------|
-------------------|-------------------*||-------------------|
-------------------|--------------------||-------------------|
-------------------|--------------------||-------------------|


  W                   W                   W                   W
-------------------|-------------------|-------------------|-------------------|
-------------------|-------------------|-------------------|-------------------|
-------------------|-------------------|-------------------|-------------------|
-------------------|-------------------|-------------------|-------------------|
-------------------|-------------------|-------------------|-------------------|
-------------------|-------------------|-------------------|-------------------|


  W                   W                   W                   W
-------------------|-------------------|-------------------|-------------------|
-------------------|-------------------|-------------------|-------------------|
-------------------|-------------------|-------------------|-------------------|
-------------------|-------------------|-------------------|-------------------|
-------------------|-------------------|-------------------|-------------------|
-------------------|-------------------|-------------------|-------------------|


  W                   W                   W                   W
-------------------|-------------------|-------------------|-------------------|
-------------------|-------------------|-------------------|-------------------|
-------------------|-------------------|-------------------|-------------------|
-------------------|-------------------|-------------------|-------------------|
-------------------|-------------------|-------------------|-------------------|
-------------------|-------------------|-------------------|-------------------|


  W                   W                   W                   W
-------------------|-------------------|-------------------|-------------------|
-------------------|-------------------|-------------------|-------------------|
-------------------|-------------------|-------------------|-------------------|
-------------------|-------------------|-------------------|-------------------|
-------------------|-------------------|-------------------|-------------------|
-------------------|-------------------|-------------------|-------------------|


  W                   W                   W                   W
-------------------|-------------------|-------------------|-------------------|
-------------------|-------------------|-------------------|-------------------|
-------------------|-------------------|-------------------|-------------------|
-------------------|-------------------|-------------------|-------------------|
-------------------|-------------------|-------------------|-------------------|
-------------------|-------------------|-------------------|-------------------|


  W                   W                   W                   W
-------------------|-------------------|-------------------|-------------------|
-------------------|-------------------|-------------------|-------------------|
-------------------|-------------------|-------------------|-------------------|
-------------------|-------------------|-------------------|-------------------|
-------------------|-------------------|-------------------|-------------------|
-------------------|-------------------|-------------------|-------------------|


  W                   W                   W                   W
-------------------|-------------------|-------------------|-------------------|
-------------------|-------------------|-------------------|-------------------|
-------------------|-------------------|-------------------|-------------------|
-------------------|-------------------|-------------------|-------------------|
-------------------|-------------------|-------------------|-------------------|
-------------------|-------------------|-------------------|-------------------|


  W                   W                   W                   W
-------------------|-------------------|-------------------|-------------------|
-------------------|-------------------|-------------------|-------------------|
-------------------|-------------------|-------------------|-------------------|
-------------------|-------------------|-------------------|-------------------|
-------------------|-------------------|-------------------|-------------------|
-------------------|-------------------|-------------------|-------------------|


  W                   W                   W                   W
-------------------|-------------------|-------------------|-------------------|
-------------------|-------------------|-------------------|-------------------|
-------------------|-------------------|-------------------|-------------------|
-------------------|-------------------|-------------------|-------------------|
-------------------|-------------------|-------------------|-------------------|
-------------------|-------------------|-------------------|-------------------|


  W                   W                   W                   W
-------------------|-------------------|-------------------|-------------------|
-------------------|-------------------|-------------------|-------------------|
-------------------|-------------------|-------------------|-------------------|
-------------------|-------------------|-------------------|-------------------|
-------------------|-------------------|-------------------|-------------------|
-------------------|-------------------|-------------------|-------------------|


  W                   W                   W
-------------------|-------------------|-------------------||
-------------------|-------------------|-------------------||
-------------------|-------------------|-------------------||
-------------------|-------------------|-------------------||
-------------------|-------------------|-------------------||
-------------------|-------------------|-------------------||





Guitar V- Dusty- Begins 4 measure before 2nd Verse


       W                H        Q          W                H        Q     3x
D#||-----------------------------------||-----------------------------------||
A#||-----------------------------------||-----------------------------------||
F#||*---------------------------------*||*---------------------------------*||
C#||*---------------------------------*||*---------------------------------*||
G#||-----------------------------------||-----------------------------------||
C#||-----------------------------------||-----------------------------------||


  W                   W                   W                H        E
-------------------|-------------------|-------------------------------|
-------------------|-------------------|-------------------------------|
-------------------|-------------------|-------------------------------|
-------------------|-------------------|-------------------------------|
-------------------|-------------------|-------------------------------|
-------------------|-------------------|-------------------------------|


  W                H        Q         W                H        Q
---------------------------------||-----------------------------------||
---------------------------------||-----------------------------------||
---------------------------------||*---------------------------------*||
---------------------------------||*---------------------------------*||
---------------------------------||-----------------------------------||
---------------------------------||-----------------------------------||


  W                H        Q       W                   W
---------------------------------|-------------------|-------------------|
---------------------------------|-------------------|-------------------|
---------------------------------|-------------------|-------------------|
---------------------------------|-------------------|-------------------|
---------------------------------|-------------------|-------------------|
---------------------------------|-------------------|-------------------|


  W                H        E     W                H        Q    E
-------------------------------|------------------------------------|
-------------------------------|------------------------------------|
-------------------------------|------------------------------------|
-------------------------------|------------------------------------|
-------------------------------|------------------------------------|
-------------------------------|------------------------------------|


  W                H        E     W                H        E
-------------------------------|-------------------------------|
-------------------------------|-------------------------------|
-------------------------------|-------------------------------|
-------------------------------|-------------------------------|
-------------------------------|-------------------------------|
-------------------------------|-------------------------------|


  W                H        E     W                H        E
-------------------------------|-------------------------------|
-------------------------------|-------------------------------|
-------------------------------|-------------------------------|
-------------------------------|-------------------------------|
-------------------------------|-------------------------------|
-------------------------------|-------------------------------|


  W                H        E     W                H        Q    E
-------------------------------|------------------------------------|
-------------------------------|------------------------------------|
-------------------------------|------------------------------------|
-------------------------------|------------------------------------|
-------------------------------|------------------------------------|
-------------------------------|------------------------------------|


  W                H        Q       W                H        Q
---------------------------------|---------------------------------|
---------------------------------|---------------------------------|
---------------------------------|---------------------------------|
---------------------------------|---------------------------------|
---------------------------------|---------------------------------|
---------------------------------|---------------------------------|


  W                H        Q       W                H        Q
---------------------------------|---------------------------------|
---------------------------------|---------------------------------|
---------------------------------|---------------------------------|
---------------------------------|---------------------------------|
---------------------------------|---------------------------------|
---------------------------------|---------------------------------|


  W                H        Q       W
---------------------------------|-------------------|
---------------------------------|-------------------|
---------------------------------|-------------------|
---------------------------------|-------------------|
---------------------------------|-------------------|
---------------------------------|-------------------|


  W                H        Q       W                H        Q
---------------------------------|---------------------------------|
---------------------------------|---------------------------------|
---------------------------------|---------------------------------|
---------------------------------|---------------------------------|
---------------------------------|---------------------------------|
---------------------------------|---------------------------------|


  W                H        Q       W                H        Q
---------------------------------|---------------------------------|
---------------------------------|---------------------------------|
---------------------------------|---------------------------------|
---------------------------------|---------------------------------|
---------------------------------|---------------------------------|
---------------------------------|---------------------------------|


  W                H        Q       W                H        Q
---------------------------------|---------------------------------|
---------------------------------|---------------------------------|
---------------------------------|---------------------------------|
---------------------------------|---------------------------------|
---------------------------------|---------------------------------|
---------------------------------|---------------------------------|


  W                   W                   W                   W
-------------------|-------------------|-------------------|-------------------|
-------------------|-------------------|-------------------|-------------------|
-------------------|-------------------|-------------------|-------------------|
-------------------|-------------------|-------------------|-------------------|
-------------------|-------------------|-------------------|-------------------|
-------------------|-------------------|-------------------|-------------------|


  W                   W                   W                   W
-------------------|-------------------|-------------------|-------------------|
-------------------|-------------------|-------------------|-------------------|
-------------------|-------------------|-------------------|-------------------|
-------------------|-------------------|-------------------|-------------------|
-------------------|-------------------|-------------------|-------------------|
-------------------|-------------------|-------------------|-------------------|


  W                   W                   W                   W
-------------------|-------------------|-------------------|-------------------|
-------------------|-------------------|-------------------|-------------------|
-------------------|-------------------|-------------------|-------------------|
-------------------|-------------------|-------------------|-------------------|
-------------------|-------------------|-------------------|-------------------|
-------------------|-------------------|-------------------|-------------------|


  W                   W                   W                   W
-------------------|-------------------|-------------------|-------------------|
-------------------|-------------------|-------------------|-------------------|
-------------------|-------------------|-------------------|-------------------|
-------------------|-------------------|-------------------|-------------------|
-------------------|-------------------|-------------------|-------------------|
-------------------|-------------------|-------------------|-------------------|


  W                   W                   W                   W
-------------------|-------------------|-------------------|-------------------|
-------------------|-------------------|-------------------|-------------------|
-------------------|-------------------|-------------------|-------------------|
-------------------|-------------------|-------------------|-------------------|
-------------------|-------------------|-------------------|-------------------|
-------------------|-------------------|-------------------|-------------------|


  W                   W                     W
-------------------|-------------------||--------------------|
-------------------|-------------------||--------------------|
-------------------|-------------------||*-------------------|
-------------------|-------------------||*-------------------|
-------------------|-------------------||--------------------|
-------------------|-------------------||--------------------|


  W                   W                   W                     H
-------------------|-------------------|--------------------||-----------|
-------------------|-------------------|--------------------||-----------|
-------------------|-------------------|-------------------*||-----------|
-------------------|-------------------|-------------------*||-----------|
-------------------|-------------------|--------------------||-----------|
-------------------|-------------------|--------------------||-----------|


  W                   W                   W                   W
-------------------|-------------------|-------------------|-------------------|
-------------------|-------------------|-------------------|-------------------|
-------------------|-------------------|-------------------|-------------------|
-------------------|-------------------|-------------------|-------------------|
-------------------|-------------------|-------------------|-------------------|
-------------------|-------------------|-------------------|-------------------|


  W                   W                   W                   W
-------------------|-------------------|-------------------|-------------------|
-------------------|-------------------|-------------------|-------------------|
-------------------|-------------------|-------------------|-------------------|
-------------------|-------------------|-------------------|-------------------|
-------------------|-------------------|-------------------|-------------------|
-------------------|-------------------|-------------------|-------------------|


  W                   H           H           H           W
-------------------|-----------|-----------|-----------|-------------------|
-------------------|-----------|-----------|-----------|-------------------|
-------------------|-----------|-----------|-----------|-------------------|
-------------------|-----------|-----------|-----------|-------------------|
-------------------|-----------|-----------|-----------|-------------------|
-------------------|-----------|-----------|-----------|-------------------|


  W                   W                   W                   W
-------------------|-------------------|-------------------|-------------------|
-------------------|-------------------|-------------------|-------------------|
-------------------|-------------------|-------------------|-------------------|
-------------------|-------------------|-------------------|-------------------|
-------------------|-------------------|-------------------|-------------------|
-------------------|-------------------|-------------------|-------------------|


  W                   W                   W                   W
-------------------|-------------------|-------------------|-------------------|
-------------------|-------------------|-------------------|-------------------|
-------------------|-------------------|-------------------|-------------------|
-------------------|-------------------|-------------------|-------------------|
-------------------|-------------------|-------------------|-------------------|
-------------------|-------------------|-------------------|-------------------|


  W                   W                   W                   W
-------------------|-------------------|-------------------|-------------------|
-------------------|-------------------|-------------------|-------------------|
-------------------|-------------------|-------------------|-------------------|
-------------------|-------------------|-------------------|-------------------|
-------------------|-------------------|-------------------|-------------------|
-------------------|-------------------|-------------------|-------------------|


  W                   W                   W                   W
-------------------|-------------------|-------------------|-------------------|
-------------------|-------------------|-------------------|-------------------|
-------------------|-------------------|-------------------|-------------------|
-------------------|-------------------|-------------------|-------------------|
-------------------|-------------------|-------------------|-------------------|
-------------------|-------------------|-------------------|-------------------|


  W                   W                   W                H        Q
-------------------|-------------------|---------------------------------|
-------------------|-------------------|---------------------------------|
-------------------|-------------------|---------------------------------|
-------------------|-------------------|---------------------------------|
-------------------|-------------------|---------------------------------|
-------------------|-------------------|---------------------------------|


  W                   W                   W                Q    S
-------------------|-------------------|--------------------------|
-------------------|-------------------|--------------------------|
-------------------|-------------------|--------------------------|
-------------------|-------------------|--------------------------|
-------------------|-------------------|--------------------------|
-------------------|-------------------|--------------------------|


  W                   W                   W                   W
-------------------|-------------------|-------------------|-------------------|
-------------------|-------------------|-------------------|-------------------|
-------------------|-------------------|-------------------|-------------------|
-------------------|-------------------|-------------------|-------------------|
-------------------|-------------------|-------------------|-------------------|
-------------------|-------------------|-------------------|-------------------|


  W                   W                   W                   W
-------------------|-------------------|-------------------|-------------------|
-------------------|-------------------|-------------------|-------------------|
-------------------|-------------------|-------------------|-------------------|
-------------------|-------------------|-------------------|-------------------|
-------------------|-------------------|-------------------|-------------------|
-------------------|-------------------|-------------------|-------------------|


  W                H        Q       H        Q       H        Q
---------------------------------|----------------|----------------|
---------------------------------|----------------|----------------|
---------------------------------|----------------|----------------|
---------------------------------|----------------|----------------|
---------------------------------|----------------|----------------|
---------------------------------|----------------|----------------|


  H        Q       H        Q       H        Q       H        Q
----------------|----------------|----------------|----------------|
----------------|----------------|----------------|----------------|
----------------|----------------|----------------|----------------|
----------------|----------------|----------------|----------------|
----------------|----------------|----------------|----------------|
----------------|----------------|----------------|----------------|


  H        Q       H        Q       H        Q       H        Q
----------------|----------------|----------------|----------------|
----------------|----------------|----------------|----------------|
----------------|----------------|----------------|----------------|
----------------|----------------|----------------|----------------|
----------------|----------------|----------------|----------------|
----------------|----------------|----------------|----------------|


  H        Q       H        Q       H        Q       H        Q
----------------|----------------|----------------|----------------|
----------------|----------------|----------------|----------------|
----------------|----------------|----------------|----------------|
----------------|----------------|----------------|----------------|
----------------|----------------|----------------|----------------|
----------------|----------------|----------------|----------------|


  H        Q       H           H           E  S    Q    E     H        Q    E
----------------|-----------|-----------|-------|----------|-------------------|
----------------|-----------|-----------|-------|----------|-------------------|
----------------|-----------|-----------|-------|----------|-------------------|
----------------|-----------|-----------|-------|----------|-------------------|
----------------|-----------|-----------|-------|----------|-------------------|
----------------|-----------|-----------|-------|----------|-------------------|


  W                H        Q       W                H        Q
---------------------------------|---------------------------------|
---------------------------------|---------------------------------|
---------------------------------|---------------------------------|
---------------------------------|---------------------------------|
---------------------------------|---------------------------------|
---------------------------------|---------------------------------|


  W                H        Q       W                   W
---------------------------------|-------------------|-------------------|
---------------------------------|-------------------|-------------------|
---------------------------------|-------------------|-------------------|
---------------------------------|-------------------|-------------------|
---------------------------------|-------------------|-------------------|
---------------------------------|-------------------|-------------------|


  W                   W                   W                   W
-------------------|-------------------|-------------------|-------------------|
-------------------|-------------------|-------------------|-------------------|
-------------------|-------------------|-------------------|-------------------|
-------------------|-------------------|-------------------|-------------------|
-------------------|-------------------|-------------------|-------------------|
-------------------|-------------------|-------------------|-------------------|


Piano is playing here before 2nd Verse 

                      ^                                       ^
  W                   W                   W                   W
-------------------|-------------------|-------------------|-------------------|
-------------------|-------------------|-------------------|-------------------|
-------------------|--7----------------|--L----------------|--5----------------|
-------------------|--5----------------|--L----------------|--3----------------|
-------------------|--5----------------|--L----------------|--3----------------|
-------------------|--5----------------|--L----------------|--3----------------|


                     2nd Verse Begins 4:05


  ^
  W                     E  S E  S E  S E  S E  S S
-------------------||------------------------------|
-------------------||------------------------------|
--7----------------||*-------7--7------7--7------7-|
--5----------------||*-----------------------------|
--5----------------||---5--5------5--5------5--5---|
--5----------------||---5--5------5--5------5--5---|


  E  S E  S E  S E  S E  S S    E  S E  S E  S E  S E  S S
-----------------------------|-----------------------------|
-------3--3------3--3------3-|-------4--4------4--4------4-|
-----------------------------|-----------------------------|
-----------------------------|-----------------------------|
--1--1------1--1------1--1---|--3--3------3--3------3--3---|
--1--1------1--1------1--1---|--3--3------3--3------3--3---|


  E  S E  S E  S E  S E  S S      E  S E  S E  S E  S E  S S
------------------------------||-----------------------------|
------------------------------||-----------------------------|
-------7--7------7--7------7-*||-------7--7------7--7------7-|
-----------------------------*||-----------------------------|
--5--5------5--5------5--5----||--5--5------5--5------5--5---|
--5--5------5--5------5--5----||--5--5------5--5------5--5---|


  E  S E  S E  S E  S E  S S    E  S E  S E  S E  S E  S S
-----------------------------|-----------------------------|
-------3--3------3--3------3-|-------4--4------4--4------4-|
-----------------------------|-----------------------------|
-----------------------------|-----------------------------|
--1--1------1--1------1--1---|--3--3------3--3------3--3---|
--1--1------1--1------1--1---|--3--3------3--3------3--3---|


  E  S E  S E  S E  S E  S S    E  S E  S E  S E  S E  S S
-----------------------------|-----------------------------|
-----------------------------|-----------------------------|
-------7--7------7--7------7-|-------7--7------7--7------7-|
-----------------------------|-----------------------------|
--5--5------5--5------5--5---|--5--5------5--5------5--5---|
--5--5------5--5------5--5---|--5--5------5--5------5--5---|


                                ^                   ^
  E  S E  S E  S E  S E  S S    W                   W
-----------------------------|-------------------|-------------------|
-------3--3------3--3------3-|-------------------|-------------------|
-----------------------------|--5----------------|--7----------------|
-----------------------------|--3----------------|--5----------------|
--1--1------1--1------1--1---|--3----------------|--5----------------|
--1--1------1--1------1--1---|--3----------------|--5----------------|



Clean Solo 4:43


  ^                   ^                   ^                   ^
  W                   W                   W                   W
-------------------|-------------------|-------------------|-------------------|
-------------------|--3----------------|--4----------------|-------------------|
--7----------------|-------------------|-------------------|--7----------------|
--5----------------|--1----------------|--3----------------|--5----------------|
--5----------------|--1----------------|--3----------------|--5----------------|
--5----------------|--1----------------|--3----------------|--5----------------|


  ^                   ^                   ^                   ^
  W                   W                   W                   W
-------------------|-------------------|-------------------|-------------------|
-------------------|--3----------------|--4----------------|-------------------|
--7----------------|-------------------|-------------------|--7----------------|
--5----------------|--1----------------|--3----------------|--5----------------|
--5----------------|--1----------------|--3----------------|--5----------------|
--5----------------|--1----------------|--3----------------|--5----------------|


  ^                   ^                   ^                   ^
  W                   W                   W                   W
-------------------|-------------------|-------------------|-------------------|
-------------------|--3----------------|--4----------------|-------------------|
--7----------------|-------------------|-------------------|--7----------------|
--5----------------|--1----------------|--3----------------|--5----------------|
--5----------------|--1----------------|--3----------------|--5----------------|
--5----------------|--1----------------|--3----------------|--5----------------|


  ^                   ^                   ^                   ^
  W                   W                   W                   W
-------------------|-------------------|-------------------|-------------------|
-------------------|--3----------------|--4----------------|-------------------|
--7----------------|-------------------|-------------------|--7----------------|
--5----------------|--1----------------|--3----------------|--5----------------|
--5----------------|--1----------------|--3----------------|--5----------------|
--5----------------|--1----------------|--3----------------|--5----------------|


    W                   W                   W
|--------------------|-------------------|-------------------|
|--------------------|-------------------|-------------------|
|*-------------------|-------------------|-------------------|
|*-------------------|-------------------|-------------------|
|--------------------|-------------------|-------------------|
|--------------------|-------------------|-------------------|


  W                     W                   W
--------------------||-------------------|-------------------|
--------------------||-------------------|-------------------|
-------------------*||-------------------|-------------------|
-------------------*||-------------------|-------------------|
--------------------||-------------------|-------------------|
--------------------||-------------------|-------------------|


  W                   W                   W                   W
-------------------|-------------------|-------------------|-------------------|
-------------------|-------------------|-------------------|-------------------|
-------------------|-------------------|-------------------|-------------------|
-------------------|-------------------|-------------------|-------------------|
-------------------|-------------------|-------------------|-------------------|
-------------------|-------------------|-------------------|-------------------|


  W                   W                   W                   W
-------------------|-------------------|-------------------|-------------------|
-------------------|-------------------|-------------------|-------------------|
-------------------|-------------------|-------------------|-------------------|
-------------------|-------------------|-------------------|-------------------|
-------------------|-------------------|-------------------|-------------------|
-------------------|-------------------|-------------------|-------------------|


  W                   W                   W                   W
-------------------|-------------------|-------------------|-------------------|
-------------------|-------------------|-------------------|-------------------|
-------------------|-------------------|-------------------|-------------------|
-------------------|-------------------|-------------------|-------------------|
-------------------|-------------------|-------------------|-------------------|
-------------------|-------------------|-------------------|-------------------|


  W                   W                   W                   W
-------------------|-------------------|-------------------|-------------------|
-------------------|-------------------|-------------------|-------------------|
-------------------|-------------------|-------------------|-------------------|
-------------------|-------------------|-------------------|-------------------|
-------------------|-------------------|-------------------|-------------------|
-------------------|-------------------|-------------------|-------------------|


  W                   W                   W                   W
-------------------|-------------------|-------------------|-------------------|
-------------------|-------------------|-------------------|-------------------|
-------------------|-------------------|-------------------|-------------------|
-------------------|-------------------|-------------------|-------------------|
-------------------|-------------------|-------------------|-------------------|
-------------------|-------------------|-------------------|-------------------|


  W                   W                   W                   W
-------------------|-------------------|-------------------|-------------------|
-------------------|-------------------|-------------------|-------------------|
-------------------|-------------------|-------------------|-------------------|
-------------------|-------------------|-------------------|-------------------|
-------------------|-------------------|-------------------|-------------------|
-------------------|-------------------|-------------------|-------------------|


  W                   W                   W                   W
-------------------|-------------------|-------------------|-------------------|
-------------------|-------------------|-------------------|-------------------|
-------------------|-------------------|-------------------|-------------------|
-------------------|-------------------|-------------------|-------------------|
-------------------|-------------------|-------------------|-------------------|
-------------------|-------------------|-------------------|-------------------|


  W                   W                   W                   W
-------------------|-------------------|-------------------|-------------------|
-------------------|-------------------|-------------------|-------------------|
-------------------|-------------------|-------------------|-------------------|
-------------------|-------------------|-------------------|-------------------|
-------------------|-------------------|-------------------|-------------------|
-------------------|-------------------|-------------------|-------------------|


  W                   W                   W                   W
-------------------|-------------------|-------------------|-------------------|
-------------------|-------------------|-------------------|-------------------|
-------------------|-------------------|-------------------|-------------------|
-------------------|-------------------|-------------------|-------------------|
-------------------|-------------------|-------------------|-------------------|
-------------------|-------------------|-------------------|-------------------|


  W                   W                   W                   W
-------------------|-------------------|-------------------|-------------------|
-------------------|-------------------|-------------------|-------------------|
-------------------|-------------------|-------------------|-------------------|
-------------------|-------------------|-------------------|-------------------|
-------------------|-------------------|-------------------|-------------------|
-------------------|-------------------|-------------------|-------------------|


  W                   W
-------------------|-------------------||
-------------------|-------------------||
-------------------|-------------------||
-------------------|-------------------||
-------------------|-------------------||
-------------------|-------------------||


Duration Legend
---------------
W - whole
H - half
Q - quarter
E - 8th
S - 16th
T - 32nd
X - 64th
. - note dotted
|-n-|  - n-tuplets


Tablature Legend
----------------
L - tied note
x - dead note
g - grace note
(n) - ghost note
> - accentuded note
NH - natural harmonic
AH - artificial harmonic
TH - tapped harmonic
SH - semi harmonic
PH - pitch harmonic
h - hammer on
p - pull off
b - bend
br - bendRelease
pb - preBend
pbr - preBendRelease
brb - bendReleaseBend
\n/ - tremolo bar dip
\n - tremolo bar dive
-/n - tremolo bar Release up
/n\ - tremolo bar inverted dip
/n - tremolo bar return
-\n - tremolo bar Release down
S - shift slide
s - legato slide
/ -  slide into from below or out of upwards
\ -  slide into from above or out of downwards
~ - vibrato
W - wide vibrato
tr - trill
TP - tremolo picking
T - tapping
S - slap
P - pop
< - fade in
^ - brush up
v - brush down
comments
print report bad tab
11 comments total. Showing first comments.
0 reply
guitarwannabe16 wrote on January 4 2007, 02:36 pm

great. but since BTBAM is in C# standard that makes this entire tab pretty much wrong

0 reply
6stringz89 wrote on January 4 2007, 07:54 pm

great tab even though its in a different tuning. i assume u copied the power tab version? and it would be easier if u labeled what is what since theres so many notes

0 reply
antiflag125462 wrote on January 6 2007, 12:32 am

The tuning doesn't make a difference, if you didn't know that you shouldn't be trying to learn this song anyways. This tab is in Drop C# so it can still play all of the same notes as the C# standard, if I had it in Drop D it wouldn't work. But it isn't so that doesn't matter. And also, I'm not going to lie about it, I even said it in the intro that I took the entire thing from asteiosmetal's GP5, but I understand some people don't have GP5(I didn't before) and this is a great song to learn.

and thanks for the feedback but what do you mean by it would be easier if you labeled what is what since there's so many notes? I'm just not comprehending that sentence, sorry.

I want to post or [tab]
guest
You may want to rate the tab now too:
select rating
Please do not post tabs as comments. Select "correction" instead!