Oops, an error
Loading. Please wait.

Sun Of Nothing Tab

12,593 views 9 this week
3 commentsread comments
1 2 3 4 5
excellent!
x 4
Autoscroll
+/-
esc
set tempo
stop
Contributor
Difficulty
intermediate
WARNING: You are trying to view
                                    content from Ultimate-Guitar.com
                                    in an unauthorized application,
                                    which is prohibited.

                                    Please use an official Ultimate
                                    Guitar Tabs application for iPhone,
                                    iPad or Android to access legitimate
                                    chords, guitar, bass, and drum tabs
                                    from Ultimate-Guitar.com database.

                                    Type "ultimate guitar tabs" in Apple
                                    App Store's or Android Market's
                                    search to find the application.
#----------------------------------PLEASE NOTE---------------------------------#
#This file is the author's own work and represents their interpretation of the #
#song. You may only use this file for private study, scholarship, or research. #
#------------------------------------------------------------------------------#

SUN OF NOTHING
As recorded by Between the Buried and Me
(From the 2007 Album COLORS)

Transcribed by Paul Waggoner


Music by Dan Briggs, Blake Richardson, Tommy Rogers, Paul Waggoner, Dusty Waring

Gtr I (C# F# B E G# C#) - 'Untitled'
Gtr II (C# F# B E G# C#) - 'Untitled'
Gtr III (C# F# B E G# C#) - 'Untitled'
Gtr IV (C# F# B E G# C#) - 'Untitled'
Gtr V (C# F# B E G# C#) - 'Untitled'
Gtr VI (C# F# B E G# C#) - 'Untitled'
NOTE:  I did not make this tab.  DrPeppler made the PowerTab, I just converted it for 
without PoweTab.  So, real credit goes to DrPeppler for this amazing tab.

  Q=200
 4/4
  Gtrs I, II
  W          W          Q  Q  E E Q
|----------|----------|--------------|
|----------|----------|--------------|
|----------|----------|--------------|
|----------|----------|--------------|
|----------|----------|-3--6--7------|
|----------|----------|-2--2--3------|


       PM------------------|
    Q  E E E E E E   E E E E E E E E
||-----------------|-----------------|
||o----------------|-----------------|
||-----------------|---------2-5-----|
||-----------------|---5-4-------4---|
||o-2------6-------|-2-----3-------6-|
||--0--6-2---3-2-3-|-----------------|


    PM--|  ~~~                    PM|
  E E E E  Q    E  E    +Q   Q  E S S Q
|--------------------|--------------------||
|--------------------|-------------------o||
|--------------------|--------------------||
|------------------8-|--(8)--5--7-----7---||
|-7------------10-10-|-(10)--7--6-6-6-6--o||
|---6-5-6-[2]------9-|--(9)--6--5-5-5-5---||


                              PM        PM--|     PM------|   PM
  E E E E E E E E   Q  Q  E E Q      Q  E E E E E E   E E E E E E E E
|-----------------|--------------||-----------------|-----------------|
|-----------------|--------------||o----------------|-----------------|
|-----------------|--------------||-----------------|---------2-5-----|
|-----------------|-----------7--||-----------------|---5-4-------4---|
|-------6-------3-|-3--6--7---6--||o-2------6-------|-2-----3-------6-|
|-7-3-0---3-0-2---|-2--2--3---5--||--0--6-2---3-2-3-|-----------------|


    PM--|  ~~~                    PM|
  E E E E  Q    E  E    +Q   Q  E S S Q
|--------------------|--------------------||
|--------------------|-------------------o||
|--------------------|--------------------||
|------------------8-|--(8)--5--7-----7---||
|-7------------10-10-|-(10)--7--6-6-6-6--o||
|---6-5-6-[2]------9-|--(9)--6--5-5-5-5---||


  PM--------|       PM------|
  E E E E E E E E   E E E E E E E E
|-----------------|------------------|
|-----------------|------------------|
|-----------------|------------------|
|-----------------|------------------|
|-------6-------3-|-2-----2-1---1-4--|
|-7-3-0---3-0-2---|---4-3-----3------|


             PM----------------------------------|       PM             PM
    Q  Q  Q  E E   S S E S S E S S E E E   E E E E E E E E   E E E E Q  Q
||---------------|-----------------------|-----------------|----------------||
||o--------------|-----------------------|-----------------|---------------o||
||---------------|-----------------------|-----------------|----------------||
||---------------|-----------------------|-----------------|-2-1------------||
||o-5--0--1------|-2-2-2-------------4---|---5-----1-2-1---|-2p1-1-2-1--2--o||
||--7--1--0--4-1-|-------1-1-1-0-0-0---2-|-1---3-2-1h2p1-0-|-----1h2p1--2---||


             PM----------------------------------|       PM              ~~~
    Q  Q  Q  E E   S S E S S E S S E E E   E E E E E E E E   E E E E Q   Q
||---------------|-----------------------|-----------------|------------------||
||o--------------|-----------------------|-----------------|-----------------o||
||---------------|-----------------------|-----------------|------------------||
||---------------|-----------------------|-----------------|-2-1--------------||
||o-5--0--1------|-2-2-2-------------4---|---5-----1-2-1---|-2p1-1-2-1-------o||
||--7--1--0--4-1-|-------1-1-1-0-0-0---2-|-1---3-2-1h2p1-0-|-----1h2p1--[3]---||


  Q=200            Q=200
 3/4        3/8     3/4        3/8
             PM--|              PM--|
  Q  Q  Q    E E E   Q  Q  Q    E E E
|----------|-------|----------|-------|
|----------|-------|----------|-------|
|----------|-------|----------|-------|
|----------|-------|----------|-------|
|-5--0--1--|-1-2-1-|-5--0--1--|-1-2-1-|
|-7--1--0--|-3-4-3-|-7--1--0--|-3-4-3-|


  Q=150
 2/4         4/4
  Gtr I   Gtr I
  PM----------------------|       PM   PM--|             PM|
  E E E E     E E E E E E E E   E E Q  E E E  E    Q  Q  E E Q
|---------||------------------|------------------|--------------|
|---------||o-----------------|------------------|--------------|
|---------||----------------6-|-5----------------|--------------|
|---------||------------------|------------------|-----------2--|
|---2-1-2-||o---2-1---1-2---4-|-3---0--6-3-2-[3]-|-4--9--3---4--|
|-0-4-3-4-||--0-4-3-0-3-4-0---|---0-2--6-3-2-----|-1--7--1-0-4--|
|
|         Gtr II
|             PM----------|       PM   PM--|             PM|
|             E E E E E E E E   E E Q  E E E  E    Q  Q  E E Q
|---------||------------------|------------------|--------------|
|---------||o-----------------|------------------|--------------|
|---------||----------------6-|-5----------------|--------------|
|---------||------------------|------------------|-----------2--|
|---------||o---2-1---1-2---4-|-3---0--6-3-2-[3]-|-4--9--3---4--|
|---------||--0-4-3-0-3-4-0---|---0-2--6-3-2-----|-1--7--1-0-4--|


                    3/4                  4/4
                                          PM----------|       PM   PM--|
  Q   Q    E E  Q    Q  E E  E  E         E E E E E E E E   E E Q  E E E  E
|------------------|---------------||-||------------------|-------------------|
|------------------|--------------o||-||o-----------------|-------------------|
|------------------|---------------||-||----------------9-|-8-----------------|
|-3---9------8--8--|-5----7--7--4--||-||------------------|-------------------|
|-5--11--/10---10--|-7------------o||-||o---2-1---1-2---7-|-6---0--6-3-2-[3]--|
|-5--11---------9--|-6----5--5--2--||-||--0-4-3-0-3-4-0---|---0-2--6-3-2------|
|
|                                         PM----------|       PM   PM--|
| Q   Q    E E  Q    Q  E E  E  E         E E E E E E E E   E E Q  E E E  E
|------------------|---------------||-||------------------|-------------------|
|------------------|--------------o||-||o-----------------|-------------------|
|------------------|---------------||-||----------------6-|-5-----------------|
|-3---9------8--8--|-5----7-10-10--||-||------------------|-------------------|
|-5--11--/10---10--|-7------------o||-||o---2-1---1-2---4-|-3---0--6-3-2-[3]--|
|-5--11---------9--|-6----5--8--8--||-||--0-4-3-0-3-4-0---|---0-2--6-3-2------|


                                   3/4
        PM|                                          PM--------|
  Q  Q  E E Q    Q   Q    E E  Q    Q  E E  E  E     E E E E E E
|--------------|------------------|---------------||-------------|
|--------------|------------------|--------------o||-------------|
|--------------|------------------|---------------||-------------|
|-----------2--|-3---9------8--8--|-5----7--7--4--||-2-----2-1---|
|-4--9--3---4--|-5--11--/10---10--|-7------------o||-2-4-3-2-1-3-|
|-1--7--1-0-4--|-5--11---------9--|-6----5--5--2--||---4-3-----3-|
|
|       PM|                                          PM--------|
| Q  Q  E E Q    Q   Q    E E  Q    Q  E E  E  E     E E E E E E
|--------------|------------------|---------------||-------------|
|--------------|------------------|--------------o||-------------|
|--------------|------------------|---------------||-------------|
|-----------2--|-3---9------8--8--|-5----7-10-10--||-2-----2-1---|
|-4--9--3---4--|-5--11--/10---10--|-7------------o||-2-4-3-2-1-3-|
|-1--7--1-0-4--|-5--11---------9--|-6----5--8--8--||---4-3-----3-|


   4/4
    Gtrs I, II
                                                   PM
    W          +Q   H    Q    +Q    Q   H      E E E Q  E E E
||-----------|--------------|----------------|----------------|
||o----------|--------------|----------------|----------------|
||-----------|--------------|----------------|----------------|
||--2--------|-(2)--4----3--|-(3)--12--11----|-5-4---3--7-----|
||o-2--------|-(2)--6----5--|-(5)--10---9----|-3-2---3----6---|
||--0--------|-(0)--6----5--|-(5)--10---9----|-3-2-0-1------5-|


                              3/4             4/4
                 PM|           PM              PM--------------|
  H    H      Q  E E E E E E   E E E E E E  3x E E E E S S E E E
|-----------|----------------|--------------||--------------------|
|-----------|----------------|-------------o||--------------------|
|-----------|----------------|--------------||--------------------|
|-6----7----|-3------8-4-----|---7----------||--------------------|
|-4----5----|-3----6-----6---|-9---7-6-----o||-0-1-4-0-8-8-----5--|
|-6----5----|-1--4---------8-|---------6-9--||-0-1-4-0-----7-0-4--|


 2/4      4/4
  E E Q    W          +W
|--------|-5--------|-(5)----|
|--------|-5--------|-(5)----|
|--------|-5--------|-(5)----|
|-7------|-7--------|-(7)----|
|-7------|-7--------|-(7)----|
|-5------|-5--------|-(5)----|


   5/4
    Gtr III
    E E E E E E E  E  E E
||------------------------|
||o-3-3-3-6-6-6-6s=8--8-8-|
||--2-2-2-5-5-5-5s=7--7-7-|
||--0-0-0-0-0-0-0-(0)-0-0-|
||o-0-0-0-0-0-0-0-(0)-0-0-|
||------------------------|


  E  E   E  Q   E  E  E  E  E  3x E E E E E E E  E  E E
|------------------------------||------------------------|
|-8s11--11-10--10-10-10-10-10-o||-3-3-3-6-6-6-6s=8--8-8--|
|-7s10--10-10--10-10-10-10-10--||-2-2-2-5-5-5-5s=7--7-7--|
|-0-(0)--0--0---0--0--0--0--0--||-0-0-0-0-0-0-0-(0)-0-0--|
|-0-(0)--0--0---0--0--0--0--0-o||-0-0-0-0-0-0-0-(0)-0-0--|
|------------------------------||------------------------|


                Gtrs I, II
  W        +Q     E E E Q  E E E E E
|---------------|--------------------|
|-7--------(7)--|--------------------|
|-7--------(7)--|--------------------|
|-0--------(0)--|---7---7----7---7-7-|
|-0--------(0)--|---5---5----5---5-5-|
|---------------|---5---5----5---5-5-|


    E E E Q  E E  E   E   E     E   Q   E E E E E E E
||---------------------------|------------------------|
||o--------------------------|------------------------|
||--------------------0--(0)-|-(0)-(0)----------------|
||----7---7------------------|------------------------|
||o---5---5-------5--(5)-(5)-|----------5-------3-----|
||----5---5--5h6-(6)-(6)--6--|--0---4-----4-0-1---1-0-|


  E E E Q  E E  E   E   E     E   Q   E E E E E E E
|--------------------------|------------------------|
|--------------------------|------------------------|
|-------------------0--(0)-|-(0)-(0)----------------|
|---7---7------------------|------------------------|
|---5---5-------5--(5)-(5)-|----------5-------3-----|
|---5---5--5h6-(6)-(6)--6--|--0---4-----4-0-1---1-0-|


  |-3-|
  Q Q Q E E  E   E   E   E     Q.    E   E   E  E  E   Q
|----------------0--(0)-(0)-|-(0)--------------------------|
|--------------------0--(0)-|-(0)--------0--(0)-0-(0)--0---|
|------------5--(5)-(5)--5--|--------5--(5)--5-----2--(2)--|
|-7-7-7-6h7-(7)-(7)-(7)-(7)-|--4----(4)-(4)-(4)-1-(1)-(1)--|
|-5-5-5---------------------|------------------------------|
|-5-5-5---------------------|------------------------------|


  PM|
  E E Q  E E  E   E   E   E     Q.    E   E   E   E   E   Q
|-----------------0--(0)-(0)-|-(0)-------------------------------||
|---------------------0--(0)-|-(0)--------0--(0)-(0)-(0)--5-----o||
|-----2-------5--(5)-(5)--5--|--------5--(5)--5-------6--(6)-----||
|-2-2-2--6h7-(7)-(7)-(7)-(7)-|--4----(4)-(4)-(4)--5--(5)-(5)-----||
|-0-0-0----------------------|----------------------------------o||
|----------------------------|-----------------------------------||


   4/4
    PM------|     PM------|       PM------|     PM------|   PM
    S S S S S S E S S S S S S E   S S S S S S E S S S S S E S
||------------------------------|------------------------------|
||o-----------------------------|------------------------------|
||------------------------------|------------------------------|
||--7-7-7-7-7-----7-7-7-7-7-----|-7-7-7-7-7-----7-7-7-7-7---7--|
||o-5-5-5-5-5-----5-5-5-5-5-----|-5-5-5-5-5-----5-5-5-5-5---5--|
||--5-5-5-5-5-----5-5-5-5-5-----|-5-5-5-5-5-----5-5-5-5-5---5--|


  PM--------------|
  E E. S E E. S E E     H    H      H    H
|--------------------||-----------|-----------|
|-------------------o||-----------|-----------|
|--------------------||-----------|-----------|
|-7-7--7-7-7--7-7-7--||-7----6----|-5----3----|
|-5-5--5-5-5--5-5-5-o||-----------|------3----|
|-5-5--5-5-5--5-5-5--||-5----4----|-3----1----|


    Q=200
    |-3-| |-3-| |-3-| |-3-|   |-3-| |-3-| |-3-| |-3-|
    E E E E E E E E E E E E   E E E E E E E E E E E E
||--------------------------|-------------------------|
||o-------------------------|-------------------------|
||--------------------------|-------------------------|
||--7-7-7-3-3-3-8-8-8-3-3-3-|-7-7-7-3-3-3-8-8-8-3-3-3-|
||o-5-5-5-1-1-1-6-6-6-1-1-1-|-5-5-5-1-1-1-6-6-6-1-1-1-|
||--------------------------|-------------------------|


  |-3-| |-3-|  |--3--|  |--3--|    |--3--|  |--3--|  |--3--|  |--3--|
  E E E E E E  E  E  E  E  E  E    E  E  E  E  E  E  E  E  E  E  E  E
|-------------------------------|-----------------------------------------||
|-------------------------------|----------------------------------------o||
|-------------------------------|-----------------------------------------||
|-7-7-7-7-7-7-10-10-10-10-10-10-|-13-13-13-13-13-13-10-10-10-10-10-10-----||
|-5-5-5-5-5-5--8--8--8--8--8--8-|-11-11-11-11-11-11--8--8--8--8--8--8----o||
|-------------------------------|-----------------------------------------||


    Q  Q  Q  Q    Q  Q  Q  Q    S S S S S S S S  S  S  S  S  S  S  S  S
||--------------|-------------|-----------------------------------------|
||o-------------|-------------|-----------------------------------------|
||--------------|-------------|-----------------------------------------|
||--3S=7--3S=8--|-3S=7--3S=8--|-7-7-7-7-7-7-7-7-10-10-10-10-10-10-10-10-|
||o-1S=5--1S=6--|-1S=5--1S=6--|-5-5-5-5-5-5-5-5--8--8--8--8--8--8--8--8-|
||--------------|-------------|-----------------------------------------|


   S  S  S  S  S  S  S  S  S  S  S  S  S  S  S  S
|-----------------------------------------------------||
|----------------------------------------------------o||
|-----------------------------------------------------||
|-13-13-13-13-13-13-13-13-10-10-10-10-10-10-10-10-----||
|-11-11-11-11-11-11-11-11--8--8--8--8--8--8--8--8----o||
|-----------------------------------------------------||


  Gtr I
  E  E E  E  E  E  E  E    E  E  E  E  E  E  E  E
|-----------------------|-------------------------|
|-----------------------|-------------------------|
|---10---10----13----13-|----16----16----13----13-|
|-----------------------|-------------------------|
|-8----8----11----11----|-14----14----11----11----|
|-----------------------|-------------------------|
|
| Gtr II
| E  E E  E  E  E  E  E    E  E  E  E  E  E  E  E
|-----------------------|-------------------------|
|-----------------------|-------------------------|
|----7----7----10----10-|----13----13----10----10-|
|-----------------------|-------------------------|
|-5----5-----8-----8----|-11----11-----8-----8----|
|-----------------------|-------------------------|


  E  E E  E  E  E  E  E    E  E  E  E  E  E  E  E
|-----------------------|-------------------------|
|-----------------------|-------------------------|
|---10---10----13----13-|----16----16----13----13-|
|-----------------------|-------------------------|
|-8----8----11----11----|-14----14----11----11----|
|-----------------------|-------------------------|
|
| E  E E  E  E  E  E  E    E  E  E  E  E  E  E  E
|-----------------------|-------------------------|
|-----------------------|-------------------------|
|----7----7----10----10-|----13----13----10----10-|
|-----------------------|-------------------------|
|-5----5-----8-----8----|-11----11-----8-----8----|
|-----------------------|-------------------------|


    Gtr IV
    Q  Q  Q  Q    Q  Q  Q  Q           Q   Q   Q   Q     Q    Q   Q   Q   5x
||--------------|--------------||-||-------------------|------------------||
||o-------------|-------------o||-||o------------------|-----------------o||
||--------------|--------------||-||-------------------|------------------||
||-----3--6--3--|----3--6--3---||-||-------3---6---3---|------3---6---3---||
||o-5-----------|-5-----------o||-||o--5---------------|-5---------------o||
||--------------|--------------||-||-------------------|------------------||
|
|   Gtr V
|   Q  Q  Q  Q    Q  Q  Q  Q           Q   Q   Q   Q     Q    Q   Q   Q   5x
||--------------|--------------||-||-------------------|------------------||
||o-------------|-------------o||-||o------------------|-----------------o||
||--------------|--------------||-||-------------------|------------------||
||-----6--9--6--|----6--9--6---||-||-------6---9---6---|------6---9---6---||
||o-8-----------|-8-----------o||-||o--8---------------|-8---------------o||
||--------------|--------------||-||-------------------|------------------||
|
|   Gtr III
|                                      E E E E E E E E   E  E E E E E Q   5x
||--------------|--------------||-||-------------------|------------------||
||o-------------|-------------o||-||o-10---9---6-------|---10---9-6------o||
||--------------|--------------||-||---------------7---|------------------||
||--------------|--------------||-||-------------------|------------------||
||o-------------|-------------o||-||o------------------|-----------------o||
||--------------|--------------||-||-------------------|------------------||


                   Gtr I
                         |--3--|  |--3--|           |-3--| |-3--|
   Q   Q   Q   Q     Q   E  E  E  E  E  E  E E   Q  E E  E E  E E E E
|------------------|---------------------------|----------------------|
|------------------|---------------------------|----------------------|
|------------------|---------------------------|----------------------|
|------3---6---3---|-------------10------------|-----------7----------|
|--5---------------|----11-12-14----14-12-11---|----8-9-11---11-9-8---|
|------------------|---------------------------|----------------------|
|
|                  Gtr II
|                        |--3--|  |--3--|           |-3--| |-3--|
|  Q   Q   Q   Q     Q   E  E  E  E  E  E  E E   Q  E E  E E  E E E E
|------------------|---------------------------|----------------------|
|------------------|---------------------------|----------------------|
|------------------|--------------8------------|-----------5----------|
|------6---9---6---|-----9-10-12----12-10--9---|----6-7--9----9-7-6---|
|--8---------------|---------------------------|----------------------|
|------------------|---------------------------|----------------------|
|
|                  Gtr VI
|                        |--3--|  |--3--|           |-3--| |-3--|
|  E E E E E E E E   Q   E  E  E  E  E  E  E E   Q  E E  E E  E E E E
|------------------|---------------------------|----------------------|
|-10---9---6-------|---------------------------|----------------------|
|--------------7---|--------------4------------|----------------------|
|------------------|-----5--6--8-----8--6--5---|----------------------|
|------------------|---------------------------|-----------6----------|
|------------------|---------------------------|----7-8-10---10-8-7---|


              Q=150
               2/4          4/4
  Gtrs I, II
                             PM------|     PM------|
  Q  Q  Q  Q    +E  E Q      S S S S S S E S S S S S S E
|-------------|----------||------------------------------|
|-------------|----------||o-----------------------------|
|-------------|----------||------------------------------|
|-7-----------|----------||--7-7-7-7-7-----7-7-7-7-7-----|
|-5--8--7--5--|-(5)-8-6--||o-5-5-5-5-5-----5-5-5-5-5-----|
|----6--5--3--|-(3)-6-4--||--5-5-5-5-5-----5-5-5-5-5-----|


  PM------|     PM------|   PM------------------|
  S S S S S S E S S S S S E S   E E. S E E. S E E
|-----------------------------|--------------------||
|-----------------------------|-------------------o||
|-----------------------------|--------------------||
|-7-7-7-7-7-----7-7-7-7-7---7-|-7-7--7-7-7--7-7-7--||
|-5-5-5-5-5-----5-5-5-5-5---5-|-5-5--5-5-5--5-5-5-o||
|-5-5-5-5-5-----5-5-5-5-5---5-|-5-5--5-5-5--5-5-5--||


    PM------|     PM------|
    S S S S S S E S S S S S S E
||------------------------------|
||o-----------------------------|
||------------------------------|
||------------------------------|
||o-5-5-5-5-5-----5-5-5-5-5-----|
||--4-4-4-4-4-----4-4-4-4-4-----|


  PM------|     PM------|   PM------------------|
  S S S S S S E S S S S S E S   E E. S E E. S E E
|-----------------------------|--------------------||
|-----------------------------|-------------------o||
|-----------------------------|--------------------||
|-----------------------------|--------------------||
|-5-5-5-5-5-----5-5-5-5-5---5-|-5-5--5-5-5--5-5-5-o||
|-4-4-4-4-4-----4-4-4-4-4---4-|-4-4--4-4-4--4-4-4--||


 2/4       3/4
  Q  Q      E E  E E  E E   E E E  E E E   E E  E E E E   E E  E E E  E
|-------||----------------|--------------|--------------|-----------------||
|-------||o---------------|--------------|--------------|----------------o||
|-------||--------------9-|-----7--------|------------7-|----------9-10---||
|-------||------10--------|---9---10-7---|----------9---|---9-10-7--------||
|-5--2--||o---7------10---|-7----------7-|--------8-----|-7--------------o||
|-4--0--||--5------8------|--------------|-0-7-10-------|-----------------||


    Gtr I
    E E  E E  E  E   E E E  E E E   E E  E E E  E   E E  E E E  E
||-----------------|--------------|---------------|----------------||
||o------6------10-|-----6--5-----|-8-5--6---6-10-|------8-6-8-10-o||
||--5---------7----|---7------5---|--------7------|---7------------||
||----7----7-------|-5----------5-|---------------|-5--------------||
||o----------------|--------------|---------------|---------------o||
||-----------------|--------------|---------------|----------------||
|
|   Gtr II
|   E E  E E  E  E   E E E  E E E   E E  E E E  E   E E  E E E  E
||-----------------|--------------|---------------|----------------||
||o----------------|--------------|---------------|---------------o||
||---------------9-|-----7--------|-------------7-|----------9-10--||
||------10---------|---9---10-7---|----------9----|---9-10-7-------||
||o---7------10----|-7----------7-|--------8------|-7-------------o||
||--5------8-------|--------------|-0-7-10--------|----------------||


  Gtr I
  E E  E  E  E  E    E  E  E  E  E  E
|-----------------|-------------------|
|-----------------|-------------------|
|---------------9-|--------7----------|
|-----10----------|-----9----10--7----|
|---7-------10----|--7--------------7-|
|-5-------8-------|-------------------|
|
| Gtr II
| E E  E  E  E  E    E  E  E  E  E  E
|---8-12----------|-15-19-17----20-19-|
|--------10-13----|----------17-------|
|-9------------12-|-------------------|
|-----------------|-------------------|
|-----------------|-------------------|
|-----------------|-------------------|


                     3/4
                                     T
   E  E  E  E  E  E    S  S S S S S  S S E E    H.
|-------------------|------------------------|--------|
|-------------------|------------------------|--------|
|-----------------7-|------------------------|--------|
|--------------9----|-----------6h9-14p9p6h9s|=14-----|
|-----------8-------|---------7--------------|--------|
|--0--7-10----------|--0h=4h7----------------|--------|
|
|  E  E  E  E  E  E    S  S S S S S  S S E E    H.
|-------------------|-------------7-12p7---7S|=12-----|
|-17-15-18----------|-----------9--------9---|--------|
|----------14-16-13-|---------9--------------|--------|
|-------------------|-------9----------------|--------|
|-------------------|----11------------------|--------|
|-------------------|-12---------------------|--------|


  Q.=100
 6/8
   E   E  E  E  E  E    E   E  E  E  E  E
|--------------------|--------------------|
|-18--17-18----------|--------------------|
|--------------------|--------------------|
|-----------19-17-19-|-----------15-17-19-|
|--------------------|-15--17-19----------|
|--------------------|--------------------|
|
|  H.                   H.
|--------------------|--------------------|
|--------------------|--------------------|
|--------------------|--------------------|
|-10-----------------|--------------------|
|--8-----------------|--7-----------------|
|--------------------|--5-----------------|


   E   E  E  E  E  E    E   E  E  E  E  E
|--------------------|--------------------|
|--------------------|--------------------|
|-19--17-19----------|--------------------|
|-----------17-15-17-|-----------12-14-15-|
|--------------------|-12--14-15----------|
|--------------------|--------------------|
|
|  H.                   H.
|--------------------|--------------------|
|--------------------|--------------------|
|--------------------|--------------------|
|--7-----------------|--------------------|
|--5-----------------|--5-----------------|
|--------------------|--3-----------------|


   E   E  E  E  E  E    E   E  E  E   E  E
|--------------------|---------------------|
|--------------------|---------------------|
|-17--16-17----------|-----------16--13----|
|-----------14-12-14-|--------14--------14-|
|--------------------|-12--15--------------|
|--------------------|---------------------|
|
|  H.                   Q.        Q.
|--------------------|---------------------|
|--------------------|---------------------|
|--------------------|---------------------|
|--5-----------------|---------------------|
|--3-----------------|--3---------2--------|
|--------------------|--1---------0--------|
|
|                                          G
|--------------------|---------------------|
|--------------------|---------------------|
|--------------------|---------------------|
|--------------------|---------------------|
|--------------------|---------------------|
|--------------------|---------------------|


   Q    E  E  E  E    E   E  E  S  S  S  S  S  S
|------------------|-----------------------------|
|---------------13-|-----------------------13-15-|
|-14---13-14-16----|-16--14-13-14-13-14-16-------|
|------------------|-----------------------------|
|------------------|-----------------------------|
|------------------|-----------------------------|
|
|  H.                 H.
|------------------|-----------------------------|
|------------------|-----------------------------|
|------------------|-----------------------------|
|--2---------------|--2--------------------------|
|--0---------------|--0--------------------------|
|------------------|-----------------------------|
|
|tr VI
|  Q    E  E  E  E    E   E  E  S  S  S  S  S  S
|------------------|-----------------------------|
|---------------17-|-----------------------17-18-|
|-17---16-17-19----|-19--17-16-17-16-17-19-------|
|------------------|-----------------------------|
|------------------|-----------------------------|
|------------------|-----------------------------|


   S  S  S  S  S  S  S  S  S  S  S  S    H.
|----------------------------13-15-17-|-17------------------------|
|-17-15-13----------13-15-17----------|---------------------------|
|----------16-14-16-------------------|---------------------------|
|-------------------------------------|---------------------------|
|-------------------------------------|---------------------------|
|-------------------------------------|---------------------------|
|
|  Q           E     Q           E       S  S S S S S S S S S S S
|-------------------------------------|---------------------------|
|-------------------------------------|---------------------------|
|-------------------------------------|---------------------------|
|--2-----------2-----2-----------2----|--2--2-2-2-2-2-2-2-2-2-2-2-|
|--0-----------0-----0-----------0----|--0--0-0-0-0-0-0-0-0-0-0-0-|
|-------------------------------------|---------------------------|
|
|  S  S  S  S  S  S  S  S  S  S  S  S    H.
|----------------------------17-19-20-|-20------------------------|
|-20-18-17----------17-18-20----------|---------------------------|
|----------19-17-19-------------------|---------------------------|
|-------------------------------------|---------------------------|
|-------------------------------------|---------------------------|
|-------------------------------------|---------------------------|


   E     E     E      E      E     E       E    E    E    E    E    E
|---------------------------------------|-------------------------------|
|-18----17----18------------------------|-------------------------------|
|---------------------------------------|-------------------------------|
|--------------------19-----17----19----|----------------15---17---19---|
|---------------------------------------|-15---17---19------------------|
|---------------------------------------|-------------------------------|
|
|  S  S  S  S  S  S   S   S  S  S  S  S    S S  S S  S S  S S  S S  S S
|---------------------------------------|-------------------------------|
|---------------------------------------|-------------------------------|
|---------------------------------------|-------------------------------|
|-10-10-10-10-10-10--10--10-10-10-10-10-|-------------------------------|
|--8--8--8--8--8--8---8---8--8--8--8--8-|--7-7--7-7--7-7--7-7--7-7--7-7-|
|---------------------------------------|--5-5--5-5--5-5--5-5--5-5--5-5-|
|
|  E     E     E     +Q.                   E    E    E    E    E    E
|-17----15----17----(17)----------------|----------------17---19---20---|
|---------------------------------------|-17---18---20------------------|
|---------------------------------------|-------------------------------|
|---------------------------------------|-------------------------------|
|---------------------------------------|-------------------------------|
|---------------------------------------|-------------------------------|


   E    E    E     E     E    E      E    E    E    E    E    E
|---------------------------------|----------------------------------|
|---------------------------------|----------------------------------|
|-19---17---19--------------------|----------------------------------|
|-----------------17----15---17---|----------------12---14---15------|
|---------------------------------|-12---14---15---------------------|
|---------------------------------|----------------------------------|
|
|  S S  S S  S S   S  S  S S  S S    S S  S S  S S  S S  S S  S S
|---------------------------------|----------------------------------|
|---------------------------------|----------------------------------|
|---------------------------------|----------------------------------|
|--7-7--7-7--7-7---7--7--7-7--7-7-|----------------------------------|
|--5-5--5-5--5-5---5--5--5-5--5-5-|--5-5--5-5--5-5--5-5--5-5--5-5----|
|---------------------------------|--3-3--3-3--3-3--3-3--3-3--3-3----|
|
|  E    E    E    +Q.                E    E    E    E    E    E
|---------------------------------|----------------13---15---17------|
|-18---17---18---(18)-------------|-13---15---17---------------------|
|---------------------------------|----------------------------------|
|---------------------------------|----------------------------------|
|---------------------------------|----------------------------------|
|---------------------------------|----------------------------------|


   E    E    E     E     E    E      E    E    E    E    E    E
|---------------------------------|-------------------------------|
|---------------------------------|-------------------------------|
|-17---16---17--------------------|----------------16---13--------|
|-----------------14----12---14---|-----------14-------------14---|
|---------------------------------|-12---15-----------------------|
|---------------------------------|-------------------------------|
|
|  S S  S S  S S   S  S  S S  S S    S S  S S  S S  S S  S S  S S
|---------------------------------|-------------------------------|
|---------------------------------|-------------------------------|
|---------------------------------|-------------------------------|
|--5-5--5-5--5-5---5--5--5-5--5-5-|--3-3--3-3--3-3----------------|
|--3-3--3-3--3-3---3--3--3-3--3-3-|--1-1--1-1--1-1--2-2--2-2--2-2-|
|---------------------------------|-----------------0-0--0-0--0-0-|
|
|  E    E    E    +Q.                E    E    E    E    E    E
|---------------------------------|----------------19---16--------|
|-17---15---17---(17)-------------|-----------17-------------17---|
|---------------------------------|-17---12-----------------------|
|---------------------------------|-------------------------------|
|---------------------------------|-------------------------------|
|---------------------------------|-------------------------------|


                     2/4           3/8
   E  E  E  E  E  E    E  E  E  E    E  E  E
|-------------------|-------------|----------|
|-------------------|-------------|----------|
|-14-13----13-------|-------------|----------|
|-------15----15-14-|-15-14-12----|-14-12----|
|-------------------|----------15-|-------15-|
|-------------------|-------------|----------|
|
|  E  E  E  E  E  E    E  E  E  E    E  E  E
|-------------------|-------------|----------|
|-------------------|-------------|----------|
|-------------------|-------------|----------|
|--7--6-----6-------|-------------|----------|
|--------8-----8--7-|--8--7--5----|--7--5----|
|-------------------|-----------8-|--------8-|
|
|  E  E  E  E  E  E    E  E  E  E    E  E  E
|-17-16----16-------|-------------|----------|
|-------18----18-17-|-18-17-15----|-17-15----|
|-------------------|----------17-|-------17-|
|-------------------|-------------|----------|
|-------------------|-------------|----------|
|-------------------|-------------|----------|


 2/4           6/8                    3/4
   E  E  E  E    E  E  E  E  S  S  E    H     Q
|-------------|----------------------|------------|
|-------------|----------------------|------------|
|-------------|----------------------|------------|
|-12----------|----------------------|------------|
|----15-14-12-|-14-12-11-12-11-12-11-|-12----12\--|
|-------------|----------------------|------------|
|
|  E  E  E  E    E  E  E  E  S  S  E    H     Q
|-------------|----------------------|------------|
|-------------|----------------------|------------|
|-------------|----------------------|------------|
|-------------|----------------------|------------|
|--5----------|----------------------|------------|
|-----8--7--5-|--7--5--4--5--4--5--4-|--5-----5\--|
|
|  E  E  E  E    E  E  E  E  S  S  E    H     Q
|-------------|----------------------|------------|
|-15----------|----------------------|------------|
|----17-16-14-|-16-14-13-14-13-14-13-|-14----14\--|
|-------------|----------------------|------------|
|-------------|----------------------|------------|
|-------------|----------------------|------------|


             PM
  E  E E  Q  E   E E E E E E   E E E E E E   E E E E E E
|--------------|-------------|-------------|--------------|
|--------------|-------------|-------------|--------------|
|--------------|-------------|-------------|--------------|
|---10---10----|-------------|-------------|--------------|
|----7----7----|-------------|-----7---5-8-|-7---7--------|
|----5----5--0-|-1-0-4-5-1-0-|-4-5---7-----|---5---4-7-0--|
|
|            PM
| E  E E  Q  E   E E E E E E   E E E E E E   E E E E E E
|--------------|-------------|-------------|--------------|
|--------------|-------------|-------------|--------------|
|--------------|-------------|-------------|--------------|
|---10---10----|-------------|-------------|--------------|
|----7----7----|-------------|-----7---5-8-|-7---7--------|
|----5----5--0-|-1-0-4-5-1-0-|-4-5---7-----|---5---4-7-0--|


  PM         PM
  E  E E  Q  E   E E E E E E    E E E E S S E   E E E E  Q
|--------------|-------------|----------------|-------------|
|--------------|-------------|----------------|-------------|
|--------------|-------------|----------------|---------13--|
|---10---10----|-------------|-10-9-7-9-6-7-6-|---6---------|
|----7----7----|-------------|----------------|-8---8-7-11--|
|-0--5----5--0-|-1-0-4-5-0-4-|----------------|----------0--|
|
| PM         PM
| E  E E  Q  E   E E E E E E    E E E E S S E   E E E E  Q
|--------------|-------------|----------------|-------------|
|--------------|-------------|----------------|-------------|
|--------------|-------------|----------------|-------------|
|---10---10----|-------------|----------------|----------2--|
|----7----7----|-------------|----------------|----------2--|
|-0--5----5--0-|-1-0-4-5-0-4-|--8-7-5-7-4-5-4-|-1-4-1-0--0--|


             PM
  E  E E  Q  E   E E E E E E   E E E E E E   E E E E E E
|--------------|-------------|-------------|--------------|
|--------------|-------------|-------------|--------------|
|--------------|-------------|-------------|--------------|
|---10---10----|-------------|-------------|--------------|
|----7----7----|-------------|-----7---5-8-|-7---7--------|
|----5----5--0-|-1-0-4-5-1-0-|-4-5---7-----|---5---4-7-0--|
|
|            PM
| E  E E  Q  E   E E E E E E   E E E E E E   E E E E E E
|--------------|-------------|-------------|--------------|
|--------------|-------------|-------------|--------------|
|--------------|-------------|-------------|--------------|
|---10---10----|-------------|-------------|--------------|
|----7----7----|-------------|-----7---5-8-|-7---7--------|
|----5----5--0-|-1-0-4-5-1-0-|-4-5---7-----|---5---4-7-0--|


  PM         PM
  E  E E  Q  E   E E E E E E   E E E E E  E
|--------------|-------------|--------------|
|--------------|-------------|--------------|
|--------------|-------------|-------7-9-10-|
|---10---10----|-------------|---5-7--------|
|----7----7----|-------------|-5------------|
|-0--5----5--0-|-1-0-4-5-0-4-|--------------|
|
| PM         PM
| E  E E  Q  E   E E E E E E   E E E E E  E
|--------------|-------------|--------------|
|--------------|-------------|--------------|
|--------------|-------------|--------------|
|---10---10----|-------------|--------------|
|----7----7----|-------------|-5-----5-7--8-|
|-0--5----5--0-|-1-0-4-5-0-4-|---3-5--------|


   E  E  E  E  E  E    E  E  E  E  E  E
|--0--0--0--0--0--0-|--------------------|
|-10-10-10--8--8--8-|--8--8--8-10-10-10--|
|-10-10-10-10-10-10-|-10-10-10-10-10-10--|
|--0--0--0--0--0--0-|--0--0--0--0--0--0--|
|-------------------|--------------------|
|-------------------|--------------------|
|
|  E  E  E  E  E  E    E  E  E  E  E  E
|-------------------|--------------------|
|--6--6--6--5--5--5-|--5--5--5--6--6--6--|
|--7--7--7--7--7--7-|--7--7--7--7--7--7--|
|--7--7--7--7--7--7-|--7--7--7--7--7--7--|
|--5--5--5--5--5--5-|--5--5--5--5--5--5--|
|-------------------|--------------------|


                                                     PM
   E  E  E  E  E  E    E  E  E  E  E  E   E  E E  Q  E
|--0--0--0--0--0--0-|-------------------|--------------|
|-10-10-10--8--8--8-|--8--8--8-10-10-10-|--------------|
|-10-10-10-10-10-10-|-10-10-10-10-10-10-|--------------|
|--0--0--0--0--0--0-|--0--0--0--0--0--0-|---10---10----|
|-------------------|-------------------|----7----7----|
|-------------------|-------------------|----5----5--0-|
|
|                                                    PM
|  E  E  E  E  E  E    E  E  E  E  E  E   E  E E  Q  E
|-------------------|-------------------|--------------|
|--6--6--6--5--5--5-|--5--5--5--6--6--6-|--------------|
|--7--7--7--7--7--7-|--7--7--7--7--7--7-|--------------|
|--7--7--7--7--7--7-|--7--7--7--7--7--7-|---10---10----|
|--5--5--5--5--5--5-|--5--5--5--5--5--5-|----7----7----|
|-------------------|-------------------|----5----5--0-|


  E E E E E E   E E E E E E   E E E E E E
|-------------|-------------|-------------|
|-------------|-------------|-------------|
|-------------|-------------|-------------|
|-------------|-------------|-------------|
|-------------|-----7---5-8-|-7---7-------|
|-1-0-4-5-1-0-|-4-5---7-----|---5---4-7-0-|
|
| E E E E E E   E E E E E E   E E E E E E
|-------------|-------------|-------------|
|-------------|-------------|-------------|
|-------------|-------------|-------------|
|-------------|-------------|-------------|
|-------------|-----7---5-8-|-7---7-------|
|-1-0-4-5-1-0-|-4-5---7-----|---5---4-7-0-|


  PM         PM
  E  E E  Q  E   E E E E E E    E E E E S S E   E E E E  Q
|--------------|-------------|----------------|-------------|
|--------------|-------------|----------------|-------------|
|--------------|-------------|----------------|---------13--|
|---10---10----|-------------|-10-9-7-9-6-7-6-|---6---------|
|----7----7----|-------------|----------------|-8---8-7-11--|
|-0--5----5--0-|-1-0-4-5-0-4-|----------------|----------0--|
|
| PM         PM
| E  E E  Q  E   E E E E E E    E E E E S S E   E E E E  Q
|--------------|-------------|----------------|-------------|
|--------------|-------------|----------------|-------------|
|--------------|-------------|----------------|-------------|
|---10---10----|-------------|----------------|----------2--|
|----7----7----|-------------|----------------|----------2--|
|-0--5----5--0-|-1-0-4-5-0-4-|--8-7-5-7-4-5-4-|-1-4-1-0--0--|


             PM
  E  E E  Q  E   E E E E E E   E E E E E E   E E E E E E
|--------------|-------------|-------------|--------------|
|--------------|-------------|-------------|--------------|
|--------------|-------------|-------------|--------------|
|---10---10----|-------------|-------------|--------------|
|----7----7----|-------------|-----7---5-8-|-7---7--------|
|----5----5--0-|-1-0-4-5-1-0-|-4-5---7-----|---5---4-7-0--|
|
|            PM
| E  E E  Q  E   E E E E E E   E E E E E E   E E E E E E
|--------------|-------------|-------------|--------------|
|--------------|-------------|-------------|--------------|
|--------------|-------------|-------------|--------------|
|---10---10----|-------------|-------------|--------------|
|----7----7----|-------------|-----7---5-8-|-7---7--------|
|----5----5--0-|-1-0-4-5-1-0-|-4-5---7-----|---5---4-7-0--|


  PM         PM
  E  E E  Q  E   E E E E E E   E E E E E E   E E E E E  E
|--------------|-------------|-------------|---------------|
|--------------|-------------|-------------|---------------|
|--------------|-------------|-------------|-------7-9-10--|
|---10---10----|-------------|---------5-7-|---5-7---------|
|----7----7----|-------------|-5-----5-----|-5-------------|
|-0--5----5--0-|-1-0-4-5-0-4-|---3-5-------|---------------|
|
| PM         PM
| E  E E  Q  E   E E E E E E   E E E E E E   E E E E E  E
|--------------|-------------|-------------|---------------|
|--------------|-------------|-------------|---------------|
|--------------|-------------|-------------|-------7-9-10--|
|---10---10----|-------------|---------5-7-|---5-7---------|
|----7----7----|-------------|-5-----5-----|-5-------------|
|-0--5----5--0-|-1-0-4-5-0-4-|---3-5-------|---------------|


    Gtr III
     E  E  E  E  E  E    E  E  E  E  E  E
||---0--0--0--0--0--0-|-------------------|
||o-10-10-10--8--8--8-|--8--8--8-10-10-10-|
||--10-10-10-10-10-10-|-10-10-10-10-10-10-|
||---0--0--0--0--0--0-|--0--0--0--0--0--0-|
||o-------------------|-------------------|
||--------------------|-------------------|
|
|   Gtr III
|    E  E  E  E  E  E    E  E  E  E  E  E
||--------------------|-------------------|
||o-------------------|-------------------|
||--10-10-10-10-10-10-|-10-10-10-10-10-10-|
||---0--0--0--0--0--0-|--0--0--0--0--0--0-|
||o-------------------|-------------------|
||--------------------|-------------------|


   E  E  E  E  E  E    E  E  E  E  E  E
|--0--0--0--0--0--0-|-------------------|
|-10-10-10--8--8--8-|--8--8--8-10-10-10-|
|-10-10-10-10-10-10-|-10-10-10-10-10-10-|
|--0--0--0--0--0--0-|--0--0--0--0--0--0-|
|-------------------|-------------------|
|-------------------|-------------------|
|
|  E  E  E  E  E  E    E  E  E  E  E  E
|-------------------|-------------------|
|-------------------|-------------------|
|-10-10-10-10-10-10-|-10-10-10-10-10-10-|
|--0--0--0--0--0--0-|--0--0--0--0--0--0-|
|-------------------|-------------------|
|-------------------|-------------------|


  E E E E E E   E E E E E E   E E E E E E   E E E E E E
|-3-3-3-0-0-0-|-0-0-0-3-3-3-|-3-3-3-0-0-0-|-0-0-0-3-3-3---||
|-0-0-0-0-0-0-|-0-0-0-0-0-0-|-0-0-0-0-0-0-|-0-0-0-0-0-0--o||
|-5-5-5-5-5-5-|-5-5-5-5-5-5-|-5-5-5-5-5-5-|-5-5-5-5-5-5---||
|-------------|-------------|-------------|---------------||
|-------------|-------------|-------------|--------------o||
|-------------|-------------|-------------|---------------||
|
| E E E E E E   E E E E E E   E E E E E E   E E E E E E
|-------------|-------------|-------------|---------------||
|-------------|-------------|-------------|--------------o||
|-------------|-------------|-------------|---------------||
|-2-2-2-2-2-2-|-2-2-2-2-2-2-|-2-2-2-2-2-2-|-2-2-2-2-2-2---||
|-0-0-0-0-0-0-|-0-0-0-0-0-0-|-0-0-0-0-0-0-|-0-0-0-0-0-0--o||
|-------------|-------------|-------------|---------------||


    E E E E E E   E E E E E E   E E E E E E   E E E E E E
||--2-2-2-0-0-0-|-3-0-2-0-0-0-|-2-2-2-0-0-0-|-3-0-0-0-0-0--||
||o-1-1-1-1-1-1-|-1-1-1-1-3-1-|-1-1-1-1-1-1-|-1-1-3-3-3-3-o||
||--------------|-------------|-------------|--------------||
||--------------|-------------|-------------|--------------||
||o-------------|-------------|-------------|-------------o||
||--------------|-------------|-------------|--------------||
|
|   E E E E E E   E E E E E E   E E E E E E   E E E E E E
||--------------|-------------|-------------|--------------||
||o-------------|-------------|-------------|-------------o||
||--------------|-------------|-------------|--------------||
||--7-7-7-7-7-7-|-7-7-7-7-7-7-|-7-7-7-7-7-7-|-7-7-7-7-7-7--||
||o-0-0-0-0-0-0-|-0-0-0-0-0-0-|-0-0-0-0-0-0-|-0-0-0-0-0-0-o||
||--------------|-------------|-------------|--------------||


 7/4
  Gtr III
  E  E   E   E   E   E   E   E   E  Q   E E E
|---------------------------------------------|
|--------0--(0)--0--(0)-(0)--0--(0)(0)--3-1---|
|----5--(5)--5--(5)--5s==2--(2)--2s=4-------2-|
|-4-(4)-(4)-(4)-(4)-(4)-----------------------|
|---------------------------------------------|
|---------------------------------------------|


  E  E   E   E   E   E   E   E   E  Q   E  E   E
|---------------------------------------0-(0)-(0)-|
|--------0--(0)--0--(0)-(0)--0--(0)(0)-----0--(0)-|
|----5--(5)--5--(5)--5s==2--(2)--2s=4----------1--|
|-4-(4)-(4)-(4)-(4)-(4)---------------------------|
|-------------------------------------------------|
|-------------------------------------------------|


  E  E   E   E   E   E   E   E   E  Q   E E E
|---------------------------------------------|
|--------0--(0)--0--(0)-(0)--0--(0)(0)--3-1---|
|----5--(5)--5--(5)--5s==2--(2)--2s=4-------2-|
|-4-(4)-(4)-(4)-(4)-(4)-----------------------|
|---------------------------------------------|
|---------------------------------------------|


 5/4                                   4/4
  E  E   E   E   E   E   E   E   E  E   +W
|--------------------------------0--0-|-(0)----|
|--------0--(0)--0--(0)-(0)--0--(0)-0-|-(0)----|
|----5--(5)--5--(5)--5s==2--(2)-(2)-1-|-(1)----|
|-4-(4)-(4)-(4)-(4)-(4)---------------|--------|
|-------------------------------------|--------|
|-------------------------------------|--------|


   5/4
    E E E E E E E  E    E E E  E   E  Q   E  E  E  E  E  3x
||--------------------|----------------------------------||
||o-3-3-3-6-6-6-6s=8--|-8-8-8s11--11-10--10-10-10-10-10-o||
||--2-2-2-5-5-5-5s=7--|-7-7-7s10--10-10--10-10-10-10-10--||
||--0-0-0-0-0-0-0-(0)-|-0-0-0-(0)--0--0---0--0--0--0--0--||
||o-0-0-0-0-0-0-0-(0)-|-0-0-0-(0)--0--0---0--0--0--0--0-o||
||--------------------|----------------------------------||


                                   Q
                         4/4
  E E E E E E E  E  E E   W
|-----------------------|----------|
|-3-3-3-6-6-6-6s=8--8-8-|-7--------|
|-2-2-2-5-5-5-5s=7--7-7-|-7--------|
|-0-0-0-0-0-0-0-(0)-0-0-|-0--------|
|-0-0-0-0-0-0-0-(0)-0-0-|-0--------|
|-----------------------|----------|


 =120
  E  E   E   E  E  E   E   E     E   E    E    E  E  E   E   E
|-----------------------------|----------------------------------|
|--------7--(7)--------8--(8)-|-----------8---(8)--------7--(7)--|
|----7--(7)--7-----7--(7)--7--|------7---(7)---7-----6--(6)--6---|
|-7-(7)-(7)-(7)-9-(9)-(9)-(9)-|-10-(10)-(10)-(10)-8-(8)-(8)-(8)--|
|-----------------------------|----------------------------------|
|-----------------------------|----------------------------------|


  E  E   E   E   E   E    E    E     E   E    E    E  E  E   E   E    W
|---------------------------------|---------------------------------|------|
|--------7--(7)----------10--(10)-|-----------8---(8)--------8--(8)-|-8----|
|----7--(7)--7-------9---(9)---9--|------9---(9)---9-----9--(9)--9--|-9----|
|-9-(9)-(9)-(9)-11-(11)-(11)-(11)-|-11-(11)-(11)-(11)-8-(8)-(8)-(8)-|-8----|
|---------------------------------|---------------------------------|------|
|---------------------------------|---------------------------------|------|


  Gtr III
   E  S  S   E   E.      S S S E S S    E  S S E  E.      S S S E  S S
|--2--2--2---2---2-------2-2-2-2-2-2-|--2--2-2-2--2-------2-2-2-2--2-2-|
|--2--2--2---2---2-------2-2-2-2-2-2-|--2--2-2-2--2-------2-2-2-2--2-2-|
|--2--2--2---2---2-------2-2-2-2-2-2-|--2--2-2-2--2-------2-2-2-2--2-2-|
|--0--0--0---0---0-------0-0-0-0-0-0-|--0--0-0-0--0-------0-0-0-0--0-0-|
|--0--0--0---0---0-------0-0-0-0-0-0-|--0--0-0-0--0-------0-0-0-0--0-0-|
|------------------------------------|---------------------------------|
|
| Gtr III
|  E.    S  +E   E   +H                 Q.        E   +Q.          E
|------------------------------------|---------------------------------|
|-14----15-(15)----------------------|---------------------------------|
|---------------14--(14)-------------|-----------14--(14)---------16---|
|------------------------------------|-16------------------------------|
|------------------------------------|---------------------------------|
|------------------------------------|---------------------------------|


   E  S  S   E  E. S S S E S S    E  S S E  E.      S S S E  S S
|--0--0--0---0--0--0-0-0-0-0-0-|--0--0-0-0--0-------0-0-0-0--0-0-|
|--0--0--0---0--0--0-0-0-0-0-0-|--0--0-0-0--0-------0-0-0-0--0-0-|
|--6--6--6---6--6--6-6-6-6-6-6-|--6--6-6-6--6-------6-6-6-6--6-6-|
|--7--7--7---7--7--7-7-7-7-7-7-|--7--7-7-7--7-------7-7-7-7--7-7-|
|--0--0--0---0--0--0-0-0-0-0-0-|--0--0-0-0--0-------0-0-0-0--0-0-|
|------------------------------|---------------------------------|
|
|  E.    S  +H.                   Q.        E   +Q.          E
|------------------------------|---------------------------------|
|------------------------------|---------------------------------|
|-13---------------------------|----------------------------16---|
|-------14-(14)----------------|-11--------14--(14)--------------|
|------------------------------|---------------------------------|
|------------------------------|---------------------------------|


   E  S  S   E   E.      S S S E S S    E  S S E  E.      S S S E  S S
|--2--2--2---2---2-------2-2-2-2-2-2-|--2--2-2-2--2-------2-2-2-2--2-2-|
|--2--2--2---2---2-------2-2-2-2-2-2-|--2--2-2-2--2-------2-2-2-2--2-2-|
|--2--2--2---2---2-------2-2-2-2-2-2-|--2--2-2-2--2-------2-2-2-2--2-2-|
|--0--0--0---0---0-------0-0-0-0-0-0-|--0--0-0-0--0-------0-0-0-0--0-0-|
|--0--0--0---0---0-------0-0-0-0-0-0-|--0--0-0-0--0-------0-0-0-0--0-0-|
|------------------------------------|---------------------------------|
|
|  E.    S  +E   E   +H                 Q.        E   +Q.          E
|------------------------------------|---------------------------------|
|-14----15-(15)----------------------|---------------------------------|
|---------------14--(14)-------------|-----------14--(14)---------16---|
|------------------------------------|-16------------------------------|
|------------------------------------|---------------------------------|
|------------------------------------|---------------------------------|


   E  S  S   E  E. S S S E S S    E  S S E  E.      S S S E  S S
|--0--0--0---0--0--0-0-0-0-0-0-|--0--0-0-0--0-------0-0-0-0--0-0-|
|--0--0--0---0--0--0-0-0-0-0-0-|--0--0-0-0--0-------0-0-0-0--0-0-|
|--6--6--6---6--6--6-6-6-6-6-6-|--6--6-6-6--6-------6-6-6-6--6-6-|
|--7--7--7---7--7--7-7-7-7-7-7-|--7--7-7-7--7-------7-7-7-7--7-7-|
|--0--0--0---0--0--0-0-0-0-0-0-|--0--0-0-0--0-------0-0-0-0--0-0-|
|------------------------------|---------------------------------|
|
|  E.    S  +H.                   Q.        E   +Q.          E
|------------------------------|---------------------------------|
|------------------------------|---------------------------------|
|-13---------------------------|----------------------------14---|
|-------14-(14)----------------|-11--------14--(14)--------------|
|------------------------------|---------------------------------|
|------------------------------|---------------------------------|


   E  S S E E. S S S  E  S S    E  S  S   E  E. S S S   E   S S
|--2--2-2-2-2--2-2-2--2--2-2-|--2--2--2---2--2--2-2-2---2---2-2-|
|--3--3-3-3-3--3-3-3--3--3-3-|--3--3--3---3--3--3-3-3---3---3-3-|
|--0--0-0-0-0--0-0-0--0--0-0-|--0--0--0---0--0--0-0-0---0---0-0-|
|--0--0-0-0-0--0-0-0--0--0-0-|--0--0--0---0--0--0-0-0---0---0-0-|
|----------------------------|----------------------------------|
|--3--3-3-3-3--3-3-3--3--3-3-|--3--3--3---3--3--3-3-3---3---3-3-|
|
|  H.                 E  E      E.    S  +H            +E   E
|----------------------------|----------------------------------|
|--------------------14-15---|-14-------------------------------|
|-16-------------------------|-------14-(14)----------(14)-16---|
|----------------------------|----------------------------------|
|----------------------------|----------------------------------|
|----------------------------|----------------------------------|


   E  S  S   E   E.      S S S E S S     E  S S E E. S S S   E   S S
|--2--2--2---2---2-------2-2-2-2-2-2-|---2--2-2-2-2--2-2-2---2---2-2---|
|--2--2--2---2---2-------2-2-2-2-2-2-|---2--2-2-2-2--2-2-2---2---2-2---|
|--2--2--2---2---2-------2-2-2-2-2-2-|---2--2-2-2-2--2-2-2---2---2-2---|
|--0--0--0---0---0-------0-0-0-0-0-0-|---0--0-0-0-0--0-0-0---0---0-0---|
|--0--0--0---0---0-------0-0-0-0-0-0-|---0--0-0-0-0--0-0-0---0---0-0---|
|------------------------------------|---------------------------------|
|
|  E.    S  +E   E   +H                 +H.                 +E   E
|------------------------------------|---------------------------------|
|------------------------------------|---------------------------------|
|---------------14--(14)-------------|-(14)----------------(14)-16-----|
|-14----11-(11)----------------------|---------------------------------|
|------------------------------------|---------------------------------|
|------------------------------------|---------------------------------|


   E  S  S   E   E.      S S S E S S    E  S S E  E.      S S S E  S S
|--2--2--2---2---2-------2-2-2-2-2-2-|--2--2-2-2--2-------2-2-2-2--2-2-|
|--2--2--2---2---2-------2-2-2-2-2-2-|--2--2-2-2--2-------2-2-2-2--2-2-|
|--2--2--2---2---2-------2-2-2-2-2-2-|--2--2-2-2--2-------2-2-2-2--2-2-|
|--0--0--0---0---0-------0-0-0-0-0-0-|--0--0-0-0--0-------0-0-0-0--0-0-|
|--0--0--0---0---0-------0-0-0-0-0-0-|--0--0-0-0--0-------0-0-0-0--0-0-|
|------------------------------------|---------------------------------|
|
|  E.    S  +E   E   +H                 Q.        E   +Q.          E
|------------------------------------|---------------------------------|
|-14----15-(15)----------------------|---------------------------------|
|---------------14--(14)-------------|-----------14--(14)---------16---|
|------------------------------------|-16------------------------------|
|------------------------------------|---------------------------------|
|------------------------------------|---------------------------------|


   E  S  S   E  E. S S S E S S    E  S S E  E.      S S S E  S S
|--0--0--0---0--0--0-0-0-0-0-0-|--0--0-0-0--0-------0-0-0-0--0-0-|
|--0--0--0---0--0--0-0-0-0-0-0-|--0--0-0-0--0-------0-0-0-0--0-0-|
|--6--6--6---6--6--6-6-6-6-6-6-|--6--6-6-6--6-------6-6-6-6--6-6-|
|--7--7--7---7--7--7-7-7-7-7-7-|--7--7-7-7--7-------7-7-7-7--7-7-|
|--0--0--0---0--0--0-0-0-0-0-0-|--0--0-0-0--0-------0-0-0-0--0-0-|
|------------------------------|---------------------------------|
|
|  E.    S  +H.                   Q.        E   +Q.          E
|------------------------------|---------------------------------|
|------------------------------|---------------------------------|
|-13---------------------------|----------------------------16---|
|-------14-(14)----------------|-11--------14--(14)--------------|
|------------------------------|---------------------------------|
|------------------------------|---------------------------------|


   E  S  S   E   E.      S S S E S S    E  S S E  E.      S S S E  S S
|--2--2--2---2---2-------2-2-2-2-2-2-|--2--2-2-2--2-------2-2-2-2--2-2-|
|--2--2--2---2---2-------2-2-2-2-2-2-|--2--2-2-2--2-------2-2-2-2--2-2-|
|--2--2--2---2---2-------2-2-2-2-2-2-|--2--2-2-2--2-------2-2-2-2--2-2-|
|--0--0--0---0---0-------0-0-0-0-0-0-|--0--0-0-0--0-------0-0-0-0--0-0-|
|--0--0--0---0---0-------0-0-0-0-0-0-|--0--0-0-0--0-------0-0-0-0--0-0-|
|------------------------------------|---------------------------------|
|
|  E.    S  +E   E   +H                 Q.        E   +Q.          E
|------------------------------------|---------------------------------|
|-14----15-(15)----------------------|---------------------------------|
|---------------14--(14)-------------|-----------14--(14)---------16---|
|------------------------------------|-16------------------------------|
|------------------------------------|---------------------------------|
|------------------------------------|---------------------------------|


   E  S  S   E  E. S S S E S S    E  S S E  E.      S S S E  S S
|--0--0--0---0--0--0-0-0-0-0-0-|--0--0-0-0--0-------0-0-0-0--0-0-|
|--0--0--0---0--0--0-0-0-0-0-0-|--0--0-0-0--0-------0-0-0-0--0-0-|
|--6--6--6---6--6--6-6-6-6-6-6-|--6--6-6-6--6-------6-6-6-6--6-6-|
|--7--7--7---7--7--7-7-7-7-7-7-|--7--7-7-7--7-------7-7-7-7--7-7-|
|--0--0--0---0--0--0-0-0-0-0-0-|--0--0-0-0--0-------0-0-0-0--0-0-|
|------------------------------|---------------------------------|
|
|  E.    S  +H.                   Q.        E   +Q.          E
|------------------------------|---------------------------------|
|------------------------------|---------------------------------|
|-13---------------------------|----------------------------14---|
|-------14-(14)----------------|-11--------14--(14)--------------|
|------------------------------|---------------------------------|
|------------------------------|---------------------------------|


   E  S S E E. S S S  E  S S    E  S  S   E  E. S S S E S S
|--2--2-2-2-2--2-2-2--2--2-2-|--2--2--2---2--2--2-2-2-2-2-2-|
|--3--3-3-3-3--3-3-3--3--3-3-|--3--3--3---3--3--3-3-3-3-3-3-|
|--0--0-0-0-0--0-0-0--0--0-0-|--0--0--0---0--0--0-0-0-0-0-0-|
|--0--0-0-0-0--0-0-0--0--0-0-|--0--0--0---0--0--0-0-0-0-0-0-|
|----------------------------|------------------------------|
|--3--3-3-3-3--3-3-3--3--3-3-|--3--3--3---3--3--3-3-3-3-3-3-|
|
|  H.                 E  E      E.    S  +H.
|----------------------------|------------------------------|
|--------------------14-15---|-14---------------------------|
|-16-------------------------|-------14-(14)----------------|
|----------------------------|------------------------------|
|----------------------------|------------------------------|
|----------------------------|------------------------------|


   E E E E  E E E E    E  E  E  E E E E E
|--0-0-0-0--0-0-0-0-|--0--0--0--0-0-0-0-0-|
|--0-0-0-0--0-0-0-0-|--0--0--0--0-0-0-0-0-|
|-----------8-8-8-8-|-------------8-8-8-8-|
|--9-9-9-9--9-9-9-9-|-11-11-11-11-9-9-9-9-|
|--9-9-9-9--9-9-9-9-|--9--9--9--9-9-9-9-9-|
|--7-7-7-7--7-7-7-7-|--7--7--7--7-7-7-7-7-|
|
|  H        H          H          H
|-------------------|---------------------|
|-------------------|---------------------|
|-------------------|---------------------|
|-14-------13-------|-11----------9-------|
|-------------------|---------------------|
|-------------------|---------------------|


   E E E E  E E E E    H     H
|--0-0-0-0--0-0-0-0-|--0-----0----|-----------|------------|
|--0-0-0-0--0-0-0-0-|--0-----8----|-----------|------------|
|--7-7-7-7--6-6-6-6-|--9-----6----|-----------|------------|
|--7-7-7-7--7-7-7-7-|--7-----5----|-----------|------------|
|--5-5-5-5--5-5-5-5-|--5-----4----|-----------|------------|
|-------------------|-------------|-----------|------------|
|
|  H        H          H     H      H    H       H    H
|-------------------|-------------|-----------|------------|
|-------------------|-------------|-7----8----|--8----7----|
|-------------------|-------------|-7----9----|--7----6----|
|-12-------11-------|-14----17----|-7----9----|-10----8----|
|-------------------|-------------|-----------|------------|
|-------------------|-------------|-----------|------------|


    E  E   E   E   E   E   E   E    E  E   E   E   E   E   E   E
||--------------------------------|-------------------------------|
||o----------------7--(7)-(7)-(7)-|-------------------------------|
||-------------7--(7)--7--(7)-(7)-|----------------7--(7)-(7)-(7)-|
||---------9--(9)-(9)-(9)--9--(9)-|--------8--(8)-(8)--8--(8)-(8)-|
||o----9--(9)-(9)-(9)-(9)-(9)--9--|----9--(9)--9--(9)-(9)--9--(9)-|
||--7-(7)-(7)-(7)-(7)-(7)-(7)-(7)-|-6-(6)-(6)-(6)-(6)-(6)-(6)--6--|
|
|   W                               W
||--------------------------------|-------------------------------|
||o-------------------------------|-------------------------------|
||--------------------------------|-------------------------------|
||--9-----------------------------|-8-----------------------------|
||o-9-----------------------------|-9-----------------------------|
||--7-----------------------------|-6-----------------------------|


  E  E   E   E   E   E   E   E    E  E   E   E  +H
|----------------0--(0)-(0)-(0)-|------------4--(4)----|
|------------3--(3)--3--(3)-(3)-|--------7--(7)-(7)----|
|--------2--(2)-(2)-(2)--2--(2)-|----7--(7)-(7)-(7)----|
|----4--(4)-(4)-(4)-(4)-(4)--4--|-6-(6)-(6)-(6)-(6)----|
|-0-(0)-(0)-(0)-(0)-(0)-(0)-(0)-|----------------------|
|-------------------------------|----------------------|
|
| W                               W
|-------------------------------|----------------------|
|-------------------------------|----------------------|
|-------------------------------|----------------------|
|-7-----------------------------|-6--------------------|
|-9-----------------------------|-5--------------------|
|-5-----------------------------|-4--------------------|


  E  E   E   E   E   E   E   E    E  E   E   E   S   S   E   E   E
|----------------5--(5)-(5)-(5)-|----------------0h==2p==0--(0)-(0)-|
|--------7--(7)-(7)--7--(7)-(7)-|--------3--(3)-(3)-(3)-(3)--3--(3)-|
|----7--(7)--7--(7)-(7)--7--(7)-|----2--(2)--2--(2)-(2)-(2)-(2)--2--|
|-5-(5)-(5)-(5)-(5)-(5)-(5)--5--|-0-(0)-(0)-(0)-(0)-(0)-(0)-(0)-(0)-|
|-------------------------------|---------------
3 comments total.
0 reply
guitarguru134 wrote on February 11 2010, 02:29 pm

This is really good mayne! 5 Stars.

The only complaint/suggestion I have is to maybe add the lyrics for reference where each part is at. Maybe add bits like "0.00 sec - 0.30 sec" and then the tab or lyric excerpts. Good job though.

0 reply
August_Burns wrote on February 18 2010, 03:59 am

Great tab, but jesus put some point of reference to lyrics or time. confusing as hell.

0 reply
actsch4v12 wrote on March 12 2014, 08:55 pm, edited at 08:55 pm

what happened to the rest of this tab? It was cut off half way through

I want to post or [tab]
guest
You may want to rate the tab now too:
select rating
Please do not post tabs as comments. Select "correction" instead!