Oops, an error
Loading. Please wait.

White Walls Tab

ver1
ver1

Whole song

Interactive

More versions @911Tabs.com
32,422 views 48 this week
4 commentsread comments
1 2 3 4 5
excellent!
x 11
Autoscroll
+/-
esc
set tempo
stop
Contributor
Difficulty
intermediate
Hey! There's an official Ultimate Guitar app which is ideal
for learning songs when you're away from computer. Get the app
WARNING: You are trying to view
                                    content from Ultimate-Guitar.com
                                    in an unauthorized application,
                                    which is prohibited.

                                    Please use an official Ultimate
                                    Guitar Tabs application for iPhone,
                                    iPad or Android to access legitimate
                                    chords, guitar, bass, and drum tabs
                                    from Ultimate-Guitar.com database.

                                    Type "ultimate guitar tabs" in Apple
                                    App Store's or Android Market's
                                    search to find the application.
#----------------------------------PLEASE NOTE---------------------------------#
#This file is the author's own work and represents their interpretation of the #
#song. You may only use this file for private study, scholarship, or research. #
#------------------------------------------------------------------------------#

WHITE WALLS
As recorded by Between the Buried and Me
(From the 2007 Album COLORS)


Music by Dan Briggs, Blake Richardson, Tommy Rogers, Paul Waggoner, and Dustie Waring

C#m
0 2 2 0 0 0

Amaj7
x 3 2 0 0 0

F#sus2
x 0 2 2 0 0

Gtr I (C# F# B E G# C#) - 'Untitled'
Gtr II (C# F# B E G# C#) - 'Untitled'
Gtr III (C# F# B E G# C#) - 'Untitled'
Gtr IV (C# F# B E G# C#) - 'Untitled'
Gtr V (C# F# B E G# C#) - 'Untitled'
Gtr VI (C# F# B E G# C#) - 'Untitled'
All credit goes to HorsesInTheSky for making the original file.  I just converted it to 
for people that dont have power tab.
    Q=135
   6/4
    Gtr I
    PM-------------------------------------------------------------|
    S S  S  S S S  S  S  S  S  S  S S S  S  S  S  S  S  S  S  S  S  S
||--------------------------------------------------------------------|
||o-------------------------------------------------------------------|
||--------------------------------------------------------------------|
||--------------------------------------------------------------------|
||o---------------------12-12-----------------14-14-------------------|
||--0-0-12-12-0-0-10-10-------12-12-0-0-12-12-------12-12-10-10-12-12-|
|
|   Gtr II
|   PM----------------------------------------------------|
|   E    E    E    E     E     E    E    E     E     E     E     E
||--------------------------------------------------------------------|
||o-------------------------------------------------------------------|
||--------------------------------------------------------------------|
||--2---------2----------------2----2----------------2-----2----------|
||o-2---------2----------------2----2----------------2-----2----------|
||--0---------0----------------0----0----------------0-----0----------|


 5/4
  PM---------------------------------------------------|
  S S  S  S S S  S  S  S  S  S  S  S  S  S  S  S  S  S  S  3x
|----------------------------------------------------------||
|---------------------------------------------------------o||
|----------------------------------------------------------||
|----------------------------------------------------------||
|---------------------12-12-------14-14-------------------o||
|-0-0-12-12-0-0-10-10-------12-12-------12-12-10-10-12-12--||
|
| PM------------------------------------------------|
| E    E    E    E     E     E     E     E     E     E     3x
|----------------------------------------------------------||
|---------------------------------------------------------o||
|----------------------------------------------------------||
|-2---------2----------------2-----2-----------2-----2-----||
|-2---------2----------------2-----2-----------2-----2----o||
|-0---------0----------------0-----0-----------0-----0-----||


 6/4
  PM-------------------------------------------------------------|
  S S  S  S S S  S  S  S  S  S  S S S  S  S  S  S  S  S  S  S  S  S
|-------------------------------------------------------------------|
|-------------------------------------------------------------------|
|-------------------------------------------------------------------|
|-------------------------------------------------------------------|
|---------------------12-12-----------------14-14-------------------|
|-0-0-12-12-0-0-10-10-------12-12-0-0-12-12-------12-12-10-10-12-12-|
|
| PM----------------------------------------------------|
| E    E    E    E     E     E    E    E     E     E     E     E
|-------------------------------------------------------------------|
|-------------------------------------------------------------------|
|-------------------------------------------------------------------|
|-2---------2----------------2----2----------------2-----2----------|
|-2---------2----------------2----2----------------2-----2----------|
|-0---------0----------------0----0----------------0-----0----------|


  PM---------------------------------------|
  S S  S  S S S  S  S  S  S  S  S  S  S  S  S  E  E  E  E
|---------------------------------------------------------|
|---------------------------------------------------------|
|---------------------------------------------------------|
|---------------------------14-14-------14-14-------------|
|---------------------12-12-------14-14-------14-12-------|
|-0-0-12-12-0-0-10-10-------------------------------15-14-|
|
| PM------------------------------------|
| E    E    E    E     E     E     E     E     E  E  E  E
|---------------------------------------------------------|
|---------------------------------------------------------|
|---------------------------------------------------------|
|-2---------2----------------2-----2-----------5--4-------|
|-2---------2----------------2-----2-----------------7--5-|
|-0---------0----------------0-----0----------------------|


 7/4                              2/4       5/8
  Gtrs I, II
  E E E E +Q   E E E E +E  E E E   E E E E   E E E E E
|--------------------------------|---------|-----------|
|--------------------------------|---------|-----------|
|--------------------------------|---------|-----------|
|-------9-(9)------5-------------|---------|-----5---4-|
|-----7--------0-3---5-(5)-------|-------9-|-0-3---5---|
|-0-0----------------------5-3-2-|-0-0-7---|-----------|


 7/4                              2/4       4/4
  Gtr I
  E E E E +Q   E E E E +E  E E E   E E E E   E E E E E  E  E  E
|--------------------------------|---------|--------------------|
|--------------------------------|---------|--------------------|
|--------------------------------|---------|---------------9--7-|
|-------9-(9)------5-------------|-------9-|-----5---4--7-------|
|-----7--------0-3---5-(5)-------|-----7---|-0-3---5------------|
|-0-0----------------------5-3-2-|-0-0-----|--------------------|
|
| Gtr II
| E E E E +Q   E E E E +E  E E E   E E E E   E E E E E  E  E  E
|--------------------------------|---------|--------------------|
|--------------------------------|---------|--------------------|
|--------------------------------|---------|--------------12-11-|
|-------9-(9)------5-------------|-------9-|-----5---4-10-------|
|-----7--------0-3---5-(5)-------|-----7---|-0-3---5------------|
|-0-0----------------------5-3-2-|-0-0-----|--------------------|


 7/4                              2/4       5/8
  Gtrs I, II
  E E E E +Q   E E E E +E  E E E   E E E E   E E E E E
|--------------------------------|---------|-----------|
|--------------------------------|---------|-----------|
|--------------------------------|---------|-----------|
|-------9-(9)------5-------------|---------|-----5---4-|
|-----7--------0-3---5-(5)-------|-------9-|-0-3---5---|
|-0-0----------------------5-3-2-|-0-0-7---|-----------|


 7/4                              2/4       4/4
  Gtr I
  E E E E +Q   E E E E +E  E E E   E E E E   E E E E E  E  E  E
|--------------------------------|---------|--------------------|
|--------------------------------|---------|--------------------|
|--------------------------------|---------|---------------9--7-|
|-------9-(9)------5-------------|-------9-|-----5---4--7-------|
|-----7--------0-3---5-(5)-------|-----7---|-0-3---5------------|
|-0-0----------------------5-3-2-|-0-0-----|--------------------|
|
| Gtr II
| E E E E +Q   E E E E +E  E E E   E E E E   E E E E E  E  E  E
|--------------------------------|---------|--------------------|
|--------------------------------|---------|--------------------|
|--------------------------------|---------|--------------12-11-|
|-------9-(9)------5-------------|-------9-|-----5---4-10-------|
|-----7--------0-3---5-(5)-------|-----7---|-0-3---5------------|
|-0-0----------------------5-3-2-|-0-0-----|--------------------|


  Q=200
  Gtrs I, II
  PM--|             PM--|                 PM--|
  E E E E E E E E   E E E  E  E  E  E E   E E E E E E E E   E E E E E E E E
|-----------------|---------------------|-----------------|-----------------|
|-----------------|---------------------|-----------------|-----------------|
|-------9-9-9-9-7-|--------7--7--7--7-7-|-------9-9-9-9-7-|-----------------|
|-------9-9-9-9-7-|-------10-10-10-10-7-|-------9-9-9-9-7-|-----------------|
|-------7-7-7-7-7-|--------7--7--7--7-7-|-------7-7-7-7-7-|-2-2-2-2-2-2-2-2-|
|-0-0-0-----------|-0-0-0---------------|-0-0-0-----------|-0-0-0-0-0-0-0-0-|


  PM--|             PM--|                 PM--|
  E E E E E E E E   E E E  E  E  E  E E   E E E E E E E E   E E E E  E E E  E
|-----------------|---------------------|-----------------|-------------------|
|-----------------|---------------------|-----------------|----------------11-|
|-------9-9-9-9-7-|--------7--7--7--7-7-|-------9-9-9-9-7-|-9------------9----|
|-------9-9-9-9-7-|-------10-10-10-10-7-|-------9-9-9-9-7-|---9--------8------|
|-------7-7-7-7-7-|--------7--7--7--7-7-|-------7-7-7-7-7-|-----7-9-10--------|
|-0-0-0-----------|-0-0-0---------------|-0-0-0-----------|-------------------|


                       3/4                                4/4
                      Gtr I
   E E S S S S E E Q    E E  E E E  E    E E  E  E  E  E    Q.  E  E  E E  E
|---------------------|------6------8-|-------9----------|-11--11-11-11---11---|
|-10-9----------------|---5----5------|--7-------6--8-10-|-10--10-10-10---10---|
|------8-8-8-8-9------|-3--------3----|----5-------------|--8---8--8--8----8---|
|---------------------|---------------|------------------|---------------------|
|---------------------|---------------|------------------|---------------------|
|---------------------|---------------|------------------|---------------------|
|
|                     Gtr II
|  W                    E E  E E E  E    E E  E  E  E  E    Q.  E  E  E E  E
|---------------------|-----10-----12-|------13----------|-15--15-15-15---15---|
|---------------------|---9----9------|-11------10-12-14-|-14--14-14-14---14---|
|---------------------|-7--------7----|----9-------------|-12--12-12-12---12---|
|---------------------|---------------|------------------|---------------------|
|---------------------|---------------|------------------|---------------------|
|---------------------|---------------|------------------|---------------------|


                          PM  PM
   E  E E  E E  E  E  E   E E E E E E E E
|-11-11---11---11-11-11-|-----------------|
|-10-10---10---10-10-10-|-----------------|
|--8--8----8----8--8--8-|-----------------|
|-----------------------|-----------------|
|-----------------------|---7---6---------|
|-----------------------|-0---3---3-6-5-3-|
|
|                         PM  PM
|  E  E E  E E  E  E  E   E E E E E E E E
|-15-15---15---15-15-15-|-----------------|
|-14-14---14---14-14-14-|-----------------|
|-12-12---12---12-12-12-|-----------------|
|-----------------------|-----------------|
|-----------------------|---7---6---------|
|-----------------------|-0---3---3-6-5-3-|


  PM  PM            PM   PM     PM
  E E E E E E E E   E  E E E  E E E  E
|-----------------|--------------------|
|-----------------|--------------------|
|-----------------|--------------------|
|-------7---------|----9---7------7--9-|
|---3---6---------|-7----7----9-5------|
|-2---2-5-5-8-7-5-|--------------------|
|
| PM  PM            PM   PM     PM
| E E E E E E E E   E  E E E  E E E  E
|-----------------|--------------------|
|-----------------|--------------------|
|-----------------|--------------------|
|-------7---------|--------------------|
|---3---6---------|---10---9------9-10-|
|-2---2-5-5-8-7-5-|-8----8---10-7------|


  PM----------------|   PM            PM  PM            PM   PM     PM
  E E E E E E E E   E E E E E E E E   E E E E E E E E   E  E E E  E E E  E
|-----------------|-----------------|-----------------|--------------------|
|-----------------|-----------------|-----------------|--------------------|
|-----------------|-----------------|-----------------|--------------------|
|-----------------|-----------------|-------7---------|----9---7------7--9-|
|-2-2-2-2-2-2-2-2-|---7---6---------|---3---6---------|-7----7----9-5------|
|-0-0-0-0-0-0-0-0-|-0---3---3-6-5-3-|-2---2-5-5-8-7-5-|--------------------|
|
| PM----------------|   PM            PM  PM            PM   PM     PM
| E E E E E E E E   E E E E E E E E   E E E E E E E E   E  E E E  E E E  E
|-----------------|-----------------|-----------------|--------------------|
|-----------------|-----------------|-----------------|--------------------|
|-----------------|-----------------|-----------------|--------------------|
|-----------------|-----------------|-------7---------|--------------------|
|-2-2-2-2-2-2-2-2-|---7---6---------|---3---6---------|---10---9------9-10-|
|-0-0-0-0-0-0-0-0-|-0---3---3-6-5-3-|-2---2-5-5-8-7-5-|-8----8---10-7------|


                                    PM  PM
   E   E   E   E   E   E   E   E    E E E E E E E E
|---------------------------------|-----------------|
|---------------------------------|-----------------|
|---------------------------------|-----------------|
|---------------------------------|-----------------|
|---------------------------------|---7---6---------|
|-<3>S<4>-<4>S<5>-<5>S<6>-<6>S<7>-|-0---3---3-6-5-3-|
|
|                                   PM  PM
|  E   E   E   E   E   E   E   E    E E E E E E E E
|---------------------------------|-----------------|
|---------------------------------|-----------------|
|---------------------------------|-----------------|
|---------------------------------|-----------------|
|---------------------------------|---7---6---------|
|-<3>S<4>-<4>S<5>-<5>S<6>-<6>S<7>-|-0---3---3-6-5-3-|


  PM  PM            PM   PM     PM
  E E E E E E E E   E  E E E  E E E  E
|-----------------|--------------------|
|-----------------|--------------------|
|-----------------|--------------------|
|-------7---------|----9---7------7--9-|
|---3---6---------|-7----7----9-5------|
|-2---2-5-5-8-7-5-|--------------------|
|
| PM  PM            PM   PM     PM
| E E E E E E E E   E  E E E  E E E  E
|-----------------|--------------------|
|-----------------|--------------------|
|-----------------|--------------------|
|-------7---------|--------------------|
|---3---6---------|---10---9------9-10-|
|-2---2-5-5-8-7-5-|-8----8---10-7------|


  PM--|             PM--|
  E E E E E E E E   E E E  E  E  E  E E
|-----------------|---------------------|
|-----------------|---------------------|
|-------9-9-9-9-7-|--------7--7--7--7-7-|
|-------9-9-9-9-7-|-------10-10-10-10-7-|
|-------7-7-7-7-7-|--------7--7--7--7-7-|
|-0-0-0-----------|-0-0-0---------------|
|
| PM--|             PM--|
| E E E E E E E E   E E E  E  E  E  E E
|-----------------|---------------------|
|-----------------|---------------------|
|-------9-9-9-9-7-|--------7--7--7--7-7-|
|-------9-9-9-9-7-|-------10-10-10-10-7-|
|-------7-7-7-7-7-|--------7--7--7--7-7-|
|-0-0-0-----------|-0-0-0---------------|


  PM--|
                     |--3--|  |--3--|  |--3--|  |--3--|
  E E E E E E E E    E  E  E  E  E  E  E  E  E  E  E  E
|-----------------|-------------------------------------|
|-----------------|-------------------------------------|
|-------9-9-9-9-7-|--9--7-------------------------------|
|-------9-9-9-9-7-|-------10--7--9--7-10--9-------------|
|-------7-7-7-7-7-|-------------------------12--9-10--9-|
|-0-0-0-----------|-------------------------------------|
|
| PM--|
|                    |--3--|  |--3--|  |--3--|  |--3--|
| E E E E E E E E    E  E  E  E  E  E  E  E  E  E  E  E
|-----------------|-------------------------------------|
|-----------------|-------------------------------------|
|-------9-9-9-9-7-|-12-11--9----------------------------|
|-------9-9-9-9-7-|----------10-12-10-14-12-------------|
|-------7-7-7-7-7-|-------------------------15-12-14-12-|
|-0-0-0-----------|-------------------------------------|


                                   Q.=150
                                    6/8
                                   Gtr I
   |-3--|  |-3--|  |-3--|  |--3--|
   E  E E  E E  E  E E  E  E  E  E    E   E  E  E   E  E    E   E  E  E   E  E
|----------------------------------|---------------------|---------------------|
|----------------------------------|---------------------|---------------------|
|--------------------9-12h14p11----|-16--14-12-----------|-17--16-14-----------|
|-------9h10p9----10------------13-|-----------16--14-12-|-----------16--13----|
|----10--------12------------------|---------------------|------------------15-|
|-12-------------------------------|---------------------|---------------------|
|
|                                  Gtr II
|  Q       Q       Q       Q          Q.        Q.          Q.        Q.
|----------------------------------|---------------------|---------------------|
|----------------------------------|---------------------|---------------------|
|----------------------------------|------------7--------|---------------------|
|--9---------------5-------4-------|--5---------7--------|--7---------4--------|
|--7-------7-------3-------2-------|--5---------5--------|--7---------3--------|
|----------5-----------------------|--3------------------|--5---------2--------|
|
|                                  Gtr III
|  W                                  E   E  E  E   E  E    E   E  E  E   E  E
|----------------------------------|---------------------|---------------------|
|----------------------------------|---------------------|---------------------|
|----------------------------------|-19--17-16-----------|-21--19-17-----------|
|----------------------------------|-----------19--17-16-|-----------19--16----|
|----------------------------------|---------------------|------------------18-|
|----------------------------------|---------------------|---------------------|


    Gtrs I, II
    PM--|   PM---------|    PM---------|    PM---------|
    E E E E E E   E  E E E  E  E   E E E  E E E   E  E E E E  E
||--------------|----------------|--------------|---------------|
||o-------------|----------------|--------------|---------------|
||--------------|----------------|--------------|--------5-4----|
||--------5-----|--------5-------|--------------|-------------5-|
||o-7-7-7---7-7-|-7--7-7----7--7-|--------7-----|---------------|
||--------------|----------------|-5-5-5----5-5-|-5--5-5--------|
|
|   Gtr III
|   PM--|   PM|                    PM--|    PM|
|   E E E E E E   E  E E E  E  E   E E E  E E E   E  E E E E  E
||--------------|----------------|--------------|---------------|
||o-------------|----------------|--------------|------------12-|
||--------------|-9-12-9---------|--------------|-9--------9----|
||--------9-----|--------9-------|-------10-----|---10-9-7------|
||o-7-7-7---7-7-|----------10----|-7-7-7----7-7-|---------------|
||--------------|-------------12-|--------------|---------------|


   Q.      Q.         Q.        Q.
|------------------|---------------------|
|------------------|---------------------|
|------------------|---------------------|
|--5-------5-------|------------7--------|
|--3-------2-------|--5---------5--------|
|------------------|--3------------------|
|
|  E  E E  E   E E    E   E  E  E   E  E
|------------------|---------------------|
|-13--8------------|---------------------|
|-------9-11--12---|-11--12-14-14--11----|
|----------------9-|------------------12-|
|------------------|---------------------|
|------------------|---------------------|


   PM---|             PM---|
   E  E E  Q.         E  E  E  Q.
|------------------|----------------------||
|------------------|---------------------o||
|------------------|----------------------||
|------------------|-----------4----------||
|--7--7-7--7-------|--3--3--3--3---------o||
|--5--5-5--5-------|--2--2--2--2----------||
|
|  E  E E  E  E  E    E  E  E  E   E  E
|-------------8-12-|-14-11----------------||
|---------10-------|-------13------------o||
|-------9----------|----------14--11------||
|----10------------|-----------------13---||
|-12---------------|---------------------o||
|------------------|----------------------||


   PM---|      PM-----------|      PM----
   E  E  E  E  E  E    E  E  E  E  E  E
|-------------------|-------------------|
|-------------------|-------------------|
|-------------------|-------------------|
|-------------------|-------------------|
|-----------2-------|-----------2-------|
|--3--3--3-----3--3-|--3--3--3-----3--3-|
|
|  E  E  E  E  E  E    E  E  E  E  E  E
|-------------------|-------------------|
|-------------------|----12-13-12-------|
|-------------------|-14----------14-12-|
|-17----16-17----12-|-------------------|
|----14-------10----|-------------------|
|-------------------|-------------------|


 -------|      PM-----------|
   E  E  E  E  E  E    E  E  E  E  E  E
|-------------------|--------------------|
|-------------------|--------------------|
|-------------------|--------------------|
|-----------4-------|-----------5--4-----|
|--5--5--5-----5--5-|--5--5--5--------5--|
|-------------------|--------------------|
|
|  E  E  E  E  E  E    E  E  E  E  E  E
|-------------------|----12-14-12--------|
|----------15-------|-15----------15-----|
|-14----11----14-11-|----------------14--|
|----12-------------|--------------------|
|-------------------|--------------------|
|-------------------|--------------------|


   Q.        Q.         Q.       Q.
|--------------------|--------------------|
|--------------------|--------------------|
|--------------------|--------------------|
|-10--------10-------|----------12--------|
|--8---------7-------|-10-------10--------|
|--------------------|--8-----------------|
|
|  E   E  E  E   E E    E  E  E  E   E  E
|--------------------|--------------------|
|--------13-12--13---|--------------------|
|-10--14-----------9-|-12--9--------------|
|--------------------|-------10--9--12----|
|--------------------|-----------------10-|
|--------------------|--------------------|


   |--4:3---|                 |--4:3---|
   E  E  E  E  Q.             E  E  E  E  Q.
|--------------------------|---------------------------|
|--------------------------|---------------------------|
|--------------------------|--------------8------------|
|--7--7--7--7--7-----------|--7--7--7--7--7------------|
|--5--5--5--5--5-----------|--6--6--6--6--6------------|
|--------------------------|---------------------------|
|
|  |--4:3---|  |---4:3---|    |--4:3---|  |---4:3---|
|  E  E  E  E  E   E  E  E    E  E  E  E  E   E  E  E
|-------------14--17-14----|----14-17-14---------------|
|----------15-----------15-|-16----------16------------|
|-------14-----------------|-----------------17-14-----|
|----16--------------------|-----------------------16--|
|-17-----------------------|---------------------------|
|--------------------------|---------------------------|


    Gtrs I, II
     PM---|      PM-----------|      PM----
     E  E  E  E  E  E    E  E  E  E  E  E
||--------------------|-------------------|
||o-------------------|-------------------|
||--------------------|-------------------|
||------------5-------|-----------5-------|
||o--7--7--7-----7--7-|--7--7--7-----7--7-|
||--------------------|-------------------|
|
|   Gtr III
|    PM---|      PM|
|    E  E  E  E  E  E    E  E  E  E  E  E
||--------------------|-------------------|
||o-------------------|-------------------|
||--------------------|--9-12--9----------|
||------------9-------|-----------9-------|
||o--7--7--7-----7--7-|-------------10----|
||--------------------|----------------12-|
|
|   Gtr IV
|    E  E  E  E  E  E    E  E  E  E  E  E
||--------15-19-15----|-------15-19-15----|
||o----17----------17-|----17----------17-|
||--16----------------|-16----------------|
||--------------------|-------------------|
||o-------------------|-------------------|
||--------------------|-------------------|


 -------|      PM-----------|
   E  E  E  E  E  E    E  E  E  E  E  E
|-------------------|-------------------|
|-------------------|-------------------|
|-------------------|-----------5--4----|
|-------------------|-----------------5-|
|-----------7-------|-------------------|
|--5--5--5-----5--5-|--5--5--5----------|
|
|  PM---|      PM|
|  E  E  E  E  E  E    E  E  E  E  E  E
|-------------------|-------------------|
|-------------------|----------------12-|
|-------------------|--9-----------9----|
|----------10-------|----10--9--7-------|
|--7--7--7-----7--7-|-------------------|
|-------------------|-------------------|
|
|  E  E  E  E  E  E    E  E  E  E  E  E
|-------12-17-12----|-------12-17-12----|
|----13----------13-|----13----------13-|
|-14----------------|-14----------------|
|-------------------|-------------------|
|-------------------|-------------------|
|-------------------|-------------------|


   Q.        Q.          Q.        Q.
|---------------------|---------------------|
|---------------------|---------------------|
|---------------------|---------------------|
|--5---------5--------|------------7--------|
|--3---------2--------|--5---------5--------|
|---------------------|--3------------------|
|
|  E   E  E  E   E  E    E   E  E  E   E  E
|---------------------|---------------------|
|-13---8--------------|---------------------|
|---------9-11--12----|-11--12-14-14--11----|
|-------------------9-|------------------12-|
|---------------------|---------------------|
|---------------------|---------------------|
|
|  E   E  E  E   E  E    E   E  E  E   E  E
|--------12-15--10----|--------10-17--14----|
|-----13-----------12-|-----12-----------15-|
|-12------------------|-12------------------|
|---------------------|---------------------|
|---------------------|---------------------|
|---------------------|---------------------|


   PM---|               PM---|
   E  E  E  Q.          E  E  E  Q.
|--------------------|----------------------||
|--------------------|---------------------o||
|--------------------|----------------------||
|--------------------|-----------4----------||
|--7--7--7--7--------|--3--3--3--3---------o||
|--5--5--5--5--------|--2--2--2--2----------||
|
|  E  E  E  E   E  E    E  E  E  E   E  E
|---------------8-12-|-14-11----------------||
|----------10--------|-------13------------o||
|--------9-----------|----------14--11------||
|----10--------------|-----------------13---||
|-12-----------------|---------------------o||
|--------------------|----------------------||
|
|  E  E  E  E   E  E    E  E  E  E   E  E
|----12-17-20--17-12-|-17-14----------------||
|-13-----------------|-------16------------o||
|--------------------|----------17--14------||
|--------------------|-----------------16---||
|--------------------|---------------------o||
|--------------------|----------------------||


   PM---|      PM-----------|      PM----
   E  E  E  E  E  E    E  E  E  E  E  E
|-------------------|-------------------|
|-------------------|-------------------|
|-------------------|-------------------|
|-------------------|-------------------|
|-----------2-------|-----------2-------|
|--3--3--3-----3--3-|--3--3--3-----3--3-|
|
|  E  E  E  E  E  E    E  E  E  E  E  E
|-------------------|-------------------|
|-------------------|----12-13-12-------|
|-------------------|-14----------14-12-|
|-17----16-17----12-|-------------------|
|----14-------10----|-------------------|
|-------------------|-------------------|
|
|  E  E  E  E  E  E    E  E  E  E  E  E
|-------19-22-19----|-------19-22-19----|
|----20----------20-|----20----------20-|
|-19----------------|-19----------------|
|-------------------|-------------------|
|-------------------|-------------------|
|-------------------|-------------------|


 -------|      PM-----------|
   E  E  E  E  E  E    E  E  E  E  E  E
|-------------------|--------------------|
|-------------------|--------------------|
|-------------------|--------------------|
|-----------4-------|-----------5--4-----|
|--5--5--5-----5--5-|--5--5--5--------5--|
|-------------------|--------------------|
|
|  E  E  E  E  E  E    E  E  E  E  E  E
|-------------------|----12-14-12--------|
|----------15-------|-15----------15-----|
|-14----11----14-11-|----------------14--|
|----12-------------|--------------------|
|-------------------|--------------------|
|-------------------|--------------------|
|
|  E  E  E  E  E  E    E  E  E  E  E  E
|-------17-22-17----|-------17-22-17-----|
|----19----------19-|----19----------19--|
|-19----------------|-19-----------------|
|-------------------|--------------------|
|-------------------|--------------------|
|-------------------|--------------------|


   Q.        Q.          Q.        Q.
|---------------------|---------------------|
|---------------------|---------------------|
|---------------------|---------------------|
|-10--------10--------|-----------12--------|
|--8---------7--------|-10--------10--------|
|---------------------|--8------------------|
|
|  E   E  E  E   E  E    E   E  E  E   E  E
|---------------------|---------------------|
|--------13-12--13----|---------------------|
|-10--14------------9-|-12---9--------------|
|---------------------|--------10--9--12----|
|---------------------|------------------10-|
|---------------------|---------------------|
|
|  E   E  E  E   E  E    E   E  E  E   E  E
|-----17-20-15--------|-----15-20-22--19----|
|-18------------17----|-17---------------20-|
|------------------17-|---------------------|
|---------------------|---------------------|
|---------------------|---------------------|
|---------------------|---------------------|


   |--4:3---|                 |--4:3---|
   E  E  E  E  Q.             E  E  E  E  Q.
|--------------------------|---------------------------|
|--------------------------|---------------------------|
|--------------------------|--------------8------------|
|--7--7--7--7--7-----------|--7--7--7--7--7------------|
|--5--5--5--5--5-----------|--6--6--6--6--6------------|
|--------------------------|---------------------------|
|
|  |--4:3---|  |---4:3---|    |--4:3---|  |---4:3---|
|  E  E  E  E  E   E  E  E    E  E  E  E  E   E  E  E
|-------------14--17-14----|----14-17-14---------------|
|----------15-----------15-|-16----------16------------|
|-------14-----------------|-----------------17-14-----|
|----16--------------------|-----------------------16--|
|-17-----------------------|---------------------------|
|--------------------------|---------------------------|
|
|  |--4:3---|  |---4:3---|    |--4:3---|  |---4:3---|
|  E  E  E  E  E   E  E  E    E  E  E  E  E   E  E  E
|-------------17--20-17----|----17-20-17---------------|
|----------19-----------19-|-19----------19------------|
|-------17-----------------|-----------------20-17-----|
|----19--------------------|-----------------------19--|
|-21-----------------------|---------------------------|
|--------------------------|---------------------------|


  Q=200
 7/4                             6/4
   PM-------------------------------------------------|
   E E E E E E E E E  E E E E E   E E E E E E E E E E E E
|-------------------------------|-------------------------|
|-------------------------------|-------------------------|
|-------------------------------|-------------------------|
|-------------------------------|-------------------------|
|--2-2-2-2---2-2-2----2-2-2-2---|-2-2-2---2-2---2-2-2-2---|
|--0-0-0-0---0-0-0----0-0-0-0---|-0-0-0---0-0---0-0-0-0---|
|
|  W               H.             W               H
|-------------------------------|-------------------------|
|-------------------------------|-------------------------|
|-------------------------------|-------------------------|
|-14----------------------------|-------------------------|
|-------------------------------|-------------------------|
|-------------------------------|-------------------------|
|
|  W               H.             W               H
|-------------------------------|-------------------------|
|-------------------------------|-------------------------|
|-------------------------------|-------------------------|
|-17----------------------------|-------------------------|
|-------------------------------|-------------------------|
|-------------------------------|-------------------------|


   7/4                           6/4
    Gtrs I, II
    PM------------------------------------------------|
    E E E E E E E E E E E E E E   E E E E E E E E E E E E
||------------------------------|--------------------------||
||o-----------------------------|-------------------------o||
||------------------------------|--------------------------||
||------------------------------|--------------------------||
||o-2-2-2-2---2-2-2---2-2-2-2---|-2-2-2---2-2---2-2-2-2---o||
||--0-0-0-0---0-0-0---0-0-0-0---|-0-0-0---0-0---0-0-0-0----||


 7/4                           6/4
  PM--------------------------------------------------|
  E E E E E E E E E E E E E E   E E E E E E E E E E E E
|-----------------------------|-------------------------|
|-----------------------------|-------------------------|
|-----------------------------|-------------------------|
|-----------------------------|-------------------------|
|-2-2-2-2---2-2-2---2-2-2-2---|-2-2-2---2-2---2-2-2-2-2-|
|-0-0-0-0---0-0-0---0-0-0-0---|-0-0-0---0-0---0-0-0-0-0-|


    Q.=135
   15/8
    Gtr I
        PM----|     PM    PM----|
    E E E E E E E E E E E E E E E
||--------------------------------|
||o-------------------------------|
||--------------------------------|
||--------------------------------|
||o-3p2-2-2-2-2-3p2-2-3p2-2-2-2-2-|
||--1p0-0-0-0-0-1p0-0-1p0-0-0-0-0-|
|
|   Gtr II
|       PM----|     PM    PM----|
|   E E E E E E E E E E E E E E E
||--------------------------------|
||o-------------------------------|
||--------------------------------|
||--------------------------------|
||o-3p2-2-2-2-2-3p2-2-3p2-2-2-2-2-|
||--1p0-0-0-0-0-1p0-0-1p0-0-0-0-0-|


 6/8          15/8
                   PM----|     PM    PM----|
  E E E Q.     E E E E E E E E E E E E E E E
|-------0----|--------------------------------|
|-------0----|--------------------------------|
|-7-9-9-0----|--------------------------------|
|-7-9-9-9----|--------------------------------|
|-5-7-7-7----|-3p2-2-2-2-2-3p2-2-3p2-2-2-2-2--|
|------------|-1p0-0-0-0-0-1p0-0-1p0-0-0-0-0--|
|
|                  PM----|     PM    PM----|
| E E E Q.     E E E E E E E E E E E E E E E
|-------0----|--------------------------------|
|-------8----|--------------------------------|
|-7-9-9-9----|--------------------------------|
|-7-9-9-9----|--------------------------------|
|-5-7-7-7----|-3p2-2-2-2-2-3p2-2-3p2-2-2-2-2--|
|------------|-1p0-0-0-0-0-1p0-0-1p0-0-0-0-0--|


 6/8              2/4       15/8                            6/8
                                 PM----|     PM    PM----|
  E E E  E  E  E   E E E E   E E E E E E E E E E E E E E E   E E E Q.
|----------------|---------|-------------------------------|-------0----|
|----------------|---------|-------------------------------|-------0----|
|----------------|---------|-------------------------------|-7-9-9-0----|
|-9-9-9-10-10-10-|-7-7-6-6-|-------------------------------|-7-9-9-9----|
|----------------|---------|-3p2-2-2-2-2-3p2-2-3p2-2-2-2-2-|-5-7-7-7----|
|-7-7-7--8--8--8-|-5-5-4-4-|-1p0-0-0-0-0-1p0-0-1p0-0-0-0-0-|------------|
|
|                                PM----|     PM    PM----|
| E E E  E  E  E   E E E E   E E E E E E E E E E E E E E E   E E E Q.
|----------------|---------|-------------------------------|-------0----|
|----------------|---------|-------------------------------|-------8----|
|----------------|---------|-------------------------------|-7-9-9-9----|
|-9-9-9-10-10-10-|-7-7-6-6-|-------------------------------|-7-9-9-9----|
|----------------|---------|-3p2-2-2-2-2-3p2-2-3p2-2-2-2-2-|-5-7-7-7----|
|-7-7-7--8--8--8-|-5-5-4-4-|-1p0-0-0-0-0-1p0-0-1p0-0-0-0-0-|------------|


 15/8                            12/8
      PM----|     PM    PM----|
  E E E E E E E E E E E E E E E   E E E E E E S S E E Q.
|-------------------------------|----------------------------||
|-------------------------------|---------------------------o||
|-------------------------------|-------------8-9-8-8-8------||
|-------------------------------|-9---------5----------------||
|-3p2-2-2-2-2-3p2-2-3p2-2-2-2-2-|---9-----7---6-7-6-6-6-----o||
|-1p0-0-0-0-0-1p0-0-1p0-0-0-0-0-|-----7-8--------------------||
|
|     PM----|     PM    PM----|
| E E E E E E E E E E E E E E E   E E E E E E S S E E Q.
|-------------------------------|----------------------------||
|-------------------------------|---------------------------o||
|-------------------------------|-------------8-9-8-8-8------||
|-------------------------------|-9---------5----------------||
|-3p2-2-2-2-2-3p2-2-3p2-2-2-2-2-|---9-----7---6-7-6-6-6-----o||
|-1p0-0-0-0-0-1p0-0-1p0-0-0-0-0-|-----7-8--------------------||


 9/8
  Gtrs I, II
   PM------------------|
   E  E  E  E  E  E  E  E  E
|----------------------------|
|----------------------------|
|----------------------------|
|----------------------------|
|--2--2--2--2-----2--2--2----|
|--0--0--0--0-----0--0--0----|
|
| Gtr III
|  E  E  E  E  E  E  E  E  E
|----------------------------|
|----------------------------|
|-12-12-12-12-12-12-12-12-12-|
|----------------------------|
|-10-10-10-10-10-10-10-10-10-|
|----------------------------|
|
| Gtr IV
|  E  E  E  E  E  E  E  E  E
|----------------------------|
|----------------------------|
|--9--9--9--9--9--9--9--9--9-|
|----------------------------|
|--7--7--7--7--7--7--7--7--7-|
|----------------------------|


   PM------------------|        PM------------------|
   E  E  E  E  E  E  E  E  E    E  E  E  E  E  E  E  E  E
|----------------------------|----------------------------|
|----------------------------|----------------------------|
|----------------------------|----------------------------|
|----------------------------|----------------------------|
|--2--2--2--2-----2--2--2----|--2--2--2--2-----2--2--2----|
|--0--0--0--0-----0--0--0----|--0--0--0--0-----0--0--0----|
|
|  E  E  E  E  E  E  E  E  E    E  E  E  E  E  E  E  E  E
|----------------------------|----------------------------|
|----------------------------|----------------------------|
|-12-12-12-12-12-12-12-12-12-|-16-16-16-16-16-16-16-16-16-|
|----------------------------|----------------------------|
|-10-10-10-10-10-10-10-10-10-|-14-14-14-14-14-14-14-14-14-|
|----------------------------|----------------------------|
|
|  E  E  E  E  E  E  E  E  E    E  E  E  E  E  E  E  E  E
|----------------------------|----------------------------|
|----------------------------|----------------------------|
|--4--4--4--4--4--4--4--4--4-|-12-12-12-12-12-12-12-12-12-|
|----------------------------|----------------------------|
|--2--2--2--2--2--2--2--2--2-|-10-10-10-10-10-10-10-10-10-|
|----------------------------|----------------------------|


              Q=150
 6/8           2/4        4/4
  Gtr I
                             PM|   PM|     PM        PM   PM
  E E E E E E   E E  E E   E S S E S S E E E E   E E E Q  E E E
|-------------|----------|---------------------|-----------------|
|-------------|----------|---------------------|-----------------|
|-------------|-9-9--9-9-|-9-----9-----9-9-----|--------------4--|
|-------------|-8-8--8-8-|-8-----8-----8-8---5-|-6-5---3----3-4--|
|-7-----7-----|-7-7--7-7-|-7-----7-----7-7-----|-------3----3-2--|
|---6-5---6-5-|----------|---0-0---0-0-----0-3-|-4-3-0-1--0-1----|
|
| Gtr II
|                            PM|   PM|     PM        PM   PM
| E E E E E E   E Q.       E S S E S S E E E E   E E E Q  E E E
|-------------|----------|---------------------|-----------------|
|-------------|----------|---------------------|-----------------|
|-------------|-9--------|-9-----9-----9-9-----|--------------4--|
|-------------|-8--------|-8-----8-----8-8---5-|-6-5---3----3-4--|
|-7-----7-----|-7--------|-7-----7-----7-7-----|-------3----3-2--|
|---6-5---6-5-|----------|---0-0---0-0-----0-3-|-4-3-0-1--0-1----|


    Gtrs I, II
    PM--------|        PM------------|          PM----|     PM|
    E E E E E E Q    E S S S S S S S S E Q    E E E E E  E  S S E
||-----------------|------------------------|---------------------|
||o----------------|------------------------|---------------------|
||-----------------|---------------------6--|---------------------|
||----6-5---3-4----|---------------------5--|---5-----------------|
||o-2-4-3---3-2----|---1-----------1-2---4--|---5-6-5-3-[4]-4-4---|
||--0-4-3-0-1-2----|-----4-3-1-3-4-------3--|-----6-5-3-----2-2---|


    PM--------|
  E E E E +S  E. Q    E E E E E E S S E   E E E E +E  E E E
|-------------------|-------------------|--------------------|
|-------------------|-------------------|--------------------|
|-------------------|-------------------|-----------------4--|
|-------------------|-4-4-4-------------|-------6-(6)---3-4--|
|---6-3-1-(1)-1-----|-2-1-0---5-------2-|-1-----4-(4)---3-2--|
|---5-2-0-(0)-0-----|-------3---2-0-1---|---2-1-------0-1----|


                                        G
  E E E E E E S S E   E E E E +E  E E E
|-------------------|-------------------|
|-------------------|-------------------|
|-------------------|-----------------4-|
|-4-4-4-------------|-------6-(6)---3-4-|
|-2-1-0---5-------2-|-1-----4-(4)---3-2-|
|-------3---2-0-1---|---2-1-------0-1---|
|
|                                       G
| W                   W
|-------------------|-------------------|
|-------------------|-------------------|
|-------------------|-------------------|
|-------------------|-------------------|
|-------------------|-------------------|
|-------------------|-------------------|


 tr I
  PM--------|         PM----|
  E E E E E E   Q   E E +S  E S E E E E
|-----------------|---------------------|
|-----------------|---------------------|
|-----------------|---------------------|
|-----------------|---------------1-----|
|-1---1-----1-----|---1-(1)-1-------0---|
|-0---0-----0-----|---0-(0)-0---------2-|
|
|tr II
| PM----------|       PM----|
| E E E E E E Q     E E +S  E S E E E E
|-----------------|---------------------|
|-----------------|---------------7-----|
|-----------------|-----------------5---|
|-----------------|-------------------7-|
|-1---1-----1-----|---1-(1)-1-----------|
|-0---0-----0-----|---0-(0)-0-----------|


                                       Gtrs I, II
  PM--------|        PM----|               PM----|         PM----|
  E E E E E E Q    E E +S  E S E E E E     E. E. E H       E. E. E H
|----------------|----------------------||---------------|--------------|
|----------------|---------------------o||---------------|--------------|
|----------------|----------------------||---------------|--------------|
|----------------|---------------1------||---------------|--------------|
|-1---1-----1----|---1-(1)-1-------0---o||-6--6--6-------|-6--6--6-1----|
|-0---0-----0----|---0-(0)-0---------2--||-5--5--5-------|-5--5--5-2----|
|
| PM----------|      PM----|
| E E E E E E Q    E E +S  E S E E E E     W               W
|----------------|----------------------||---------------|--------------|
|----------------|---------------7-----o||---------------|--------------|
|----------------|-----------------5----||---------------|--------------|
|----------------|-------------------7--||---------------|--------------|
|-1---1-----1----|---1-(1)-1-----------o||---------------|--------------|
|-0---0-----0----|---0-(0)-0------------||---------------|--------------|


                                       Q=180
  Gtrs I, II
  PM----|        PM----|   PM------|
  E. E. E H      E. E. E E S S S S S S   H    +E  E +Q     W
|--------------|-----------------------|-----------------|------|
|--------------|-----------------------|-----------------|------|
|--------------|-----------------------|-0----(0)-0-(0)--|-2----|
|--------------|-----------------------|-1----(1)-0-(0)--|-1----|
|-6--6--6------|-6--6--6---1-1---1-1---|-3----(3)-1-(1)--|-0----|
|-5--5--5------|-5--5--5---2-2---2-2---|-----------------|------|


  H    +E  E +Q     H    +E  Q.     E E H.        W
|-----------------|---------------|-1-----------|------|
|-----------------|----------2----|-1-----------|------|
|-0----(0)-0-(0)--|-2----(2)-0----|-1-----------|------|
|-1----(1)-0-(0)--|-1----(1)-2----|-3-----------|------|
|-3----(3)-1-(1)--|-0----(0)-0----|-------------|------|
|-----------------|---------------|-------------|------|


  PM--------|           PM--------|           PM--------|
  E E E E E E S S S S   E E E E E E S S S S   E E E E E E S S S S
|---------------------|---------------------|---------------------|
|---------------------|---------------------|---------------------|
|---------------------|---------------------|---------------------|
|-------------2S3S2S3-|-------------2S3S2S3-|-------------2S3S2S3-|
|-5-2-0-4-1-0-1S2S1S2-|-5-2-0-4-1-0-1S2S1S2-|-5-2-0-4-1-0-1S2S1S2-|
|-5-2-0-4-1-0---------|-5-2-0-4-1-0---------|-5-2-0-4-1-0---------|


  Gtr I
    PM|       PM----|                   PM--------------------|
                                                  |-3-| |-3---|
  E E E E E E S S S S   E E +E  E +E  E S S S S   Q Q Q Q Q Q
|---------------------|-------------------------|-------------|
|---------------------|-------------------------|-------------|
|---------------------|-------------------------|-------------|
|-2-----5-8-7-6-6-6-6-|-8-7-(7)-8-(8)-7-6-6-6-6-|---5---------|
|-1-3-0-3-6-5-6-6-6-6-|-6-5-(5)-6-(6)-5-6-6-6-6-|-----4---7---|
|---3-0-3-6-5-4-4-4-4-|-6-5-(5)-6-(6)-5-4-4-4-4-|-4-----6---5-|
|
| Gtr II
|   PM|                                 PM----|
|                                                 |-3-| |-3-|
| E E E E E E Q         E E +E  E +E  E S S S S   Q Q Q Q Q Q
|---------------------|-------------------------|-------------|
|---------------------|-------------------------|-------------|
|---------------------|-------------------------|-------------|
|-2-----5-8-7---------|-8-7-(7)-8-(8)-7-6-6-6-6-|---5---------|
|-1-3-0-3-6-5---------|-6-5-(5)-6-(6)-5-6-6-6-6-|-----4---7---|
|---3-0-3-6-5---------|-6-5-(5)-6-(6)-5-4-4-4-4-|-4-----6---5-|


  Gtrs I, II
                  PM------------------|                           PM----|
  E E +E  E +E  E S S S S   E E E E E E S S S S   E E +E  E +E  E S S S S
|-------------------------|---------------------|-------------------------|
|-------------------------|---------------------|-------------------------|
|-------------------------|---------------------|-------------------------|
|-8-7-(7)-8-(8)-7-6-6-6-6-|-------------2S3S2S3-|-8-7-(7)-6-(6)-9-5-5-5-5-|
|-6-5-(5)-6-(6)-5-6-6-6-6-|-5-2-0-4-1-0-1S2S1S2-|-6-5-(5)-6-(6)-9-5-5-5-5-|
|-6-5-(5)-6-(6)-5-4-4-4-4-|-5-2-0-4-1-0---------|-6-5-(5)-4-(4)-7-3-3-3-3-|


                PM--------|             PM--|
  |-3-| |-3---------------------------------|
  Q Q Q Q Q Q   E E E E E E S S S S   E E E E E E Q
|-------------|---------------------|----------------|
|-------------|---------------------|----------------|
|-------------|---------------------|----------------|
|---4---------|-------------2S3S2S3-|-2-----5-8-7----|
|-----3---6---|-5-2-0-4-1-0-1S2S1S2-|-1-3-0-3-6-5----|
|-3-----5---4-|-5-2-0-4-1-0---------|---3-0-3-6-5----|


                  PM----|                                 PM------|
                            |-3-| |-3-----------------------------|
  E E +E  E +E  E S S S S   Q Q Q Q Q Q   E E +E  E +E  E S S S S
|-------------------------|-------------|-------------------------|
|-------------------------|-------------|-------------------------|
|-------------------------|-------------|-------------------------|
|-8-7-(7)-8-(8)-7-6-6-6-6-|---5---------|-8-7-(7)-8-(8)-7-6-6-6-6-|
|-6-5-(5)-6-(6)-5-6-6-6-6-|-----4---7---|-6-5-(5)-6-(6)-5-6-6-6-6-|
|-6-5-(5)-6-(6)-5-4-4-4-4-|-4-----6---5-|-6-5-(5)-6-(6)-5-4-4-4-4-|


  PM--------|                           PM--------------------|
                                                  |-3-| |-3---|
  E E E E E E S S S S   E E +E  E +E  E S S S S   Q Q Q Q Q Q
|---------------------|-------------------------|-------------|
|---------------------|-------------------------|-------------|
|---------------------|-------------------------|-------------|
|-------------2S3S2S3-|-8-7-(7)-6-(6)-9-5-5-5-5-|---4---------|
|-5-2-0-4-1-0-1S2S1S2-|-6-5-(5)-6-(6)-9-5-5-5-5-|-----3---6---|
|-5-2-0-4-1-0---------|-6-5-(5)-4-(4)-7-3-3-3-3-|-3-----5---4-|


    Gtr I
      PM|   PM--|       PM|   PM|
    E E E E E E E E   E E E E E E E E
||------------------|------------------||
||o-----------------|-----------------o||
||------------------|------------------||
||------------------|------------------||
||o-5-----5-------5-|-4-----4---------o||
||----6-5---5-3-2---|---3-2---2-0-6-7--||
|
|   Gtr II
|                       PM--------|
|   E E E E H         Q E E E E E E
||------------------|------------------||
||o-----------------|-----------------o||
||------------------|------------------||
||--7-----7---------|------------------||
||o-5-----5---------|---4---3-2---2---o||
||--5-----5---------|---2---2-0---0----||


        PM|   PM--|       PM|   PM|
      E E E E E E E E   E E E E E E E E
|-||------------------|------------------||
|-||o-----------------|-----------------o||
|-||------------------|------------------||
|-||------------------|------------------||
|-||o-5-----5-------5-|-4-----4---------o||
|-||----6-5---5-3-2---|---3-2---2-0-6-7--||
|
|       PM|   PM--|       PM|   PM|
|     E E E E E E E E   E E E E E E E E
|-||------------------|------------------||
|-||o-----------------|-----------------o||
|-||------------------|------------------||
|-||--5-----5-------5-|-4-----4----------||
|-||o---6-5---5-3-2---|---3-2---2-0-6-7-o||
|-||------------------|------------------||


  Gtrs I, II
  PM--------|           PM--------|           PM--------|
  E E E E E E S S S S   E E E E E E S S S S   E E E E E E S S S S
|---------------------|---------------------|---------------------|
|---------------------|---------------------|---------------------|
|---------------------|---------------------|---------------------|
|-------------2S3S2S3-|-------------2S3S2S3-|-------------2S3S2S3-|
|-5-2-0-4-1-0-1S2S1S2-|-5-2-0-4-1-0-1S2S1S2-|-5-2-0-4-1-0-1S2S1S2-|
|-5-2-0-4-1-0---------|-5-2-0-4-1-0---------|-5-2-0-4-1-0---------|


 3/4                     4/4
  E E E E E E   H.        H    +E  E +Q     H    +E  Q.
|-------------|---------|-----------------|----------------|
|-------------|---------|-----------------|----------2-----|
|-------3-----|---------|-0----(0)-0-(0)--|-2----(2)-0-----|
|-----2---2---|---------|-1----(1)-0-(0)--|-1----(1)-2-----|
|-0-2-------1-|---------|-3----(3)-1-(1)--|-0----(0)-0-----|
|-------------|---------|-----------------|----------------|


 6/4                4/4                       5/4
                   Gtr I
                                               PM----|       PM------|
                     |-3-| |-3-| |-3-| |-3---------------------------|
  E E H.      H      E E E E E E E E E E E E   E E E E S S E E E E E
|------------------|-------------------------|------------------------|
|-3----------------|-------------------------|------------------------|
|-2----------------|-5-4-2-------------------|------------------------|
|-3----------------|-------5-4-2-------------|------------------------|
|------------------|-------------5-3-2-------|---------2-3-2----------|
|------------------|-------------------5-3-2-|-0-2-3-5-------5-3-2-0--|
|
|                  Gtr II
|                                              PM----|       PM------|
|                    |-3-| |-3-| |-3-| |-3---------------------------|
| W           H      E E E E E E E E E E E E   E E E E S S E E E E E
|------------------|-------------------------|------------------------|
|------------------|-------------------------|------------------------|
|------------------|-9-7-5-------------------|------------------------|
|------------------|-------9-7-5-9-7-5-------|------------------------|
|------------------|-------------------9-7-5-|---------2-3-2----------|
|------------------|-------------------------|-0-2-3-5-------5-3-2-0--|


 4/4                 5/4                     4/4
  Gtrs I, II
  PM--|       PM------------|       PM------------|
  E E E S S E E E E   E E E E S S E E E E E   E E  E E E E E E
|-------------------|-----------------------|------------------|
|-------------------|-----------------------|------------------|
|-------------------|-----------------------|------------------|
|-------------------|-----------------------|----------9---7-9-|
|-------3-5-3-------|---------5-7-5---------|--------7---7-----|
|-3-5-7-------7-5-3-|-0-5-7-8-------8-7-5-0-|-7-8-10-----------|


 5/4                          4/4
  PM-----|          PM---------------|            PM-------
  E E  E  E S  S E  E  E E E    E  E  E  S  S  E  E  E  E
|----------------------------|----------------------------|
|----------------------------|----------------------------|
|----------------------------|----------------------------|
|----------------------------|----------------------------|
|-----------9-10-9-----------|----------10-12-10----------|
|-0-8-10-12--------12-10-8-0-|-10-12-14----------14-12-10-|


 5/4
 ---------|            PM------|
  E  E  E  E  S  S  E  E  E  E E
|---------------------------------|
|---------------------------------|
|---------------------------------|
|---------------------------------|
|------------12-14-12-------------|
|-0-12-14-15----------15-14-12-0--|


 4/4                         5/4                           3/4
                          Gtr I
   PM---|
   E  E  E  E  E  E  E  E     E  E  E E  E E  E  E E  E  3x E  E  E E  E E
|-------------------------||-----------------------------||----------------|
|-------------------------||o---------------------------o||----------------|
|-------------------------||-----------------------------||----------------|
|-------------16----14-16-||-----------------------------||----------------|
|----------14----14-------||o---------------------------o||----------------|
|-14-15-17----------------||--0-15-19-0-17-0-15-19-0-17--||-0-15-19-0-17-0-|
|
|                         Gtr II
|  W                          E  E  E E  E E  E  E E  E  3x E  E  E E  E E
|-------------------------||-----------------------------||----------------|
|-------------------------||o---------------------------o||----------------|
|-------------------------||-----------------------------||----------------|
|-------------------------||-----------------------------||----------------|
|-------------------------||o---------------------------o||----------------|
|-------------------------||--0--3--7-0--5-0--3--7-0--5--||-0--3--7-0--5-0-|


 4/4
  Gtrs I, II
   E  E  E  E  E  E  E  E    E  E  E  E  E  E  E  E
|-------------------------|-------------------------|
|-------------------------|-------------------------|
|-------------------------|-------------------------|
|-14----14----12-14----14-|----12-14----14----12-14-|
|-------------------------|-------------------------|
|-12----12----10-12----12-|----10-12----12----10-12-|
|
| Gtr III
|  E  E  E  E  E  E  E  E    E  E  E  E  E  E  E  E
|-------------------------|-19-------17-------------|
|----------------17-20----|-------------------20----|
|----------16-------------|----19-17----17-16----16-|
|----14-------14-------17-|-------------------------|
|-------14----------------|-------------------------|
|-12----------------------|-------------------------|
|
| Gtr IV
|  W                         E  E  E  E  E  E  E  E
|-------------------------|-15-------14-------12----|
|-------------------------|-------------------------|
|-------------------------|----16-14----14-12----12-|
|-------------------------|-------------------------|
|-------------------------|-------------------------|
|-------------------------|-------------------------|


              Q=135
 2/4
   E  E  E  E    E  E  E  E
|-------------|-------------|
|-------------|-------------|
|-------------|-------------|
|----14----12-|-------------|
|-------------|-14-12-------|
|----12----10-|-------15-14-|
|
|  E  E  E  E    E  E  E  E
|-------------|-------------|
|----19-------|-------------|
|-------------|-------------|
|-19----19-17-|-17-16-------|
|-------------|-------19-17-|
|-------------|-------------|
|
|  E  E  E  E    E  E  E  E
|----10-------|-------------|
|-------------|-------------|
|-11----11-19-|--7----------|
|-------------|----10--9--7-|
|-------------|-------------|
|-------------|-------------|


 7/4                                2/4       5/8
   E E E E +Q   E E E  E +E  E E E   E E E E   E E E E E
|----------------------------------|---------|-----------|
|----------------------------------|---------|-----------|
|----------------------------------|---------|-----------|
|--------9-(9)------5--------------|---------|-----5---4-|
|------7--------0-3----5-(5)-------|-------9-|-0-3---5---|
|--0-0-----------------------5-3-2-|-0-0-7---|-----------|
|
|  W                H.               H         H       E
|----------------------------------|---------|-----------|
|----------------------------------|---------|-----------|
|----------------------------------|---------|-----------|
|----------------------------------|---------|-----------|
|-19-------------------------------|---------|-----------|
|----------------------------------|---------|-----------|
|
|  W                H.               H         H       E
|----------------------------------|---------|-----------|
|----------------------------------|---------|-----------|
|----------------------------------|---------|-----------|
|--9-------------------------------|---------|-----------|
|----------------------------------|---------|-----------|
|----------------------------------|---------|-----------|


 7/4                              2/4       4/4
  Gtr I
  E E E E +Q   E E E E +E  E E E   E E E E   E E E E E  E  E  E
|--------------------------------|---------|--------------------|
|--------------------------------|---------|--------------------|
|--------------------------------|---------|---------------9--7-|
|-------9-(9)------5-------------|-------9-|-----5---4--7-------|
|-----7--------0-3---5-(5)-------|-----7---|-0-3---5------------|
|-0-0----------------------5-3-2-|-0-0-----|--------------------|
|
| Gtr II
| E E E E +Q   E E E E +E  E E E   E E E E   E E E E E  E  E  E
|--------------------------------|---------|--------------------|
|--------------------------------|---------|--------------------|
|--------------------------------|---------|--------------12-11-|
|-------9-(9)------5-------------|-------9-|-----5---4-10-------|
|-----7--------0-3---5-(5)-------|-----7---|-0-3---5------------|
|-0-0----------------------5-3-2-|-0-0-----|--------------------|


 7/4                              2/4       5/8
  Gtrs I, II
  E E E E +Q   E E E E +E  E E E   E E E E   E E E E E
|--------------------------------|---------|-----------|
|--------------------------------|---------|-----------|
|--------------------------------|---------|-----------|
|-------9-(9)------5-------------|---------|-----5---4-|
|-----7--------0-3---5-(5)-------|-------9-|-0-3---5---|
|-0-0----------------------5-3-2-|-0-0-7---|-----------|


 7/4                              2/4                 4/4
  E E E E +Q   E E E E +E  E E E   E E E E   E E E E   Q  H.
|--------------------------------|---------|---------|----------|
|--------------------------------|---------|---------|----------|
|--------------------------------|---------|---------|-2--2-----|
|-------9-(9)------5-------------|---------|-----5---|-2--2-----|
|-----7--------0-3---5-(5)-------|-------9-|-0-3---5-|-0--0-----|
|-0-0----------------------5-3-2-|-0-0-7---|---------|----------|


   7/4
    Gtr V
    E  E   E   E   E   E   E   E  E   E   E   E   E   E   4x
||-----------------0--(0)-(0)-(0)(0)-(0)-(0)--0--(0)-(0)--||-|
||o--------8--(8)-(8)--8--(8)-(8)(8)--8--(8)-(8)--8--(8)-o||-|
||-------------0--(0)-(0)--0--(0)(0)-(0)--0--(0)-(0)--0---||-|
||--5S=7--(7)-(7)-(7)-(7)-(7)--5S=7--(7)-(7)-(7)-(7)-(7)--||-|
||o-0-(0)-(0)-(0)-(0)-(0)-(0)--0-(0)-(0)-(0)-(0)-(0)-(0)-o||-|
||--------------------------------------------------------||-|


    E  E   E    E    E    E    E    E   E    E    E    E    E    E   4x
||-------------------0---(0)--(0)--(0)-(0)--(0)--(0)---0---(0)--(0)--||
||o-------10--(10)-(10)--10--(10)-(10)(10)--10--(10)-(10)--10--(10)-o||
||-------------11--(11)-(11)--11--(11)(11)-(11)--11--(11)-(11)--11---||
||--7S=9--(9)--(9)--(9)--(9)--(9)---7S==9---(9)--(9)--(9)--(9)--(9)--||
||o-----------------------------------------------------------------o||
||--0-(0)-(0)--(0)--(0)---0---(0)---0--(0)--(0)--(0)--(0)--(0)--(0)--||


    Gtr V
     E  E   E   E   E    E   E   E   E   E   E   E    E   E   4x
||------------------0---(0)-(0)-(0)-(0)-(0)-(0)-(0)--(0)-(0)--||-|
||o---------8--(8)-(8)---8--(8)-(8)-(8)--8--(8)--7----5--(5)-o||-|
||--------------0--(0)--(0)--0--(0)-(0)-(0)--0--(0)--(0)--7---||-|
||---5S=7--(7)-(7)-(7)--(7)-(7)--5S==7--(7)-(7)-(7)--(7)-(7)--||-|
||o--0-(0)-(0)-(0)-(0)--(0)-(0)--0--(0)-(0)-(0)-(0)--(0)-(0)-o||-|
||------------------------------------------------------------||-|
|
|   Gtr VI
|    Q      Q       E    E   E   E  +E   E  +E   E    E   E   4x
||--10------7------(7)---7--(7)-10-(10)--7--(7)-(7)---7--(7)--||-|
||o--8------8------10--(10)--8---8--(8)--8--(8)-10--(10)--8--o||-|
||---9------9-------9---(9)--9---9--(9)--9--(9)--9---(9)--9---||-|
||------------------------------------------------------------||-|
||o----------------------------------------------------------o||-|
||------------------------------------------------------------||-|


    E  E   E    E    E    E    E    E   E    E    E    E    E    E    4x
||-------------------0---(0)--(0)--(0)-(0)--(0)--(0)---0---(0)--(0)---||
||o-------10--(10)-(10)--10--(10)-(10)(10)--10--(10)-(10)--10--(10)--o||
||-------------11--(11)-(11)--11--(11)(11)-(11)--11--(11)-(11)--11----||
||--7S=9--(9)--(9)--(9)--(9)--(9)---7S==9---(9)--(9)--(9)--(9)--(9)---||
||o------------------------------------------------------------------o||
||--0-(0)-(0)--(0)--(0)---0---(0)---0--(0)--(0)--(0)--(0)--(0)--(0)---||
|
|   W                                   H.                            4x
||--------------------------------------------------------------------||
||o------------------------------------------------------------------o||
||--------------------------------------------------------------------||
||--------------------------------------------------------------------||
||o------------------------------------------------------------------o||
||--------------------------------------------------------------------||


 4/4
  Gtr V
   E   E    E    E    E    E   +Q     E   E    E    E    E    E   E  E
|-------------------------12--(12)-|-------------------------10--------|
|----------10--(10)--10--(10)-(10)-|-----------8---(8)---8---(8)-13-12-|
|------9---(9)---9---(9)--(9)--(9)-|------7---(7)---7---(7)--(7)-------|
|-12-(12)-(12)-(12)-(12)-(12)-(12)-|-10-(10)-(10)-(10)-(10)-(10)-------|
|----------------------------------|-----------------------------------|
|----------------------------------|-----------------------------------|


     E   E    E    E    E    E    E    E     E   E    E    E    E    E    E    E
||----------------------------------------|---------------------------------------|
||o----------12--(12)-(12)-(12)--12--(12)-|----------12--(12)-(12)-(12)--12--(12)-|
||------12--(12)--12--(12)--12--(12)--12--|-----11--(11)--11--(11)--11--(11)--11--|
||--14-(14)-(14)-(14)--14--(14)-(14)-(14)-|-14-(14)-(14)-(14)--14--(14)-(14)-(14)-|
||o---------------------------------------|---------------------------------------|
||----------------------------------------|---------------------------------------|


 6/4
   E   E    E    E    E    E    E    E    E    E    E    E
|-----------------------------------------------------------|
|----------12--(12)-(12)-(12)--12--(12)-(12)-(12)--12--(12)-|
|-----11--(11)--11--(11)--11--(11)--11--(11)--11--(11)--11--|
|-13-(13)-(13)-(13)--13--(13)-(13)-(13)--13--(13)-(13)-(13)-|
|-----------------------------------------------------------|
|-----------------------------------------------------------|


 4/4
   E   E    E    E    E    E    E    E     E   E    E    E    E    E    E    E
|---------------------------------------|---------------------------------------|
|----------11--(11)-(11)-(11)--11--(11)-|----------11--(11)-(11)-(11)--11--(11)-|
|-----11--(11)--11--(11)--11--(11)--11--|-----10--(10)--10--(10)--10--(10)--10--|
|-13-(13)-(13)-(13)--13--(13)-(13)-(13)-|-13-(13)-(13)-(13)--13--(13)-(13)-(13)-|
|---------------------------------------|---------------------------------------|
|---------------------------------------|---------------------------------------|


 6/4
   E   E    E    E    E    E    E    E    E    E    E    E
|-----------------------------------------------------------|
|----------11--(11)-(11)-(11)--11--(11)-(11)-(11)--11--(11)-|
|-----10--(10)--10--(10)--10--(10)--10--(10)--10--(10)--10--|
|-12-(12)-(12)-(12)--12--(12)-(12)-(12)--12--(12)-(12)-(12)-|
|-----------------------------------------------------------|
|-----------------------------------------------------------|


 4/4
   E   E    E    E    E    E    E    E     E   E    E    E    E    E    E    E
|---------------------------------------|---------------------------------------|
|----------10--(10)-(10)-(10)--10--(10)-|----------10--(10)-(10)-(10)--10--(10)-|
|-----10--(10)--10--(10)--10--(10)--10--|------9---(9)---9---(9)---9---(9)---9--|
|-12-(12)-(12)-(12)--12--(12)-(12)-(12)-|-12-(12)-(12)-(12)--12--(12)-(12)-(12)-|
|---------------------------------------|---------------------------------------|
|---------------------------------------|---------------------------------------|


 6/4
   E   E    E    E    E    E    E    E    E    E    E    E
|------------------------------------------------------------||
|----------10--(10)-(10)-(10)--10--(10)-(10)-(10)--10--(10)-o||
|------9---(9)---9---(9)---9---(9)---9---(9)---9---(9)---9---||
|-11-(11)-(11)-(11)--11--(11)-(11)-(11)--11--(11)-(11)-(11)--||
|-----------------------------------------------------------o||
|------------------------------------------------------------||


 4/4
   E   E    E    E    E    E    E    E     E   E    E    E    E    E    E    E
|---------------------------------------|---------------------------------------|
|----------10--(10)-(10)-(10)--10--(10)-|----------10--(10)-(10)-(10)--10--(10)-|
|------9---(9)---9---(9)---9---(9)---9--|------8---(8)---8---(8)---8---(8)---8--|
|-10-(10)-(10)-(10)--10--(10)-(10)-(10)-|-10-(10)-(10)-(10)--10--(10)-(10)-(10)-|
|---------------------------------------|---------------------------------------|
|---------------------------------------|---------------------------------------|


  E  E   E    E    E    E   E  E   W
|--------------------------------|-8--------|
|-------10--(10)-(10)-(10)-10----|-7--------|
|----8--(8)---8---(8)---8--(8)---|-8--------|
|-9-(9)-(9)--(9)---9---(9)-(9)---|-7--------|
|--------------------------------|----------|
|--------------------------------|----------|


    E E  E E E E E  E   E E  E E E E E  E
||-------------7------|------------7------|
||o--------------8----|--------------8----|
||------11---------11-|-----11---------11-|
||----9----9----------|---9----9----------|
||o-7--------7--------|-7--------7--------|
||--------------------|-------------------|


                                               Q
  E  E E  E E E E  E   E  E E  E E  E E  E  6x
|-------------7------|----------------7-----||-|
|---------------8----|-------------10---10-o||-|
|------7----------11-|------9---------------||-|
|---10---10----------|---10---10------------||-|
|-7---------7--------|-7---------7---------o||-|
|--------------------|----------------------||-|


 =140
    Gtrs I, II
    E  E E  E  E  E E  E    E  E  E  E E  E E  E
||-----------------------|------------------------|
||o----------------------|------------------------|
||-----------------------|------------------------|
||-----------------------|------------------------|
||o-----------12---------|-14---------------------|
||--0-12-0-10----12-0-12-|----12-10-12-0-12-0-10--|


  Gtrs I, II
   E  E  E  E  E  E E  E   E E  E  E E  E  E  E
|------------------------|-----------------------||
|------------------------|----------------------o||
|------------------------|-----------------------||
|------------------------|-----------------------||
|-12----14---------------|-----10-12------15----o||
|----12----12-10-12-0-12-|-0-8-------0-12----10--||
|
|                                               Gtr
|  W                       W
|------------------------|-----------------------||
|------------------------|----------------------o||
|------------------------|-----------------------||
|------------------------|-----------------------||
|------------------------|----------------------o||
|------------------------|-----------------------||


   E  E   E  E   E  E E  E    E   E  E   E E  E  E  E
|--------------------------|---------------------------|
|--------------------------|---------------------------|
|--------------------------|---------------------------|
|--------------------------|---------------------------|
|---------------12---------|-14------------------------|
|--0-12---0-10-----12-0-12-|-----12-10--12-0-12--0-10--|
|
| III
|  E  E   E  E   Q    Q      +Q      Q.       E  E  E
|--0-(0)--0-(0)--0----0----|-(0)-----0--------0--0-(0)-|
|-12h13--12p10--12----5----|-(5)----13-------12-10h12--|
|--------------------------|---------------------------|
|--------------------------|---------------------------|
|--------------------------|---------------------------|
|--------------------------|---------------------------|


  Gtrs I, II
   E  E   E  E  E  E  E  E    E  E  E  E  E   E       E   E
|--------------------------|--------------------------------|
|--------------------------|--------------------------------|
|--------------------------|--------------------------------|
|--------------------------|--------------------------------|
|-12-----14----------------|-------10-12-------------15-----|
|----12-----12-10-12--0-12-|--0--8--------0--12----------10-|
|
| Gtr III
|  E  E   H           E  E    E  E  E  E  E  +E      +Q
|--0-(0)--0----------20----|----19--------------------------|
|-12s17--17-------------17-|-15----15-13-12-(12)b13r(12)----|
|--------------------------|--------------------------------|
|--------------------------|--------------------------------|
|--------------------------|--------------------------------|
|--------------------------|--------------------------------|
|
| Gtr IV
|  H.                 E  E    E  E  E  E  E  +E      +Q
|--------------------17----|----15--------------------------|
|-----------------------13-|-12----12-10--8--(8)b10r=(8)----|
|--------------------------|--------------------------------|
|--------------------------|--------------------------------|
|--------------------------|--------------------------------|
|--------------------------|--------------------------------|


   E  E   E  E   E  E E  E    E   E  E   E E  E  E  E
|--------------------------|---------------------------|
|--------------------------|---------------------------|
|--------------------------|---------------------------|
|--------------------------|---------------------------|
|---------------12---------|-14------------------------|
|--0-12---0-10-----12-0-12-|-----12-10--12-0-12--0-10--|
|
|  E  E   E  E   Q    Q      +Q      Q.       E  E  E
|--0-(0)--0-(0)--0----0----|-(0)-----0--------0--0-(0)-|
|-12h13--12p10--12----5----|-(5)----13-------12-10h12--|
|--------------------------|---------------------------|
|--------------------------|---------------------------|
|--------------------------|---------------------------|
|--------------------------|---------------------------|
|
|  W                          W
|--------------------------|---------------------------|
|--------------------------|---------------------------|
|--------------------------|---------------------------|
|--------------------------|---------------------------|
|--------------------------|---------------------------|
|--------------------------|---------------------------|


   E   E  E  E  E  E  E  E    E  E  E  E  E   E       E   E
|--------------------------|--------------------------------|
|--------------------------|--------------------------------|
|--------------------------|--------------------------------|
|--------------------------|--------------------------------|
|-12-----14----------------|-------10-12-------------15-----|
|-----12----12-10-12--0-12-|--0--8--------0--12----------10-|
|
|  E   E  H           E  E    E  E  E  E  E  +E      +Q
|--------------------20----|----19--------------------------|
|-17--------------------17-|-15----15-13-12-(12)b13r(12)----|
|--------------------------|--------------------------------|
|-----14-14----------------|--------------------------------|
|--------------------------|--------------------------------|
|--------------------------|--------------------------------|
|
|  H.                 E  E    E  E  E  E  E  +E      +Q
|--------------------17----|----15--------------------------|
|-----------------------13-|-12----12-10--8--(8)b10r=(8)----|
|--------------------------|--------------------------------|
|--------------------------|--------------------------------|
|--------------------------|--------------------------------|
|--------------------------|--------------------------------|


   6/4
    E E E E E E E E E E E E
||---------------------------|
||o--------------------------|
||---------------------------|
||--------7---------4---5-7--|
||o-2-2-2-5-7-2-2-2-2---3-5--|
||--0-0-0---5-0-0-0---0------|
|
|   W               H
||---------------------------|
||o--------------------------|
||---------------------------|
||---------------------------|
||o--------------------------|
||---------------------------|
|
|   W               H
||---------------------------|
||o--------------------------|
||---------------------------|
||---------------------------|
||o--------------------------|
||---------------------------|


                                        Q=150
 5/4                                       3/4
  Gtrs I, II
                                              PM|   PM|     PM|   PM|
  E E E E E E E E E E   Q E E Q E E E E  4x E E E E E E   E E E E E E
|---------------------|------------------||-------------|-------------|
|---------------------|-----------------o||-------------|-------------|
|---------------------|------------------||-------------|-------------|
|-------7-----4---5-7-|-5-5-5-5-5-5-5-7--||-7-----6-----|-5-----4-----|
|-2-2-2-5-7-2-2---3-5-|-3-3-3-3-3-3-3-5-o||-5-6-5-4-5-4-|-3-4-3-2-3-2-|
|-0-0-0---5-0---0-----|-3-3-3-3-3-3-3-5--||---4-3---3-2-|---2-1---1-0-|


   4/4
    PM--------|             PM|            PM----------|
    E E E E E E E E   E E E E E E +Q     E E E E +S  S E Q
||------------------|------------------|--------------------|
||o-----------------|------------------|--------------------|
||------------------|------------------|--------------------|
||----6-5-----4-7-8-|---8-7---5-4-(4)--|---5-4-3-(3)-3-3-6--|
||o-2-4-3---3-2-5-6-|---6-5---5-3-(3)--|---3-2-3-(3)-3-3-5--|
||--0-4-3-0-1-2-5-6-|---6-5-0-3-2-(2)--|---3-2-1-(1)-1-1-4--|


                                    5/4
  Gtr I
   T      T          T      T
   S S S  S S S S S  S S S  S S E.   E E E E E E E E  E   E   3x
|----------------------------------|--------------------------||
|----------------------------------|---------------7-(7)-(7)-o||
|----------------------------------|------------------5--(5)--||
|----------------------------------|-5-----4--------------7---||
|-15p9p8-14p8p7--------------------|-3-4-3-2-3-2-------------o||
|---------------9p8-15p9p8-14p8p7\-|---2-1---1-0--------------||
|
| Gtr II
|  T      T     T    T      T
|  S S S  S S S S S  S S S  S S E.   E E E E E E E E  E   E   3x
|----------------------------------|--------------------------||
|----------------------------------|-------------------------o||
|----------------------------------|--------------------------||
|----------------------------------|-5-----4-------1-(1)-(1)--||
|-12p6p5-11p5p4--------------------|-3-4-3-2-3-2------0--(0)-o||
|---------------6p5-12p6p5-11p5p4\-|---2-1---1-0----------2---||


 4/4
  Gtrs I, II
  PM--------|             PM|            PM----------|
  E E E E E E E E   E E E E E E +Q     E E E E +S  S E Q
|-----------------|------------------|--------------------|
|-----------------|------------------|--------------------|
|-----------------|------------------|--------------------|
|---6-5-----4-7-8-|---8-7---5-4-(4)--|---5-4-3-(3)-3-3-6--|
|-2-4-3---3-2-5-6-|---6-5---5-3-(3)--|---3-2-3-(3)-3-3-5--|
|-0-4-3-0-1-2-5-6-|---6-5-0-3-2-(2)--|---3-2-1-(1)-1-1-4--|


                                    5/4
  Gtr I
   T      T          T      T                      PM|
   S S S  S S S S S  S S S  S S E.   E E E E E E E S S Q
|----------------------------------|----------------------|
|----------------------------------|----------------------|
|----------------------------------|----------------------|
|----------------------------------|-5-----4-----------4--|
|-15p9p8-14p8p7--------------------|-3-4-3-2-3-2-------3--|
|---------------9p8-15p9p8-14p8p7\-|---2-1---1-0---0-0----|
|
| Gtr II
|  T      T     T    T      T                      PM|
|  S S S  S S S S S  S S S  S S E.   E E E E E E E S S Q
|----------------------------------|----------------------|
|----------------------------------|----------------------|
|----------------------------------|----------------------|
|----------------------------------|-5-----4-----------4--|
|-12p6p5-11p5p4--------------------|-3-4-3-2-3-2-------3--|
|---------------6p5-12p6p5-11p5p4\-|---2-1---1-0---0-0----|


 4/4
  Gtrs I, II
  W
|----------------------------------------------|
|----------------------------------------------|
|----------------------------------------------|
|-4--------------------------------------------|
|-3--------------------------------------------|
|-2--------------------------------------------|
|
| Gtr III
| S  S  S S  S  S  S S  S  S  S  S  S  S  S  S
|----------------------------------------------|
|--------------------------------9h11h13p11p=9-|
|---------5h=7h=9p=7p5h=7h=9h11----------------|
|-4h=6h=8--------------------------------------|
|----------------------------------------------|
|----------------------------------------------|
|
| Gtr IV
| S  S  S S  S  S  S S  S  S  S  S  S  S  S  S
|----------------------------------------------|
|-------------------------------13h15h17p15p13-|
|---------9h11h13p11p9h11h13h15----------------|
|-8h10h12--------------------------------------|
|----------------------------------------------|
|----------------------------------------------|


                                                  1/8
                                   PM--------------|
  +H.                         +S   S  S  S         S S
|------------------------------------------------|------|
|------------------------------------------------|------|
|------------------------------------------------|------|
|-(4)-------------------------(4)----------------|------|
|-(3)-------------------------(3)----------------|------|
|-(2)-------------------------(2)--6--4--2-------|-0----|
|
|  S  S  S S  S  S  S S  S  S  S   S  S  S  S  S   E
|------------------------------------------------|------|
|----------------------------------9h11h13p11p=9-|------|
|----------5h=7h=9p=7p5h=7h=9h11-----------------|------|
|--4h=6h=8---------------------------------------|------|
|------------------------------------------------|------|
|------------------------------------------------|------|
|
|  S  S  S S  S  S  S S  S  S  S   S  S  S  S  S   E
|------------------------------------------------|------|
|---------------------------------13h15h17p15p13-|------|
|----------9h11h13p11p9h11h13h15-----------------|------|
|--8h10h12---------------------------------------|------|
|------------------------------------------------|------|
|------------------------------------------------|------|


   4/4
    Gtrs I, II
    PM--------------------------|     PM--------------------------|
    S S S S S S S S S S S S S S S S   S S S S S S S S S S S S S S S S  5x
||----------------------------------|----------------------------------||
||o---------------------------------|---------------------------------o||
||----------------------------------|----------------------------------||
||--4---4---4-4---4---4-4---4-4-4---|-4---4---4-4---4-4---4-4---4-4----||
||o-3---3---3-3---3---3-3---3-3-3---|-3---3---3-3---3-3---3-3---3-3---o||
||--2---2---2-2---2---2-2---2-2-2---|-2---2---2-2---2-2---2-2---2-2----||


  Gtrs I, II
  PM-------------------------------------|
  S  S  S S  S  S  S S  S  S  S  S  S  S  S  S
|----------------------------------------------|
|----------------------------------------------|
|----------------------------------------------|
|-4-----4----4--4----4-----4--4-----4--4--4----|
|-3-----3----3--3----3-----3--3-----3--3--3----|
|-2-----2----2--2----2-----2--2-----2--2--2----|
|
| Gtr III
| S  S  S S  S  S  S S  S  S  S  S  S  S  S  S
|----------------------------------------------|
|--------------------------------9h11h13p11p=9-|
|---------5h=7h=9p=7p5h=7h=9h11----------------|
|-4h=6h=8--------------------------------------|
|----------------------------------------------|
|----------------------------------------------|
|
| Gtr IV
| S  S  S S  S  S  S S  S  S  S  S  S  S  S  S
|----------------------------------------------|
|-------------------------------13h15h17p15p13-|
|---------9h11h13p11p9h11h13h15----------------|
|-8h10h12--------------------------------------|
|----------------------------------------------|
|----------------------------------------------|


                                                1/4
  PM----------------------------------------|
  S  S  S S  S  S  S S  S  S  S  S  S  S  S  S   S S E
|----------------------------------------------|----------|
|----------------------------------------------|----------|
|----------------------------------------------|----------|
|-4-----4----4--4----4--4-----4--4-------------|----------|
|-3-----3----3--3----3--3-----3--3-------------|----------|
|-2-----2----2--2----2--2-----2--2-----6--4--2-|-0--------|
|
| S  S  S S  S  S  S S  S  S  S  S  S  S  S  S   Q
|----------------------------------------------|----------|
|--------------------------------9h11h13p11p=9-|----------|
|---------5h=7h=9p=7p5h=7h=9h11----------------|----------|
|-4h=6h=8--------------------------------------|----------|
|----------------------------------------------|----------|
|----------------------------------------------|----------|
|
| S  S  S S  S  S  S S  S  S  S  S  S  S  S  S   Q
|----------------------------------------------|----------|
|-------------------------------13h15h17p15p13-|----------|
|---------9h11h13p11p9h11h13h15----------------|----------|
|-8h10h12--------------------------------------|----------|
|----------------------------------------------|----------|
|----------------------------------------------|----------|


 4/4                                                 3/4
  Gtrs I, II
                         |-3--|  |-3-|  |-3-| |-3-|
   E  E  E  E E E  Q     E  E E  E E E  E E E E E E   E E E E E E
|---------------------|-----------------------------|-------------|
|--6---------------8--|-----------------------------|-------------|
|-----2--4--6-1----6--|-----------------------------|-----4-------|
|------------------7--|--9-----------5--7-----------|-2---4-3-2---|
|---------------------|-----9------7------6-------3-|-2---2-3-2---|
|---------------------|-------7--8----------5-0-2---|-0-----1-0---|
|
| Gtr III
|                        |-3--|  |-3-|  |-3-| |-3-|
|  E  E  E  E E E  Q     E  E E  E E E  E E E E E E   E E H
|-----------------15--|-----------------------------|-------------|
|-14--------------14--|-12-----------8-10-----------|-------------|
|----10-12-14-9---14--|----11------9------8-------8-|-9-----------|
|---------------------|-------9-10----------7-5-7---|-------------|
|---------------------|-----------------------------|-------------|
|---------------------|-----------------------------|-------------|


    Q=200
   7/4                                 6/4
    Gtr I
     E  E  E  E H       E  E  E E Q      E  E Q   E  E Q   E  E Q
||------------------------------------|------------------------------||
||o-10-10-10-10-----------10-10-------|-10-10-------10-------10-----o||
||---9--9--9--9------------9--9-------|--9--9--------9--------9------||
||---9--9--9--9------------9--9-------|--9--9--------9--------9------||
||o--7--7--7--7------------7--7-------|--7--7--------7--------7-----o||
||------------------------------------|------------------------------||
|
|   Gtr II
|                 PM----------------|         PM------------------|
|    H          E E E E Q     E E E E    Q    E E E  E E E E  E E E
||------------------------------------|------------------------------||
||o-----------------------------------|-----------------------------o||
||------------------------------------|------------------------------||
||------------------------------------|------------------------------||
||o---------------2-2-2---------2-2---|-------2---2------2-2----2---o||
||----------------0-0-0---------0-0---|-------0---0------0-0----0----||


 7/4                                 6/4
  Gtrs I, II
                PM--|         PM--|         PM--|    PM--|    PM|
   E  E  E  E E E E E E  E  E E E E    E  E E E E  E E E E  E E E
|-----------------------------------|-----------------------------|
|-10-10-10-10-----------10-10-------|-10-10-------10-------10-----|
|--9--9--9--9------------9--9-------|--9--9--------9--------9-----|
|--9--9--9--9------------9--9-------|--9--9--------9--------9-----|
|--7--7--7--7---2-2-2----7--7-2-2---|--7--7-2---2--7---2-2--7-2---|
|---------------0-0-0---------0-0---|-------0---0------0-0----0---|


 7/4                                 6/4
                PM--|         PM--|         PM----------------|
   E  E  E  E E E E E E  E  E E E E    E  E E E E E E E E E E E
|-----------------------------------|---------------------------|
|-10-10-10-10-----------10-10-------|-10-10---------------------|
|--9--9--9--9------------9--9-------|--9--9---------------------|
|--9--9--9--9------------9--9-------|--9--9---------------------|
|--7--7--7--7---2-2-2----7--7-2-2---|--7--7-2---2-2---2-2-2-2---|
|---------------0-0-0---------0-0---|-------0---0-0---0-0-0-0---|


 4/4
  Gtr I
                     PM---------------------------------
  E E E  E E E E E   E E E E E E E E   E E E E E E E E
|------------------|-----------------|-----------------|
|------------------|-----------------|-----------------|
|------------------|-----------------|-----------------|
|------------------|-----------------|-----------------|
|-1------2-5-------|-1-1-1-1---1-1-1-|---1-1-1-1---1-1-|
|---3-4------6-1-4-|-0-0-0-0---0-0-0-|---0-0-0-0---0-0-|
|
| Gtr II
| PM                 PM---------------------------------
| E E H.             E E E E E E E E   E E E E E E E E
|------------------|-----------------|-----------------|
|------------------|-----------------|-----------------|
|------------------|-----------------|-----------------|
|------------------|-----------------|-----------------|
|-1----------------|-1-1-1-1---1-1-1-|---1-1-1-1---1-1-|
|-0----------------|-0-0-0-0---0-0-0-|---0-0-0-0---0-0-|


 -------------------|
  E E E E E E E E   E E E E E E E E
|-----------------|-------------------|
|-----------------|-------------------|
|-----------------|-------------------|
|-----------------|-------------------|
|-1---1-1---1-1-1-|-1---1-----2-5-----|
|-0---0-0---0-0-0-|-0-----3-4-----6---|
|
|-------------------|
| E E E E E E E E   E E E E E E E E
|-----------------|-------------------|
|-----------------|-------------------|
|-----------------|-------------------|
|-----------------|-------------------|
|-1---1-1---1-1-1-|-1---1-----2-5-----|
|-0---0-0---0-0-0-|-0-----3-4-----6---|


  Gtrs I, II
  PM----------------------------------------------|
  E E E E E E E E   E E E E E E E E   E E E E E E E E   E E E E E E E E
|-----------------|-----------------|-----------------|-----------------|
|-----------------|-----------------|-----------------|-----------------|
|-----------------|-----------------|-----------------|-----------------|
|-----------------|-----------------|-----------------|-----------------|
|-1-1-1-1---1-1-1-|---1-1-1-1---1-1-|-1---1-1---1-1---|-1-----2-5-------|
|-0-0-0-0---0-0-0-|---0-0-0-0---0-0-|-0---0-0---0-0---|---3-4-----6-1-4-|


  PM--------------------------------------------------|
                            |-3-|
  E E E E E E E E   E E E E Q Q Q   E E E E E E E E   E E E E E E E E
|-----------------|---------------|-----------------|------------------|
|-----------------|---------------|-----------------|------------------|
|-----------------|---------------|-----------------|------------------|
|-----------------|---------------|-----------------|------------------|
|-1-1-1-1---1-1-1-|---1-1-1-1-1-1-|-1---1-1---1-1-1-|-1---1-----2-5----|
|-0-0-0-0---0-0-0-|---0-0-0-0-0-0-|-0---0-0---0-0-0-|-0-----3-4-----6--|


  Gtr I
  PM-------------------------------
                            |-3-|
  E E E E E E E E   E E E E Q Q Q
|-----------------|---------------|
|-----------------|---------------|
|-----------------|---------------|
|-----------------|---------------|
|-1-1-1-1---1-1-1-|---1-1-1-1-1-1-|
|-0-0-0-0---0-0-0-|---0-0-0-0-0-0-|
|
| Gtr II
| PM-------------------------------
|                           |-3-|
| E E E E E E E E   E E E E Q Q Q
|-----------------|---------------|
|-----------------|---------------|
|-----------------|---------------|
|-----------------|---------------|
|-1-1-1-1---1-1-1-|---1-1-1-1-1-1-|
|-0-0-0-0---0-0-0-|---0-0-0-0-0-0-|


                   6/4
 -------------|
  E E E E E E E E   E E E  E E E   E E E E E E
|-----------------|-----------------------------|
|-----------------|-----------------------------|
|-----------------|-----------------------------|
|-----------------|-9----------5---7------------|
|-1---1-1---1-1---|---9------7-------6-------3--|
|-0---0-0---0-0---|-----7--8-----------5-0-2----|
|
|-------------|
| E E E E E E E E   E E E  E E S S Q   Q   Q
|-----------------|-----------------------------|
|-----------------|-----------------------------|
|-----------------|-----------------------------|
|-----------------|-9-----10-------7------------|
|-1---1-1---1-1---|-9-----10-------6-------3----|
|-0---0-0---0-0---|-7------8---3-0-5---2--------|


  Q=180
 3/4           4/4                       3/4
                                          PM
                |-3-| |-3-| |-3-| |-3-|
  E E E E E E   E E E E E E E E E E E E   E E E E E E
|-------------|-------------------------|-------------|
|-------------|-------------------------|-----5-3-----|
|-----------4-|-5-4-2-------------------|---------5-4-|
|---4-5---5---|-------5-4-2-------------|-------------|
|-7-----7-----|-------------5-3-2-------|-2-----------|
|-------------|-------------------5-3-2-|-0-----------|
|
|                                         PM
|               |-3-| |-3-| |-3-| |-3-|
| E E H         E E E E E E E E E E E E   E E E E E E
|-------------|-------------------------|-------------|
|-------------|-------------------------|-------------|
|-------------|-9-7-5-------------------|-------------|
|-------------|-------9-7-5-9-7-5-------|-----5-4-----|
|-2-----------|-------------------9-7-5-|-2-------7-5-|
|-0-----------|-------------------------|-0-----------|


 5/4                     4/4                 5/4
  Gtrs I, II
  PM----|       PM------------|       PM------------|       PM----|
  E E E E S S E E E E E   E E E S S E E E E   E E E E S S E E E E E
|-----------------------|-------------------|------------------------|
|-----------------------|-------------------|------------------------|
|-----------------------|-------------------|------------------------|
|-----------------------|-------------------|------------------------|
|---------2-3-2---------|-------3-5-3-------|---------5-7-5----------|
|-0-2-3-5-------5-3-2-0-|-3-5-7-------7-5-3-|-0-5-7-8-------8-7-5-0--|


 4/4                9/8                     4/4
  PM--|              PM----|                 PM-----|
  E E  E E E E E E   E E E  E S S E  E E E   E E  E  E S  S E  E  E
|------------------|-----------------------|------------------------|
|------------------|-----------------------|------------------------|
|------------------|-----------------------|------------------------|
|----------9---7-9-|-----------------------|------------------------|
|--------7---7-----|----------7-9-7-10-7---|-----------9-10-9-12----|
|-7-8-10-----------|-0-7-8-10------------7-|-0-8-10-12-----------10-|


 7/8                      3/4                   2/4
  PM------|                PM------|             PM------|
  E  E  E  E  S  S  E  E   E  E  E  E  S  S  E   E  E  E  E
|------------------------|---------------------|------------|
|------------------------|---------------------|------------|
|------------------------|---------------------|------------|
|------------------------|---------------------|------------|
|------------10-12-10-12-|------------12-14-12-|------------|
|-0-10-12-14-------------|-0-12-14-15----------|-0-14-15-17-|


   3/4              3/8        4/4
    E  E  E E  E E    E  E  E   E  E  E E  E E  E  E
||-----------------|----------|-----------------------||
||o----------------|----------|----------------------o||
||-----------------|----------|-----------------------||
||-----------------|----------|-----------------------||
||o----------------|----------|----------------------o||
||--0-15-19-0-17-0-|-10-12-14-|-0-15-19-0-17-0-10-14--||


   3/4              7/8
    Gtr I
    E  E  E E  E E    E  E  E  E E  E  E
||-----------------|---------------------|
||o----------------|---------------------|
||-----------------|---------------------|
||-------16--------|----16----14------12-|
||o---14------15---|-14----12------10----|
||--0-------0----0-|-------------0-------|
|
|   Gtr II
|   E  E  E E  E E    E  E  E  E E  E  E
||-----------------|---------------------|
||o----------------|---------------------|
||-----------------|---------------------|
||-----------------|---------------------|
||o----------------|---------------------|
||--0-15-19-0-17-0-|-15-19-14-17-0-12-15-|


 3/4
  E  E  E E  E E    E  E  E  E  E  E
|----------------|--------------------||
|----------------|-------------------o||
|----------------|--------------------||
|------16--------|----16----14----12--||
|---14------15---|-14----12----10----o||
|-0-------0----0-|--------------------||
|
| E  E  E E  E E    E  E  E  E  E  E
|----------------|--------------------||
|----------------|-------------------o||
|----------------|--------------------||
|----------------|--------------------||
|----------------|-------------------o||
|-0-15-19-0-17-0-|-15-19-14-17-12-15--||


 7/8
  Gtrs I, II
   E  E E  E  E  E  E    E  E E  E  E  E  E
|---------------------|---------------------|
|---------------------|---------------------|
|---------------------|---------------------|
|------------------14-|------------------14-|
|---------------12----|---------------12----|
|-12-14-0-12-15-------|-12-14-0-12-15-------|


                       3/4
   E  E E  E  E  E  E    E  E  E  E  E  E
|---------------------|-------------------|
|---------------------|-------------------|
|---------------------|-------------------|
|------------------14-|-------------------|
|---------------12----|-15-14-12----------|
|-12-14-0-12-15-------|----------15-14-12-|


                                        G
   E  E  E  E  E  E    E  E  E  E  E  E
|-------------------|-------------------|
|-------------------|-------------------|
|-17-16-14----------|-------------------|
|----------17-16-14-|-------------------|
|-------------------|-15-14-12----------|
|-------------------|----------15-12-14-|


   4/4
 tr I
    W          +W           W          W
||--0--------|-(0)--------|-0--------|-0-----||
||o-0--------|-(0)--------|-0--------|-0----o||
||--0--------|-(0)--------|-0--------|-2-----||
||--2--------|-(2)--------|-2--------|-2-----||
||o-2--------|-(2)--------|-3--------|-0----o||
||--0--------|-(0)--------|----------|-------||


    Gtr I
    W                 +W
||--0---------------|-(0)-----------------|
||o-0---------------|-(0)-----------------|
||--0---------------|-(0)-----------------|
||--2---------------|-(2)-----------------|
||o-2---------------|-(2)-----------------|
||--0---------------|-(0)-----------------|
|
|   Gtr II
|   E E  E E E E Q    +Q   E   E  +H
||-------------7----|---------------------|
||o--------------8--|-(8)-(8)-(8)-(8)-----|
||------11---7------|------7---9--(9)-----|
||----9----9--------|---------------------|
||o-7---------------|---------------------|
||------------------|---------------------|


  W                   W
|-0-----------------|-0------------------||
|-0-----------------|-0-----------------o||
|-0-----------------|-2------------------||
|-2-----------------|-2------------------||
|-3-----------------|-0-----------------o||
|-------------------|--------------------||
|
| E  E E  E E Q   E   E  E E  E  E  Q.
|-----------7-------|--------------------||
|-------------8-----|-----------10-12---o||
|------7---------11-|------9-------------||
|---10---10---------|---10---10----------||
|-7-----------------|-7-----------------o||
|-------------------|--------------------||


    E E  E E E E +Q      +W
||-------------0-(0)---|-(0)------------------|
||o------------0-(0)---|-(0)------------------|
||-------------0-(0)---|-(0)------------------|
||-------------2-(2)---|-(2)------------------|
||o-2-2--2-2-2-2-(2)---|-(2)------------------|
||--0-0--0-0-0-0-(0)---|-(0)------------------|
|
|   E E  E E E E  E  E    E  E E  E E E  E  E
||---------------------|--7------10-----10-12-|
||o------------8-10----|-----8------8---------|
||------11---7-------9-|-------9------9-------|
||----9----9-----------|----------------------|
||o-7------------------|----------------------|
||---------------------|----------------------|


   E E E E H          E E E E  H
|----------0-------|-----------0------------||
|----------0-------|-----------0-----------o||
|----------0-------|-----------2------------||
|--2-2-2-2-2-------|--2-2-2-2--2------------||
|--3-3-3-3-3-------|--0-0-0-0--0-----------o||
|------------------|------------------------||
|
|  E E E E E E E E    E E E E  E  E  E  E
|-12-----8-7-------|------------------------||
|----8-------8-----|----------12-13-10-12--o||
|------9-------7-9-|--------9---------------||
|------------------|-10-9-7-----------------||
|------------------|-----------------------o||
|------------------|------------------------||


    Gtr I
    E E  E E E E  E E   E E E  E E E  E  E
||--0-0--0-0-0-0--0-0-|-0-0-0--0-0-0--0--0-|
||o-0-0--0-0-0-0--0-0-|-0-0-0--0-0-0--0--0-|
||--0-0--0-0-0-0--0-0-|-0-0-0--0-0-0--0--0-|
||--2-2--2-2-2-2--2-2-|-2-2-2--2-2-2--2--2-|
||o-2-2--2-2-2-2--2-2-|-2-2-2--2-2-2--2--2-|
||--0-0--0-0-0-0--0-0-|-0-0-0--0-0-0--0--0-|
|
|   Gtr II
|   E E  E E E E  E E   E E E  E E E  E  E
||--------------------|-7-----10-----10-12-|
||o------------8-10---|---8------8---------|
||------11---7------9-|-----9------9-------|
||----9----9----------|--------------------|
||o-7-----------------|--------------------|
||--------------------|--------------------|
|
|   Gtr III
|   E E  E E E E  E E   E E E  E E E  E  E
||--3-0--5-7----------|-3------2------2--3-|
||o----------7-0--3-0-|---5-0----3-0-------|
||--------------------|--------------------|
||--------------------|--------------------|
||o-------------------|--------------------|
||--------------------|--------------------|


   E E E E E E E E    E E E E  E  E  E  E
|--0-0-0-0-0-0-0-0-|--0-0-0-0--0--0--0--0---||
|--0-0-0-0-0-0-0-0-|--0-0-0-0--0--0--0--0--o||
|--0-0-0-0-0-0-0-0-|--2-2-2-2--2--2--2--2---||
|--2-2-2-2-2-2-2-2-|--2-2-2-2--2--2--2--2---||
|--3-3-3-3-3-3-3-3-|--0-0-0-0--0--0--0--0--o||
|------------------|------------------------||
|
|  E E E E E E E E    E E E E  E  E  E  E
|-12-----8-7-------|------------------------||
|----8-------8-----|----------12-13-10-12--o||
|------9-------7-9-|--------9---------------||
|------------------|-10-9-7-----------------||
|------------------|-----------------------o||
|------------------|------------------------||
|
|  E E E E E E E E    E E E E  E  E  E  E
|--7-0-3-5-----2-3-|------------------------||
|----------5-0-----|--5-0-7-0--8--0--7--8--o||
|------------------|------------------------||
|------------------|------------------------||
|------------------|-----------------------o||
|------------------|------------------------||


    C#m
    Gtr I
    E E  E  E  E E  E E    E E E  E  E E  E  E
    | |  |  |  | |  | |    | | |  |  | |  |  |
    / /  /  /  / /  / /    / / /  /  / /  /  /

    Gtr II
    E E  E  E  E E  E E    E E E  E  E E  E  E
||----------------------|--7-----10------10-12-|
||o--------------8-10---|----8-------8---------|
||------11-----7------9-|------9-------9-------|
||----9-----9-----------|----------------------|
||o-7-------------------|----------------------|
||----------------------|----------------------|
|
|   Gtr III
|   E E  E  E  E E  E E    E E E  E  E E  E  E
||--3-0--5--7-----------|--3------2-------2--3-|
||o------------7-0--3-0-|----5-0-----3-0-------|
||----------------------|----------------------|
||----------------------|----------------------|
||o---------------------|----------------------|
||----------------------|----------------------|
|
|   Gtr IV
|   E E  E  E  E E  E E    E E E  E  E E  E  E
||--7-0--8-10-----------|-10-------------------|
||o-----------10-0--7-0-|----8-0-10-12-0-10-12-|
||----------------------|----------------------|
||----------------------|----------------------|
||o---------------------|----------------------|
||----------------------|----------------------|


  Amaj7                 F#sus2
   E E E  E E E  E  E    E E  E E  E  E  E  E
   | | |  | | |  |  |    | |  | |  |  |  |  |
   / / /  / / /  /  /    / /  / /  /  /  /  /

   E E E  E E E  E  E    E E  E E  E  E  E  E   4x
|-12------8-7---------|-------------------------||
|----8--------8-------|-----------12-13-10-12--o||
|------9---------7--9-|---------9---------------||
|---------------------|-10-9--7-----------------||
|---------------------|------------------------o||
|---------------------|-------------------------||
|
|  E E E  E E E  E  E    E E  E E  E  E  E  E   4x
|--7-0-3--5------2--3-|-------------------------||
|-----------5-0-------|--5-0--7-0--8--0--7--8--o||
|---------------------|-------------------------||
|---------------------|-------------------------||
|---------------------|------------------------o||
|---------------------|-------------------------||
|
|  E E E  E E E  E  E    E E  E E  E  E  E  E   4x
|-15-0-7-12-----------|-------------------------||
|-----------8-0-10-12-|--8-0-13-0-15-17-13-15--o||
|---------------------|-------------------------||
|---------------------|-------------------------||
|---------------------|------------------------o||
|---------------------|-------------------------||


  Gtr I
   E E E E   E   E    E   E        E E E E   E   E E  E
|--0-0-0-0---0---0----0---0-----|--0-0-0-0---0---0-0--0-|
|--0-0-0-0---0---0----0---0-----|--0-0-0-0---0---0-0--0-|
|--0-0-0-0---0---0----0---0-----|--0-0-0-0---0---0-0--0-|
|--2-2-2-2---2---2----2---2-----|--2-2-2-2---2---2-2--2-|
|--2-2-2-2---2---2----2---2-----|--2-2-2-2---2---2-2--2-|
|--0-0-0-0---0---0----0---0-----|--0-0-0-0---0---0-0--0-|
|
| Gtr II
|  H        +E   Q       +S   S    H        +E   Q    E
|-------------------------------|---------------10---12-|
|-12-------(12)-12b13r==(12)-10-|-12-------(12)---------|
|-------------------------------|-----------------------|
|-------------------------------|-----------------------|
|-------------------------------|-----------------------|
|-------------------------------|-----------------------|


   E           E    E E E E E    E     E E   E   E E E E E
|--0-----------0----0-0-0-0-0----0---|-0-0---0---0-0-0-0-0---|
|--0-----------0----0-0-0-0-0----0---|-0-0---0---0-0-0-0-0---|
|--0-----------0----0-0-0-0-0----0---|-2-2---2---2-2-2-2-2---|
|--2-----------2----2-2-2-2-2----2---|-2-2---2---2-2-2-2-2---|
|--3-----------3----3-3-3-3-3----3---|-0-0---0---0-0-0-0-0---|
|------------------------------------|-----------------------|
|
|                           |--3---|   |---3---|
|  S  +S      +S  S H       E  E   E   Q   Q   Q   H
|------------------------------------|-----------------------|
|-10-(10)b12r(10)-8---------8-10---8-|-7---------------------|
|-------------------9----------------|-----7S==9-------------|
|------------------------------------|-------------9---------|
|------------------------------------|-----------------------|
|------------------------------------|-----------------------|


  Gtr I
  E  E E E E  E  E  E     E  E E E E E E E
|-0--0-0-0-0--0--0--0-|---0--0-0-0-0-0-0-0-|
|-0--0-0-0-0--0--0--0-|---0--0-0-0-0-0-0-0-|
|-0--0-0-0-0--0--0--0-|---0--0-0-0-0-0-0-0-|
|-2--2-2-2-2--2--2--2-|---2--2-2-2-2-2-2-2-|
|-2--2-2-2-2--2--2--2-|---2--2-2-2-2-2-2-2-|
|-0--0-0-0-0--0--0--0-|---0--0-0-0-0-0-0-0-|
|
| Gtr II
| E  E E Q    E  E  E    +E  Q   Q   E E E
|---------------------|--------------------|
|---------------------|--------------------|
|--------9---11-12-11-|-(11)-9---7-----7-9-|
|------9--------------|--------------9-----|
|-7-10----------------|--------------------|
|---------------------|--------------------|
|
| Gtr III
| W                       W
|---------------------|--------------------|
|---------------------|--------------------|
|---------------------|--------------------|
|---------------------|--------------------|
|---------------------|--------------------|
|---------------------|--------------------|


   E  E  E  E  E  E  E  E     E   E  E  E  E  E  E  E
|--0--0--0--0--0--0--0--0-|---0---0--0--0--0--0--0--0-----|
|--0--0--0--0--0--0--0--0-|---0---0--0--0--0--0--0--0-----|
|--0--0--0--0--0--0--0--0-|---2---2--2--2--2--2--2--2-----|
|--2--2--2--2--2--2--2--2-|---2---2--2--2--2--2--2--2-----|
|--3--3--3--3--3--3--3--3-|---0---0--0--0--0--0--0--0-----|
|-------------------------|-------------------------------|
|
|                                 |--3--|
|  E  E  E  E  E  E  E  E     Q   E  E  E  Q  S  S  S  S
|-------------------------|------------12-14--------------|
|--8--7-----8-10----10-12-|--12-----12--------------------|
|--------9-------11-------|------14----------14-15-14-12--|
|-------------------------|-------------------------------|
|-------------------------|-------------------------------|
|-------------------------|-------------------------------|
|
|  E  E  E  E  E  E  E  E    +H      H
|-------------------------|-------------------------------|
|-12-10----12-13----13-15-|-(15)--------------------------|
|-------12-------14-------|-------------------------------|
|-------------------------|-------------------------------|
|-------------------------|-------------------------------|
|-------------------------|-------------------------------|


    E  E E E E  E  E  E    E  E  E  E  E  E  E  E
|---0--0-0-0-0--0--0--0-|--0--0--0--0--0--0--0--0-|
|---0--0-0-0-0--0--0--0-|--0--0--0--0--0--0--0--0-|
|---0--0-0-0-0--0--0--0-|--0--0--0--0--0--0--0--0-|
|---2--2-2-2-2--2--2--2-|--2--2--2--2--2--2--2--2-|
|---2--2-2-2-2--2--2--2-|--2--2--2--2--2--2--2--2-|
|---0--0-0-0-0--0--0--0-|--0--0--0--0--0--0--0--0-|
|
|               |--3--|
|  +H.          E  E  E    E  E  E  E  E  E  E  E
|-----------------------|-------------------------|
|--------------19-15----|-------------------------|
|-(12)---------------16-|-17-16-14-16-14----14-16-|
|-----------------------|----------------17-------|
|-----------------------|-------------------------|
|-----------------------|-------------------------|
|
|   W                      W
|-----------------------|-------------------------|
|-----------------------|-------------------------|
|-----------------------|-------------------------|
|-----------------------|-------------------------|
|-----------------------|-------------------------|
|-----------------------|-------------------------|


   E    E     E    E     E    E     E    E       E  E  E  E E  E  E  E
|--0----0-----0----0-----0----0-----0----0----|--0--0--0--0-0--0--0--0----|
|--0----0-----0----0-----0----0-----0----0----|--0--0--0--0-0--0--0--0----|
|--0----0-----0----0-----0----0-----0----0----|--2--2--2--2-2--2--2--2----|
|--2----2-----2----2-----2----2-----2----2----|--2--2--2--2-2--2--2--2----|
|--3----3-----3----3-----3----3-----3----3----|--0--0--0--0-0--0--0--0----|
|---------------------------------------------|---------------------------|
|
|  |---3---|  |---3---|  |---3---|  |---3---|
|  E  E    E  E  E    E  E  E    E  E  E    E    E  E  E  Q    E  E  E
|---------------12---15-19-15-----------------|---------------------------|
|------------13-----------------17------------|---------------------------|
|---------12-----------------------16---------|----------14---16-17-16----|
|----14-------------------------------17------|-------14------------------|
|-15---------------------------------------19-|-12-15---------------------|
|---------------------------------------------|---------------------------|
|
|  W                                             E  E  E  Q    E  E  E
|---------------------------------------------|---------------------------|
|---------------------------------------------|---------------------------|
|---------------------------------------------|----------17---19-21-19----|
|---------------------------------------------|-------17------------------|
|---------------------------------------------|-15-19---------------------|
|---------------------------------------------|---------------------------|


    E   E  E  E  E    E     E    E
|---0---0--0--0--0----0-----0----0----|
|---0---0--0--0--0----0-----0----0----|
|---0---0--0--0--0----0-----0----0----|
|---2---2--2--2--2----2-----2----2----|
|---2---2--2--2--2----2-----2----2----|
|---0---0--0--0--0----0-----0----0----|
|
|                |---3---|  |---3---|
|   E   E  E  E  E  E    E  E  E    E
|-------------------------------------|
|-------------------------------------|
|--16--14-12----14-12------12---------|
|------------16---------16----16---12-|
|-------------------------------------|
|-------------------------------------|
|
|  +H            H
|-------------------------------------|
|-------------------------------------|
|-(19)--------------------------------|
|-------------------------------------|
|-------------------------------------|
|-------------------------------------|


   E     E     E     E     E     E     E     E
|--0-----0-----0-----0-----0-----0-----0-----0----|
|--0-----0-----0-----0-----0-----0-----0-----0----|
|--0-----0-----0-----0-----0-----0-----0-----0----|
|--2-----2-----2-----2-----2-----2-----2-----2----|
|--2-----2-----2-----2-----2-----2-----2-----2----|
|--0-----0-----0-----0-----0-----0-----0-----0----|
|
|  S  S  S  S  S  S  S  S  S  S  S  S  S  S  S  S
|----------------------------15-17-19-20-19-17----|
|-------------------15-17-19-------------------19-|
|----------14-16-17-------------------------------|
|-14-16-17----------------------------------------|
|-------------------------------------------------|
|-------------------------------------------------|
|
|  W
|-------------------------------------------------|
|-------------------------------------------------|
|-------------------------------------------------|
|-------------------------------------------------|
|-------------------------------------------------|
|-------------------------------------------------|


  Gtr I
   E  E  E  E  E    E     E    E
|--0--0--0--0--0----0-----0----0----|
|--0--0--0--0--0----0-----0----0----|
|--0--0--0--0--0----0-----0----0----|
|--2--2--2--2--2----2-----2----2----|
|--3--3--3--3--3----3-----3----3----|
|-----------------------------------|
|
| Gtr II
|              |---3---|  |---3---|
|  E  E  E  E  E  E    E  E  E    E
|-----------------------------------|
|-20-19-17----19-17------17---------|
|----------19---------19----19---16-|
|-----------------------------------|
|-----------------------------------|
|-----------------------------------|


   E     E     E     E     E     E     E     E
|--0-----0-----0-----0-----0-----0-----0-----0----|
|--0-----0-----0-----0-----0-----0-----0-----0----|
|--2-----2-----2-----2-----2-----2-----2-----2----|
|--2-----2-----2-----2-----2-----2-----2-----2----|
|--0-----0-----0-----0-----0-----0-----0-----0----|
|-------------------------------------------------|
|
|  S  S  S  S  S  S  S  S  S  S  S  S  S  S  S  S
|----------------------------17-19-20-22-20-19----|
|-------------------17-19-20-------------------22-|
|-17-16----16-17-19-------------------------------|
|-------19----------------------------------------|
|-------------------------------------------------|
|-------------------------------------------------|


    Gtr I
     E     E     E     E     E     E     E     E
||---0-----0-----0-----0-----0-----0-----0-----0----|
||o--0-----0-----0-----0-----0-----0-----0-----0----|
||---0-----0-----0-----0-----0-----0-----0-----0----|
||---2-----2-----2-----2-----2-----2-----2-----2----|
||o--2-----2-----2-----2-----2-----2-----2-----2----|
||---0-----0-----0-----0-----0-----0-----0-----0----|
|
|   Gtr II
|    S  S  S  S  S  S  S  S  S  S  S  S  S  S  S  S
||--------15-19-15----------15-19-15----------15-19-|
||o----17----------17----17----------17----17-------|
||--16----------------16----------------16----------|
||--------------------------------------------------|
||o-------------------------------------------------|
||--------------------------------------------------|
|
|   Gtr III
|    T           T           T           T
|    S  S  S  S  S  S  S  S  S  S  S  S  S  S  S  S
||--------------------------------------------------|
||o-12p=5h=8p=5-12p=5h=8p=5-12p=5h=8p=5-12p=5h=8p=5-|
||--------------------------------------------------|
||--------------------------------------------------|
||o-------------------------------------------------|
||--------------------------------------------------|


   E     E     E     E     E     E     E     E
|--0-----0-----0-----0-----0-----0-----0-----0-----|
|--0-----0-----0-----0-----0-----0-----0-----0-----|
|--0-----0-----0-----0-----0-----0-----0-----0-----|
|--2-----2-----2-----2-----2-----2-----2-----2-----|
|--2-----2-----2-----2-----2-----2-----2-----2-----|
|--0-----0-----0-----0-----0-----0-----0-----0-----|
|
|  S  S  S  S  S  S  S  S  S  S  S  S  S  S  S  S
|-22-19----------19-22-19----------19-22-19--------|
|-------20----20----------20----20----------20-----|
|----------19----------------19----------------19--|
|--------------------------------------------------|
|--------------------------------------------------|
|--------------------------------------------------|
|
|  T           T           T           T
|  S  S  S  S  S  S  S  S  S  S  S  S  S  S  S  S
|--------------------------------------------------|
|-12p=5h=8p=5-12p=5h=8p=5-12p=5h=8p=5-12p=5h=8p=5--|
|--------------------------------------------------|
|--------------------------------------------------|
|--------------------------------------------------|
|--------------------------------------------------|


   E     E     E     E     E     E     E     E
|--0-----0-----0-----0-----0-----0-----0-----0----|
|--0-----0-----0-----0-----0-----0-----0-----0----|
|--0-----0-----0-----0-----0-----0-----0-----0----|
|--2-----2-----2-----2-----2-----2-----2-----2----|
|--3-----3-----3-----3-----3-----3-----3-----3----|
|-------------------------------------------------|
|
|  S  S  S  S  S  S  S  S  S  S  S  S  S  S  S  S
|----12-15-12----------12-15-19-15----------15-19-|
|-13----------13----13-------------17----17-------|
|----------------12-------------------16----------|
|-------------------------------------------------|
|-------------------------------------------------|
|-------------------------------------------------|
|
|  T           T           T           T
|  S  S  S  S  S  S  S  S  S  S  S  S  S  S  S  S
|-------------------------------------------------|
|-13p=5h=8p=5-13p=5h=8p=5-13p=5h=8p=5-13p=5h=8p=5-|
|-------------------------------------------------|
|-------------------------------------------------|
|-------------------------------------------------|
|-------------------------------------------------|


   E     E     E     E     E     E     E  E
|--0-----0-----0-----0-----0-----0-----0--0---||
|--0-----0-----0-----0-----0-----0-----0--0--o||
|--2-----2-----2-----2-----2-----2-----2--2---||
|--2-----2-----2-----2-----2-----2-----2--2---||
|--0-----0-----0-----0-----0-----0-----0--0--o||
|---------------------------------------------||
|
|  S  S  S  S  S  S  S  S  S  S  S  S  E  E
|-20-19-17------------------------------------||
|----------20-19-17-19-20-19-17--------------o||
|-------------------------------19-17-16-14---||
|---------------------------------------------||
|--------------------------------------------o||
|---------------------------------------------||
|
|  S  S  S  S  S  S  S  S  S  S  S  S  E  E
|---------------------------------------------||
|--------------------------------------------o||
|-14-12-11------------------------------------||
|----------14-12-10-12-14-12-10---------------||
|-------------------------------14-12-10--9--o||
|---------------------------------------------||


   E  E  E  E   E            E      E  E    E            E     E         E      E     E E E
|--0--0--0--0---0------------0------0--0-|--0------------0-----0---------0------0-----0-0-0-|
|--0--0--0--0---0------------0------0--0-|--0------------0-----0---------0------0-----0-0-0-|
|--0--0--0--0---0------------0------0--0-|--0------------0-----0---------0------0-----0-0-0-|
|--2--2--2--2---2------------2------2--2-|--2------------2-----2---------2------2-----2-2-2-|
|--2--2--2--2---2------------2------2--2-|--2------------2-----2---------2------2-----2-2-2-|
|--0--0--0--0---0------------0------0--0-|--0------------0-----0---------0------0-----0-0-0-|
|
|                                           |-------3-------|  |-----3------|
|  E  E  E  E  +S   +S      +S   S  E  E    S  +S      E    E  E  +E        E  +H
|----------------------------------------|-----------------12-------------------------------|
|----------------------------------------|------------12------15-(15)b17r==15-(15)b17-------|
|-12----12-14-(14)-(14)b15r(14)-12----12-|-14-(14)b15---------------------------------------|
|----14----------------------------14----|--------------------------------------------------|
|----------------------------------------|--------------------------------------------------|
|----------------------------------------|--------------------------------------------------|
|
|  W                                        W
|----------------------------------------|--------------------------------------------------|
|----------------------------------------|--------------------------------------------------|
|----------------------------------------|--------------------------------------------------|
|----------------------------------------|--------------------------------------------------|
|----------------------------------------|--------------------------------------------------|
|----------------------------------------|--------------------------------------------------|


   E    E     E    E     E    E     E    E       E         E       E    E      E     E E E
|--0----0-----0----0-----0----0-----0----0----|--0---------0-------0----0------0-----0-0-0-|
|--0----0-----0----0-----0----0-----0----0----|--0---------0-------0----0------0-----0-0-0-|
|--0----0-----0----0-----0----0-----0----0----|--2---------2-------2----2------2-----2-2-2-|
|--2----2-----2----2-----2----2-----2----2----|--2---------2-------2----2------2-----2-2-2-|
|--3----3-----3----3-----3----3-----3----3----|--0---------0-------0----0------0-----0-0-0-|
|---------------------------------------------|--------------------------------------------|
|
|  |---3---|  |---3---|  |---3---|  |---3---|    |------3------|   |---3---|
|  E  E    E  E  E    E  E  E    E  E  E    E    E  +E        +E   E  E    E  +H
|-15-14---12-14-12------12-14---15-17-15---14-|-19-(19)b20r==(19)-17------22-(22)b24-------|
|--------------------15-----------------------|----------------------20--------------------|
|---------------------------------------------|--------------------------------------------|
|---------------------------------------------|--------------------------------------------|
|---------------------------------------------|--------------------------------------------|
|---------------------------------------------|--------------------------------------------|
|
|  |---3---|  |---3---|  |---3---|  |---3---|    |------3------|   |---3---|
|  E  E    E  E  E    E  E  E    E  E  E    E    E  +E        +E   E  E    E  +H
|-19-17---15-17-15------15-17---19-20-19---17-|---------------------------17-(17)b19-------|
|--------------------19-----------------------|-19-(19)b20r==(19)-17-15--------------------|
|---------------------------------------------|--------------------------------------------|
|---------------------------------------------|--------------------------------------------|
|---------------------------------------------|--------------------------------------------|
|---------------------------------------------|--------------------------------------------|


     E E E E   E   E    E   E         E  E E E   E   E E  E
||---0-0-0-0---0---0----0---0-----|---0--0-0-0---0---0-0--0-|
||o--0-0-0-0---0---0----0---0-----|---0--0-0-0---0---0-0--0-|
||---0-0-0-0---0---0----0---0-----|---0--0-0-0---0---0-0--0-|
||---2-2-2-2---2---2----2---2-----|---2--2-2-2---2---2-2--2-|
||o--2-2-2-2---2---2----2---2-----|---2--2-2-2---2---2-2--2-|
||---0-0-0-0---0---0----0---0-----|---0--0-0-0---0---0-0--0-|
|
|    H        +E   Q       +S   S     H         +E   Q    E
||--------------------------------|-----------------10---12-|
||o-12-------(12)-12b13r==(12)-10-|--12--------(12)---------|
||--------------------------------|-------------------------|
||--------------------------------|-------------------------|
||o-------------------------------|-------------------------|
||--------------------------------|-------------------------|
|
|    W                               +W
||--------------------------------|-------------------------|
||o-17----------------------------|-(17)--------------------|
||--------------------------------|-------------------------|
||--------------------------------|-------------------------|
||o-------------------------------|-------------------------|
||--------------------------------|-------------------------|


   E           E      E E E E  E    E       E E    E    E E E E E   5x
|--0-----------0------0-0-0-0--0----0----|--0-0----0----0-0-0-0-0---||
|--0-----------0------0-0-0-0--0----0----|--0-0----0----0-0-0-0-0--o||
|--0-----------0------0-0-0-0--0----0----|--2-2----2----2-2-2-2-2---||
|--2-----------2------2-2-2-2--2----2----|--2-2----2----2-2-2-2-2---||
|--3-----------3------3-3-3-3--3----3----|--0-0----0----0-0-0-0-0--o||
|----------------------------------------|--------------------------||
|
|                              |---3---|    |----3----|
|  S  +S      +S   S  H        E  E    E    Q    Q    Q   H         5x
|----------------------------------------|--------------------------||
|-10-(10)b12r(10)--8-----------8-10----8-|--7----------------------o||
|---------------------9------------------|-------7S===9-------------||
|----------------------------------------|----------------9---------||
|----------------------------------------|-------------------------o||
|----------------------------------------|--------------------------||
|
|                              |---3---|    |----3----|
|  S  +S      +S   S  H        E  E    E    Q    Q    Q   H         5x
|-14-(14)b15r(14)-12---------------------|--------------------------||
|--------------------12-------12-13---12-|-10----------------------o||
|----------------------------------------|------11S==12---9---------||
|----------------------------------------|--------------------------||
|----------------------------------------|-------------------------o||
|----------------------------------------|--------------------------||


   E E E E   E   E E  E        E  E E E   E   E E  E
|--0-0-0-0---0---0-0--0----|---0--0-0-0---0---0-0--0-|
|--0-0-0-0---0---0-0--0----|---0--0-0-0---0---0-0--0-|
|--0-0-0-0---0---0-0--0----|---0--0-0-0---0---0-0--0-|
|--2-2-2-2---2---2-2--2----|---2--2-2-2---2---2-2--2-|
|--2-2-2-2---2---2-2--2----|---2--2-2-2---2---2-2--2-|
|--0-0-0-0---0---0-0--0----|---0--0-0-0---0---0-0--0-|
|
|  H        +E   Q    S  S     H         +E   Q    E
|--------------------------|-----------------10---12-|
|-12-------(12)-13---12-10-|--12--------(12)---------|
|--------------------------|-------------------------|
|--------------------------|-------------------------|
|--------------------------|-------------------------|
|--------------------------|-------------------------|
|
|  W                          +W
|--------------------------|-------------------------|
|-17-----------------------|-(17)--------------------|
|--------------------------|-------------------------|
|--------------------------|-------------------------|
|--------------------------|-------------------------|
|--------------------------|-------------------------|


   E           E      E E E E  E    E       Q        Q   Q        Q
|--0-----------0------0-0-0-0--0----0----|--0--------0---------------------|
|--0-----------0------0-0-0-0--0----0----|--0--------0---2--------2--------|
|--0-----------0------0-0-0-0--0----0----|--2--------2---3--------3--------|
|--2-----------2------2-2-2-2--2----2----|--2--------2---2--------2--------|
|--3-----------3------3-3-3-3--3----3----|--0--------0---1--------1--------|
|----------------------------------------|---------------------------------|
|
|                              |---3---|    |--3--|      |--3--|  |--3--|
|  S   S       S   S  H        E  E    E    E  E  E  Q   E  E  E  E  E  E
|----------------------------------------|---------------9--------9-10-12--|
|-10--12------10---8-----------8-10----8-|-12----10-12-----11-12-----------|
|---------------------9------------------|-----9---------------------------|
|----------------------------------------|---------------------------------|
|----------------------------------------|---------------------------------|
|----------------------------------------|---------------------------------|
|
|                              |---3---|    |--3--|      |--3--|  |--3--|
|  S  +S      +S   S  H        E  E    E    E  E  E  Q   E  E  E  E  E  E
|-14-(14)b15r(14)-12---------------------|--------------12-------12-14-15--|
|--------------------12-------12-13---12-|-17----15-17-----14-15-----------|
|----------------------------------------|----14---------------------------|
|----------------------------------------|---------------------------------|
|----------------------------------------|---------------------------------|
|----------------------------------------|---------------------------------|


  Q.=90
 6/8
   E   E  E  E  E  E    E E  E  E   E E
|--------------------|------------------|
|--3---3--3--3--3--3-|------------------|
|--4---4--4--4--4--4-|--3-3--3--3---3-3-|
|--4---4--4--4--4--4-|--4-4--4--4---4-4-|
|--2---2--2--2--2--2-|--4-4--4--4---4-4-|
|--------------------|--2-2--2--2---2-2-|
|
|  Q.        E  E  E    Q    E +Q.
|-10--------10--9--7-|--9---------------|
|--------------------|-------7-(7)------|
|--------------------|------------------|
|--------------------|------------------|
|--------------------|------------------|
|--------------------|------------------|
|
|  E   E  E  E  E  E    E E  E  E   E E
|-14--10----------10-|-14-9-----------9-|
|--------12----12----|------11-----11---|
|-----------11-------|---------11-------|
|--------------------|------------------|
|--------------------|------------------|
|--------------------|------------------|


   E   E    E    E  E  E    E  E E E  E  E
|------------------------|-----------------|
|------------------------|--5--5-5-5--5--5-|
|--7---7----7----7--7--7-|--6--6-6-6--6--6-|
|--7---7----7----7--7--7-|--5--5-5-5--5--5-|
|--5---5----5----5--5--5-|--4--4-4-4--4--4-|
|------------------------|-----------------|
|
|  E.    S  S S  E  E  E    Q.     E  E  E
|------------------------|-----------------|
|-10-----8--7------------|-----------------|
|-------------9--7--6--9-|--9------9-11-12-|
|------------------------|-----------------|
|------------------------|-----------------|
|------------------------|-----------------|
|
|  E   E    E    E  E  E    E  E E E  E  E
|-14--10--------------10-|-12--9---------9-|
|----------10------10----|-------8----8----|
|---------------11-------|---------9-------|
|------------------------|-----------------|
|------------------------|-----------------|
|------------------------|-----------------|


   E   E  E  E  E  E    E E  E     E  E E
|--------------------|--------------------|
|--3---3--3--3--3--3-|--2-2--2-----2--2-2-|
|--4---4--4--4--4--4-|--2-2--2-----2--2-2-|
|--4---4--4--4--4--4-|--2-2--2-----2--2-2-|
|--2---2--2--2--2--2-|--0-0--0-----0--0-0-|
|--------------------|--------------------|
|
|  Q.        E  E  E    Q    T T S Q    E
|--------------------|--------------------|
|--------------------|--------------------|
|--7---------7--6--4-|--6----4h6p4-2----9-|
|--------------------|--------------------|
|--------------------|--------------------|
|--------------------|--------------------|
|
|  E   E  E  E  E  E    E E  E     E  E E
|-14--10----------10-|-12-9-------------9-|
|--------12----12----|------10-------10---|
|-----------11-------|-------------9------|
|--------------------|--------------------|
|--------------------|--------------------|
|--------------------|--------------------|


   E  E E E  E  E    E  E  E  E    E   E
|-----------------|---------------------------|
|-----------------|---------------------------|
|--1--1-1-1--1--1-|--3--3--3--3----3---3------|
|--2--2-2-2--2--2-|--4--4--4--4----4---4------|
|--2--2-2-2--2--2-|--4--4--4--4----4---4------|
|--0--0-0-0--0--0-|--2--2--2--2----2---2------|
|
|  Q.     E  E  E    Q.       S  S S S S S
|-----------------|--------------------6-9----|
|-----------------|------------------7--------|
|--9------9-11-13-|-11-------------6----------|
|-----------------|--------------8------------|
|-----------------|-----------9---------------|
|-----------------|---------------------------|
|
|  E  E E E  E  E    E  E  E  E  E E
|-12--7---------7-|-14--9----------9----------|
|-------9----9----|-------11----11------------|
|---------9-------|----------11---------------|
|-----------------|---------------------------|
|-----------------|---------------------------|
|-----------------|---------------------------|


   E   E  E  E  E  E    E E  E  E   E E
|--------------------|------------------|
|--3---3--3--3--3--3-|------------------|
|--4---4--4--4--4--4-|--3-3--3--3---3-3-|
|--4---4--4--4--4--4-|--4-4--4--4---4-4-|
|--2---2--2--2--2--2-|--4-4--4--4---4-4-|
|--------------------|--2-2--2--2---2-2-|
|
|  Q.        E  E  E    Q    E +Q.
|-10--------10--9--7-|--9---------------|
|--------------------|-------7-(7)------|
|--------------------|------------------|
|--------------------|------------------|
|--------------------|------------------|
|--------------------|------------------|
|
|  E   E  E  E  E  E    E E  E  E   E E
|-14--10----------10-|-14-9-----------9-|
|--------12----12----|------11-----11---|
|-----------11-------|---------11-------|
|--------------------|------------------|
|--------------------|------------------|
|--------------------|------------------|


   E   E    E    E  E  E    E  E E E  E  E
|------------------------|-----------------|
|------------------------|--5--5-5-5--5--5-|
|--7---7----7----7--7--7-|--6--6-6-6--6--6-|
|--7---7----7----7--7--7-|--5--5-5-5--5--5-|
|--5---5----5----5--5--5-|--4--4-4-4--4--4-|
|------------------------|-----------------|
|
|  E.    S  S S  E  E  E    Q.     E  E  E
|------------------------|-----------------|
|-10-----8--7------------|-----------------|
|-------------9--7--6--9-|--9------9-11-12-|
|------------------------|-----------------|
|------------------------|-----------------|
|------------------------|-----------------|
|
|  E   E    E    E  E  E    E  E E E  E  E
|-14--10--------------10-|-12--9---------9-|
|----------10------10----|-------8----8----|
|---------------11-------|---------9-------|
|------------------------|-----------------|
|------------------------|-----------------|
|------------------------|-----------------|


   E   E  E  E  E  E    E E  E     E  E     E
|--------------------|------------------------------|
|--3---3--3--3--3--3-|--2-2--2-----2--2-----2-------|
|--4---4--4--4--4--4-|--2-2--2-----2--2-----2-------|
|--4---4--4--4--4--4-|--2-2--2-----2--2-----2-------|
|--2---2--2--2--2--2-|--0-0--0-----0--0-----0-------|
|--------------------|------------------------------|
|
|  Q.        E  E  E    Q    S  S  E  S  S  S  T  T
|-10--------10-12-14-|-17---------------------------|
|--------------------|------14h15p14-14h15h17p15p14p|
|--------------------|------------------------------|
|--------------------|------------------------------|
|--------------------|------------------------------|
|--------------------|------------------------------|
|
|  E   E  E  E  E  E    E E  E     E  E     E
|-14--10----------10-|-12-9-----------------9-------|
|--------12----12----|------10-------10-------------|
|-----------11-------|-------------9----------------|
|--------------------|------------------------------|
|--------------------|------------------------------|
|--------------------|------------------------------|


   E  E E  E  E  E    E E     E     E     E     E
|------------------|----------------------------------|
|------------------|----------------------------------|
|--1--1-1--1--1--1-|--3-3-----3-----3-----3-----3-----|
|--2--2-2--2--2--2-|--4-4-----4-----4-----4-----4-----|
|--2--2-2--2--2--2-|--4-4-----4-----4-----4-----4-----|
|--0--0-0--0--0--0-|--2-2-----2-----2-----2-----2-----|
|
|  Q.      E  E  E    E S  S  S  S  S  S  S  S  S  S
|------------------|----------------------------------|
|-12------12-14-15-|-14-------------------------------|
|------------------|---------------------------15-18--|
|------------------|---------11-16-11----11-16--------|
|------------------|----9-13----------13--------------|
|------------------|----------------------------------|
|
|  E  E E  E  E  E    E E     E     E     E     E
|-12--7----------7-|-14-9-----------------------9-----|
|-------9-----9----|---------11----------11-----------|
|----------9-------|---------------11-----------------|
|------------------|----------------------------------|
|------------------|----------------------------------|
|------------------|----------------------------------|


                                                Q
   E  E  E  E  E  E    E  E E  E     E     E
|-------------------|---------------------------|
|-------------------|---------------------------|
|--4--4--4--4--4--4-|--0--0-0--0-----0-----0----|
|--5--5--5--5--5--5-|--2--2-2--2-----2-----2----|
|--5--5--5--5--5--5-|--2--2-2--2-----2-----2----|
|--3--3--3--3--3--3-|--0--0-0--0-----0-----0----|
|
|  E  E  E  E  E  E    Q.      S  S  S  S  S  S
|-------------------|------------------17-19-21-|
|----15-20-19-15----|---------------17----------|
|-16-------------16-|---------18-19-------------|
|-------------------|-17------------------------|
|-------------------|---------------------------|
|-------------------|---------------------------|
|
|  E  E  E  E  E  E    E  E E  E     E     E
|-15-10----------10-|-12--7----------------7----|
|-------12----12----|-------8--------8----------|
|----------12-------|----------9----------------|
|-------------------|---------------------------|
|-------------------|---------------------------|
|-------------------|---------------------------|


 .=80               Q.=70
   E  E  E  E  E  E    E  E  E  E     E     E
|-------------------|----------------------------|
|-------------------|----------------------------|
|--3--3--3--3--3--3-|--6--6--6--6-----6-----6----|
|--4--4--4--4--4--4-|--8--8--8--8-----8-----8----|
|--4--4--4--4--4--4-|--7--7--7--7-----7-----7----|
|--2--2--2--2--2--2-|--6--6--6--6-----6-----6----|
|
|  E  E  E  E  E  E    Q.       S  S  S  S  S  S
|-21-18-------------|----------18-15-------------|
|-------19----------|-17-------------17-------20-|
|----------18-16-15-|-------------------18-15----|
|-------------------|----------------------------|
|-------------------|----------------------------|
|-------------------|----------------------------|
|
|  E  E  E  E  E  E    E  E  E  E     E     E
|-14--9-----------9-|-12--9----------------------|
|-------11----11----|-------11-------------------|
|----------11-------|----------12-----9----------|
|-------------------|-----------------------8----|
|-------------------|----------------------------|
|-------------------|----------------------------|


   H.         +H.
|----------|---------*|
|--3-------|--(3)----*|
|--4-------|--(4)----*|
|--4-------|--(4)----*|
|--2-------|--(2)----*|
|----------|---------*|
|
|  H.         +H.
|----------|---------*|
|-15-------|-(15)----*|
|----------|---------*|
|----------|---------*|
|----------|---------*|
|----------|---------*|
|
|  H.         +H.
|----------|---------*|
|----------|---------*|
|----------|---------*|
|--9-------|--(9)----*|
|----------|---------*|
|----------|---------*|

Duration Legend
---------------
W - whole; H - half; Q - quarter; E - 8th; S - 16th; T - 32nd; X - 64th; a - acciaccatura
+ - note tied to previous; . - note dotted; .. - note double dotted
Uncapitalized letters represent notes that are staccato (1/2 duration)
Irregular groupings are notated above the duration line
Duration letters will always appear directly above the note/fret number it represents the
duration for.  Duration letters with no fret number below them represent rests.  Multi-
bar rests are notated in the form Wxn, where n is the number of bars to rest for.  Low
melody durations appear below the staff

Tablature Legend
----------------
 h   - hammer-on
 p   - pull-off
 b   - bend
 pb  - pre-bend
 r   - bend release (if no number after the r, then release immediately)
 /\  - slide into or out of (from/to "nowhere")
 s   - legato slide
 S   - shift slide
 - natural harmonic
[n]  - artificial harmonic
n(n) - tapped harmonic
 ~   - vibrato
 tr  - trill
 T   - tap
 TP  - trem. picking
 PM  - palm muting
\n/  - tremolo bar dip; n = amount to dip
 \n  - tremolo bar down
 n/  - tremolo bar up
/n\  - tremolo bar inverted dip
 =   - hold bend; also acts as connecting device for hammers/pulls
 <> - volume swell (louder/softer)
 x   - on rhythm slash represents muted slash
 o   - on rhythm slash represents single note slash

Misc Legend
-----------
 |  - bar
||  - double bar
||o - repeat start
o|| - repeat end
*|  - double bar (ending)
 :  - bar (freetime)
 $  - Segno
 &  - Coda
Tempo markers -  = BPM(8/16=s8/s16), where s8 = swing 8ths, s16 = swing 16ths
comments
print report bad tab
4 comments total. Showing first comments.
0 reply
Faded Grey wrote on August 24 2008, 12:09 am

Awesome tab man.

0 reply
Dregen wrote on October 29 2008, 06:34 pm

Now people that can use Guitar Pro or PowerTab as a resource can play this.

Good job man.

0 reply
Dregen wrote on October 29 2008, 06:34 pm

I meant can't use... Sorry

I want to post or [tab]
guest
You may want to rate the tab now too:
select rating
Please do not post tabs as comments. Select "correction" instead!