Oops, an error
Loading. Please wait.

White Walls Tab

30,961 views 60 this week
4 commentsread comments
1 2 3 4 5
excellent!
x 10
Autoscroll
+/-
esc
set tempo
stop
Contributor
Difficulty
intermediate
WARNING: You are trying to view
                                    content from Ultimate-Guitar.com
                                    in an unauthorized application,
                                    which is prohibited.

                                    Please use an official Ultimate
                                    Guitar Tabs application for iPhone,
                                    iPad or Android to access legitimate
                                    chords, guitar, bass, and drum tabs
                                    from Ultimate-Guitar.com database.

                                    Type "ultimate guitar tabs" in Apple
                                    App Store's or Android Market's
                                    search to find the application.
#----------------------------------PLEASE NOTE---------------------------------#
#This file is the author's own work and represents their interpretation of the #
#song. You may only use this file for private study, scholarship, or research. #
#------------------------------------------------------------------------------#

WHITE WALLS
As recorded by Between the Buried and Me
(From the 2007 Album COLORS)


Music by Dan Briggs, Blake Richardson, Tommy Rogers, Paul Waggoner, and Dustie Waring

C#m
0 2 2 0 0 0

Amaj7
x 3 2 0 0 0

F#sus2
x 0 2 2 0 0

Gtr I (C# F# B E G# C#) - 'Untitled'
Gtr II (C# F# B E G# C#) - 'Untitled'
Gtr III (C# F# B E G# C#) - 'Untitled'
Gtr IV (C# F# B E G# C#) - 'Untitled'
Gtr V (C# F# B E G# C#) - 'Untitled'
Gtr VI (C# F# B E G# C#) - 'Untitled'
All credit goes to HorsesInTheSky for making the original file.  I just converted it to 
for people that dont have power tab.
    Q=135
   6/4
    Gtr I
    PM-------------------------------------------------------------|
    S S  S  S S S  S  S  S  S  S  S S S  S  S  S  S  S  S  S  S  S  S
||--------------------------------------------------------------------|
||o-------------------------------------------------------------------|
||--------------------------------------------------------------------|
||--------------------------------------------------------------------|
||o---------------------12-12-----------------14-14-------------------|
||--0-0-12-12-0-0-10-10-------12-12-0-0-12-12-------12-12-10-10-12-12-|
|
|   Gtr II
|   PM----------------------------------------------------|
|   E    E    E    E     E     E    E    E     E     E     E     E
||--------------------------------------------------------------------|
||o-------------------------------------------------------------------|
||--------------------------------------------------------------------|
||--2---------2----------------2----2----------------2-----2----------|
||o-2---------2----------------2----2----------------2-----2----------|
||--0---------0----------------0----0----------------0-----0----------|


 5/4
  PM---------------------------------------------------|
  S S  S  S S S  S  S  S  S  S  S  S  S  S  S  S  S  S  S  3x
|----------------------------------------------------------||
|---------------------------------------------------------o||
|----------------------------------------------------------||
|----------------------------------------------------------||
|---------------------12-12-------14-14-------------------o||
|-0-0-12-12-0-0-10-10-------12-12-------12-12-10-10-12-12--||
|
| PM------------------------------------------------|
| E    E    E    E     E     E     E     E     E     E     3x
|----------------------------------------------------------||
|---------------------------------------------------------o||
|----------------------------------------------------------||
|-2---------2----------------2-----2-----------2-----2-----||
|-2---------2----------------2-----2-----------2-----2----o||
|-0---------0----------------0-----0-----------0-----0-----||


 6/4
  PM-------------------------------------------------------------|
  S S  S  S S S  S  S  S  S  S  S S S  S  S  S  S  S  S  S  S  S  S
|-------------------------------------------------------------------|
|-------------------------------------------------------------------|
|-------------------------------------------------------------------|
|-------------------------------------------------------------------|
|---------------------12-12-----------------14-14-------------------|
|-0-0-12-12-0-0-10-10-------12-12-0-0-12-12-------12-12-10-10-12-12-|
|
| PM----------------------------------------------------|
| E    E    E    E     E     E    E    E     E     E     E     E
|-------------------------------------------------------------------|
|-------------------------------------------------------------------|
|-------------------------------------------------------------------|
|-2---------2----------------2----2----------------2-----2----------|
|-2---------2----------------2----2----------------2-----2----------|
|-0---------0----------------0----0----------------0-----0----------|


  PM---------------------------------------|
  S S  S  S S S  S  S  S  S  S  S  S  S  S  S  E  E  E  E
|---------------------------------------------------------|
|---------------------------------------------------------|
|---------------------------------------------------------|
|---------------------------14-14-------14-14-------------|
|---------------------12-12-------14-14-------14-12-------|
|-0-0-12-12-0-0-10-10-------------------------------15-14-|
|
| PM------------------------------------|
| E    E    E    E     E     E     E     E     E  E  E  E
|---------------------------------------------------------|
|---------------------------------------------------------|
|---------------------------------------------------------|
|-2---------2----------------2-----2-----------5--4-------|
|-2---------2----------------2-----2-----------------7--5-|
|-0---------0----------------0-----0----------------------|


 7/4                              2/4       5/8
  Gtrs I, II
  E E E E +Q   E E E E +E  E E E   E E E E   E E E E E
|--------------------------------|---------|-----------|
|--------------------------------|---------|-----------|
|--------------------------------|---------|-----------|
|-------9-(9)------5-------------|---------|-----5---4-|
|-----7--------0-3---5-(5)-------|-------9-|-0-3---5---|
|-0-0----------------------5-3-2-|-0-0-7---|-----------|


 7/4                              2/4       4/4
  Gtr I
  E E E E +Q   E E E E +E  E E E   E E E E   E E E E E  E  E  E
|--------------------------------|---------|--------------------|
|--------------------------------|---------|--------------------|
|--------------------------------|---------|---------------9--7-|
|-------9-(9)------5-------------|-------9-|-----5---4--7-------|
|-----7--------0-3---5-(5)-------|-----7---|-0-3---5------------|
|-0-0----------------------5-3-2-|-0-0-----|--------------------|
|
| Gtr II
| E E E E +Q   E E E E +E  E E E   E E E E   E E E E E  E  E  E
|--------------------------------|---------|--------------------|
|--------------------------------|---------|--------------------|
|--------------------------------|---------|--------------12-11-|
|-------9-(9)------5-------------|-------9-|-----5---4-10-------|
|-----7--------0-3---5-(5)-------|-----7---|-0-3---5------------|
|-0-0----------------------5-3-2-|-0-0-----|--------------------|


 7/4                              2/4       5/8
  Gtrs I, II
  E E E E +Q   E E E E +E  E E E   E E E E   E E E E E
|--------------------------------|---------|-----------|
|--------------------------------|---------|-----------|
|--------------------------------|---------|-----------|
|-------9-(9)------5-------------|---------|-----5---4-|
|-----7--------0-3---5-(5)-------|-------9-|-0-3---5---|
|-0-0----------------------5-3-2-|-0-0-7---|-----------|


 7/4                              2/4       4/4
  Gtr I
  E E E E +Q   E E E E +E  E E E   E E E E   E E E E E  E  E  E
|--------------------------------|---------|--------------------|
|--------------------------------|---------|--------------------|
|--------------------------------|---------|---------------9--7-|
|-------9-(9)------5-------------|-------9-|-----5---4--7-------|
|-----7--------0-3---5-(5)-------|-----7---|-0-3---5------------|
|-0-0----------------------5-3-2-|-0-0-----|--------------------|
|
| Gtr II
| E E E E +Q   E E E E +E  E E E   E E E E   E E E E E  E  E  E
|--------------------------------|---------|--------------------|
|--------------------------------|---------|--------------------|
|--------------------------------|---------|--------------12-11-|
|-------9-(9)------5-------------|-------9-|-----5---4-10-------|
|-----7--------0-3---5-(5)-------|-----7---|-0-3---5------------|
|-0-0----------------------5-3-2-|-0-0-----|--------------------|


  Q=200
  Gtrs I, II
  PM--|             PM--|                 PM--|
  E E E E E E E E   E E E  E  E  E  E E   E E E E E E E E   E E E E E E E E
|-----------------|---------------------|-----------------|-----------------|
|-----------------|---------------------|-----------------|-----------------|
|-------9-9-9-9-7-|--------7--7--7--7-7-|-------9-9-9-9-7-|-----------------|
|-------9-9-9-9-7-|-------10-10-10-10-7-|-------9-9-9-9-7-|-----------------|
|-------7-7-7-7-7-|--------7--7--7--7-7-|-------7-7-7-7-7-|-2-2-2-2-2-2-2-2-|
|-0-0-0-----------|-0-0-0---------------|-0-0-0-----------|-0-0-0-0-0-0-0-0-|


  PM--|             PM--|                 PM--|
  E E E E E E E E   E E E  E  E  E  E E   E E E E E E E E   E E E E  E E E  E
|-----------------|---------------------|-----------------|-------------------|
|-----------------|---------------------|-----------------|----------------11-|
|-------9-9-9-9-7-|--------7--7--7--7-7-|-------9-9-9-9-7-|-9------------9----|
|-------9-9-9-9-7-|-------10-10-10-10-7-|-------9-9-9-9-7-|---9--------8------|
|-------7-7-7-7-7-|--------7--7--7--7-7-|-------7-7-7-7-7-|-----7-9-10--------|
|-0-0-0-----------|-0-0-0---------------|-0-0-0-----------|-------------------|


                       3/4                                4/4
                      Gtr I
   E E S S S S E E Q    E E  E E E  E    E E  E  E  E  E    Q.  E  E  E E  E
|---------------------|------6------8-|-------9----------|-11--11-11-11---11---|
|-10-9----------------|---5----5------|--7-------6--8-10-|-10--10-10-10---10---|
|------8-8-8-8-9------|-3--------3----|----5-------------|--8---8--8--8----8---|
|---------------------|---------------|------------------|---------------------|
|---------------------|---------------|------------------|---------------------|
|---------------------|---------------|------------------|---------------------|
|
|                     Gtr II
|  W                    E E  E E E  E    E E  E  E  E  E    Q.  E  E  E E  E
|---------------------|-----10-----12-|------13----------|-15--15-15-15---15---|
|---------------------|---9----9------|-11------10-12-14-|-14--14-14-14---14---|
|---------------------|-7--------7----|----9-------------|-12--12-12-12---12---|
|---------------------|---------------|------------------|---------------------|
|---------------------|---------------|------------------|---------------------|
|---------------------|---------------|------------------|---------------------|


                          PM  PM
   E  E E  E E  E  E  E   E E E E E E E E
|-11-11---11---11-11-11-|-----------------|
|-10-10---10---10-10-10-|-----------------|
|--8--8----8----8--8--8-|-----------------|
|-----------------------|-----------------|
|-----------------------|---7---6---------|
|-----------------------|-0---3---3-6-5-3-|
|
|                         PM  PM
|  E  E E  E E  E  E  E   E E E E E E E E
|-15-15---15---15-15-15-|-----------------|
|-14-14---14---14-14-14-|-----------------|
|-12-12---12---12-12-12-|-----------------|
|-----------------------|-----------------|
|-----------------------|---7---6---------|
|-----------------------|-0---3---3-6-5-3-|


  PM  PM            PM   PM     PM
  E E E E E E E E   E  E E E  E E E  E
|-----------------|--------------------|
|-----------------|--------------------|
|-----------------|--------------------|
|-------7---------|----9---7------7--9-|
|---3---6---------|-7----7----9-5------|
|-2---2-5-5-8-7-5-|--------------------|
|
| PM  PM            PM   PM     PM
| E E E E E E E E   E  E E E  E E E  E
|-----------------|--------------------|
|-----------------|--------------------|
|-----------------|--------------------|
|-------7---------|--------------------|
|---3---6---------|---10---9------9-10-|
|-2---2-5-5-8-7-5-|-8----8---10-7------|


  PM----------------|   PM            PM  PM            PM   PM     PM
  E E E E E E E E   E E E E E E E E   E E E E E E E E   E  E E E  E E E  E
|-----------------|-----------------|-----------------|--------------------|
|-----------------|-----------------|-----------------|--------------------|
|-----------------|-----------------|-----------------|--------------------|
|-----------------|-----------------|-------7---------|----9---7------7--9-|
|-2-2-2-2-2-2-2-2-|---7---6---------|---3---6---------|-7----7----9-5------|
|-0-0-0-0-0-0-0-0-|-0---3---3-6-5-3-|-2---2-5-5-8-7-5-|--------------------|
|
| PM----------------|   PM            PM  PM            PM   PM     PM
| E E E E E E E E   E E E E E E E E   E E E E E E E E   E  E E E  E E E  E
|-----------------|-----------------|-----------------|--------------------|
|-----------------|-----------------|-----------------|--------------------|
|-----------------|-----------------|-----------------|--------------------|
|-----------------|-----------------|-------7---------|--------------------|
|-2-2-2-2-2-2-2-2-|---7---6---------|---3---6---------|---10---9------9-10-|
|-0-0-0-0-0-0-0-0-|-0---3---3-6-5-3-|-2---2-5-5-8-7-5-|-8----8---10-7------|


                                    PM  PM
   E   E   E   E   E   E   E   E    E E E E E E E E
|---------------------------------|-----------------|
|---------------------------------|-----------------|
|---------------------------------|-----------------|
|---------------------------------|-----------------|
|---------------------------------|---7---6---------|
|-<3>S<4>-<4>S<5>-<5>S<6>-<6>S<7>-|-0---3---3-6-5-3-|
|
|                                   PM  PM
|  E   E   E   E   E   E   E   E    E E E E E E E E
|---------------------------------|-----------------|
|---------------------------------|-----------------|
|---------------------------------|-----------------|
|---------------------------------|-----------------|
|---------------------------------|---7---6---------|
|-<3>S<4>-<4>S<5>-<5>S<6>-<6>S<7>-|-0---3---3-6-5-3-|


  PM  PM            PM   PM     PM
  E E E E E E E E   E  E E E  E E E  E
|-----------------|--------------------|
|-----------------|--------------------|
|-----------------|--------------------|
|-------7---------|----9---7------7--9-|
|---3---6---------|-7----7----9-5------|
|-2---2-5-5-8-7-5-|--------------------|
|
| PM  PM            PM   PM     PM
| E E E E E E E E   E  E E E  E E E  E
|-----------------|--------------------|
|-----------------|--------------------|
|-----------------|--------------------|
|-------7---------|--------------------|
|---3---6---------|---10---9------9-10-|
|-2---2-5-5-8-7-5-|-8----8---10-7------|


  PM--|             PM--|
  E E E E E E E E   E E E  E  E  E  E E
|-----------------|---------------------|
|-----------------|---------------------|
|-------9-9-9-9-7-|--------7--7--7--7-7-|
|-------9-9-9-9-7-|-------10-10-10-10-7-|
|-------7-7-7-7-7-|--------7--7--7--7-7-|
|-0-0-0-----------|-0-0-0---------------|
|
| PM--|             PM--|
| E E E E E E E E   E E E  E  E  E  E E
|-----------------|---------------------|
|-----------------|---------------------|
|-------9-9-9-9-7-|--------7--7--7--7-7-|
|-------9-9-9-9-7-|-------10-10-10-10-7-|
|-------7-7-7-7-7-|--------7--7--7--7-7-|
|-0-0-0-----------|-0-0-0---------------|


  PM--|
                     |--3--|  |--3--|  |--3--|  |--3--|
  E E E E E E E E    E  E  E  E  E  E  E  E  E  E  E  E
|-----------------|-------------------------------------|
|-----------------|-------------------------------------|
|-------9-9-9-9-7-|--9--7-------------------------------|
|-------9-9-9-9-7-|-------10--7--9--7-10--9-------------|
|-------7-7-7-7-7-|-------------------------12--9-10--9-|
|-0-0-0-----------|-------------------------------------|
|
| PM--|
|                    |--3--|  |--3--|  |--3--|  |--3--|
| E E E E E E E E    E  E  E  E  E  E  E  E  E  E  E  E
|-----------------|-------------------------------------|
|-----------------|-------------------------------------|
|-------9-9-9-9-7-|-12-11--9----------------------------|
|-------9-9-9-9-7-|----------10-12-10-14-12-------------|
|-------7-7-7-7-7-|-------------------------15-12-14-12-|
|-0-0-0-----------|-------------------------------------|


                                   Q.=150
                                    6/8
                                   Gtr I
   |-3--|  |-3--|  |-3--|  |--3--|
   E  E E  E E  E  E E  E  E  E  E    E   E  E  E   E  E    E   E  E  E   E  E
|----------------------------------|---------------------|---------------------|
|----------------------------------|---------------------|---------------------|
|--------------------9-12h14p11----|-16--14-12-----------|-17--16-14-----------|
|-------9h10p9----10------------13-|-----------16--14-12-|-----------16--13----|
|----10--------12------------------|---------------------|------------------15-|
|-12-------------------------------|---------------------|---------------------|
|
|                                  Gtr II
|  Q       Q       Q       Q          Q.        Q.          Q.        Q.
|----------------------------------|---------------------|---------------------|
|----------------------------------|---------------------|---------------------|
|----------------------------------|------------7--------|---------------------|
|--9---------------5-------4-------|--5---------7--------|--7---------4--------|
|--7-------7-------3-------2-------|--5---------5--------|--7---------3--------|
|----------5-----------------------|--3------------------|--5---------2--------|
|
|                                  Gtr III
|  W                                  E   E  E  E   E  E    E   E  E  E   E  E
|----------------------------------|---------------------|---------------------|
|----------------------------------|---------------------|---------------------|
|----------------------------------|-19--17-16-----------|-21--19-17-----------|
|----------------------------------|-----------19--17-16-|-----------19--16----|
|----------------------------------|---------------------|------------------18-|
|----------------------------------|---------------------|---------------------|


    Gtrs I, II
    PM--|   PM---------|    PM---------|    PM---------|
    E E E E E E   E  E E E  E  E   E E E  E E E   E  E E E E  E
||--------------|----------------|--------------|---------------|
||o-------------|----------------|--------------|---------------|
||--------------|----------------|--------------|--------5-4----|
||--------5-----|--------5-------|--------------|-------------5-|
||o-7-7-7---7-7-|-7--7-7----7--7-|--------7-----|---------------|
||--------------|----------------|-5-5-5----5-5-|-5--5-5--------|
|
|   Gtr III
|   PM--|   PM|                    PM--|    PM|
|   E E E E E E   E  E E E  E  E   E E E  E E E   E  E E E E  E
||--------------|----------------|--------------|---------------|
||o-------------|----------------|--------------|------------12-|
||--------------|-9-12-9---------|--------------|-9--------9----|
||--------9-----|--------9-------|-------10-----|---10-9-7------|
||o-7-7-7---7-7-|----------10----|-7-7-7----7-7-|---------------|
||--------------|-------------12-|--------------|---------------|


   Q.      Q.         Q.        Q.
|------------------|---------------------|
|------------------|---------------------|
|------------------|---------------------|
|--5-------5-------|------------7--------|
|--3-------2-------|--5---------5--------|
|------------------|--3------------------|
|
|  E  E E  E   E E    E   E  E  E   E  E
|------------------|---------------------|
|-13--8------------|---------------------|
|-------9-11--12---|-11--12-14-14--11----|
|----------------9-|------------------12-|
|------------------|---------------------|
|------------------|---------------------|


   PM---|             PM---|
   E  E E  Q.         E  E  E  Q.
|------------------|----------------------||
|------------------|---------------------o||
|------------------|----------------------||
|------------------|-----------4----------||
|--7--7-7--7-------|--3--3--3--3---------o||
|--5--5-5--5-------|--2--2--2--2----------||
|
|  E  E E  E  E  E    E  E  E  E   E  E
|-------------8-12-|-14-11----------------||
|---------10-------|-------13------------o||
|-------9----------|----------14--11------||
|----10------------|-----------------13---||
|-12---------------|---------------------o||
|------------------|----------------------||


   PM---|      PM-----------|      PM----
   E  E  E  E  E  E    E  E  E  E  E  E
|-------------------|-------------------|
|-------------------|-------------------|
|-------------------|-------------------|
|-------------------|-------------------|
|-----------2-------|-----------2-------|
|--3--3--3-----3--3-|--3--3--3-----3--3-|
|
|  E  E  E  E  E  E    E  E  E  E  E  E
|-------------------|-------------------|
|-------------------|----12-13-12-------|
|-------------------|-14----------14-12-|
|-17----16-17----12-|-------------------|
|----14-------10----|-------------------|
|-------------------|-------------------|


 -------|      PM-----------|
   E  E  E  E  E  E    E  E  E  E  E  E
|-------------------|--------------------|
|-------------------|--------------------|
|-------------------|--------------------|
|-----------4-------|-----------5--4-----|
|--5--5--5-----5--5-|--5--5--5--------5--|
|-------------------|--------------------|
|
|  E  E  E  E  E  E    E  E  E  E  E  E
|-------------------|----12-14-12--------|
|----------15-------|-15----------15-----|
|-14----11----14-11-|----------------14--|
|----12-------------|--------------------|
|-------------------|--------------------|
|-------------------|--------------------|


   Q.        Q.         Q.       Q.
|--------------------|--------------------|
|--------------------|--------------------|
|--------------------|--------------------|
|-10--------10-------|----------12--------|
|--8---------7-------|-10-------10--------|
|--------------------|--8-----------------|
|
|  E   E  E  E   E E    E  E  E  E   E  E
|--------------------|--------------------|
|--------13-12--13---|--------------------|
|-10--14-----------9-|-12--9--------------|
|--------------------|-------10--9--12----|
|--------------------|-----------------10-|
|--------------------|--------------------|


   |--4:3---|                 |--4:3---|
   E  E  E  E  Q.             E  E  E  E  Q.
|--------------------------|---------------------------|
|--------------------------|---------------------------|
|--------------------------|--------------8------------|
|--7--7--7--7--7-----------|--7--7--7--7--7------------|
|--5--5--5--5--5-----------|--6--6--6--6--6------------|
|--------------------------|---------------------------|
|
|  |--4:3---|  |---4:3---|    |--4:3---|  |---4:3---|
|  E  E  E  E  E   E  E  E    E  E  E  E  E   E  E  E
|-------------14--17-14----|----14-17-14---------------|
|----------15-----------15-|-16----------16------------|
|-------14-----------------|-----------------17-14-----|
|----16--------------------|-----------------------16--|
|-17-----------------------|---------------------------|
|--------------------------|---------------------------|


    Gtrs I, II
     PM---|      PM-----------|      PM----
     E  E  E  E  E  E    E  E  E  E  E  E
||--------------------|-------------------|
||o-------------------|-------------------|
||--------------------|-------------------|
||------------5-------|-----------5-------|
||o--7--7--7-----7--7-|--7--7--7-----7--7-|
||--------------------|-------------------|
|
|   Gtr III
|    PM---|      PM|
|    E  E  E  E  E  E    E  E  E  E  E  E
||--------------------|-------------------|
||o-------------------|-------------------|
||--------------------|--9-12--9----------|
||------------9-------|-----------9-------|
||o--7--7--7-----7--7-|-------------10----|
||--------------------|----------------12-|
|
|   Gtr IV
|    E  E  E  E  E  E    E  E  E  E  E  E
||--------15-19-15----|-------15-19-15----|
||o----17----------17-|----17----------17-|
||--16----------------|-16----------------|
||--------------------|-------------------|
||o-------------------|-------------------|
||--------------------|-------------------|


 -------|      PM-----------|
   E  E  E  E  E  E    E  E  E  E  E  E
|-------------------|-------------------|
|-------------------|-------------------|
|-------------------|-----------5--4----|
|-------------------|-----------------5-|
|-----------7-------|-------------------|
|--5--5--5-----5--5-|--5--5--5----------|
|
|  PM---|      PM|
|  E  E  E  E  E  E    E  E  E  E  E  E
|-------------------|-------------------|
|-------------------|----------------12-|
|-------------------|--9-----------9----|
|----------10-------|----10--9--7-------|
|--7--7--7-----7--7-|-------------------|
|-------------------|-------------------|
|
|  E  E  E  E  E  E    E  E  E  E  E  E
|-------12-17-12----|-------12-17-12----|
|----13----------13-|----13----------13-|
|-14----------------|-14----------------|
|-------------------|-------------------|
|-------------------|-------------------|
|-------------------|-------------------|


   Q.        Q.          Q.        Q.
|---------------------|---------------------|
|---------------------|---------------------|
|---------------------|---------------------|
|--5---------5--------|------------7--------|
|--3---------2--------|--5---------5--------|
|---------------------|--3------------------|
|
|  E   E  E  E   E  E    E   E  E  E   E  E
|---------------------|---------------------|
|-13---8--------------|---------------------|
|---------9-11--12----|-11--12-14-14--11----|
|-------------------9-|------------------12-|
|---------------------|---------------------|
|---------------------|---------------------|
|
|  E   E  E  E   E  E    E   E  E  E   E  E
|--------12-15--10----|--------10-17--14----|
|-----13-----------12-|-----12-----------15-|
|-12------------------|-12------------------|
|---------------------|---------------------|
|---------------------|---------------------|
|---------------------|---------------------|


   PM---|               PM---|
   E  E  E  Q.          E  E  E  Q.
|--------------------|----------------------||
|--------------------|---------------------o||
|--------------------|----------------------||
|--------------------|-----------4----------||
|--7--7--7--7--------|--3--3--3--3---------o||
|--5--5--5--5--------|--2--2--2--2----------||
|
|  E  E  E  E   E  E    E  E  E  E   E  E
|---------------8-12-|-14-11----------------||
|----------10--------|-------13------------o||
|--------9-----------|----------14--11------||
|----10--------------|-----------------13---||
|-12-----------------|---------------------o||
|--------------------|----------------------||
|
|  E  E  E  E   E  E    E  E  E  E   E  E
|----12-17-20--17-12-|-17-14----------------||
|-13-----------------|-------16------------o||
|--------------------|----------17--14------||
|--------------------|-----------------16---||
|--------------------|---------------------o||
|--------------------|----------------------||


   PM---|      PM-----------|      PM----
   E  E  E  E  E  E    E  E  E  E  E  E
|-------------------|-------------------|
|-------------------|-------------------|
|-------------------|-------------------|
|-------------------|-------------------|
|-----------2-------|-----------2-------|
|--3--3--3-----3--3-|--3--3--3-----3--3-|
|
|  E  E  E  E  E  E    E  E  E  E  E  E
|-------------------|-------------------|
|-------------------|----12-13-12-------|
|-------------------|-14----------14-12-|
|-17----16-17----12-|-------------------|
|----14-------10----|-------------------|
|-------------------|-------------------|
|
|  E  E  E  E  E  E    E  E  E  E  E  E
|-------19-22-19----|-------19-22-19----|
|----20----------20-|----20----------20-|
|-19----------------|-19----------------|
|-------------------|-------------------|
|-------------------|-------------------|
|-------------------|-------------------|


 -------|      PM-----------|
   E  E  E  E  E  E    E  E  E  E  E  E
|-------------------|--------------------|
|-------------------|--------------------|
|-------------------|--------------------|
|-----------4-------|-----------5--4-----|
|--5--5--5-----5--5-|--5--5--5--------5--|
|-------------------|--------------------|
|
|  E  E  E  E  E  E    E  E  E  E  E  E
|-------------------|----12-14-12--------|
|----------15-------|-15----------15-----|
|-14----11----14-11-|----------------14--|
|----12-------------|--------------------|
|-------------------|--------------------|
|-------------------|--------------------|
|
|  E  E  E  E  E  E    E  E  E  E  E  E
|-------17-22-17----|-------17-22-17-----|
|----19----------19-|----19----------19--|
|-19----------------|-19-----------------|
|-------------------|--------------------|
|-------------------|--------------------|
|-------------------|--------------------|


   Q.        Q.          Q.        Q.
|---------------------|---------------------|
|---------------------|---------------------|
|---------------------|---------------------|
|-10--------10--------|-----------12--------|
|--8---------7--------|-10--------10--------|
|---------------------|--8------------------|
|
|  E   E  E  E   E  E    E   E  E  E   E  E
|---------------------|---------------------|
|--------13-12--13----|---------------------|
|-10--14------------9-|-12---9--------------|
|---------------------|--------10--9--12----|
|---------------------|------------------10-|
|---------------------|---------------------|
|
|  E   E  E  E   E  E    E   E  E  E   E  E
|-----17-20-15--------|-----15-20-22--19----|
|-18------------17----|-17---------------20-|
|------------------17-|---------------------|
|---------------------|---------------------|
|---------------------|---------------------|
|---------------------|---------------------|


   |--4:3---|                 |--4:3---|
   E  E  E  E  Q.             E  E  E  E  Q.
|--------------------------|---------------------------|
|--------------------------|---------------------------|
|--------------------------|--------------8------------|
|--7--7--7--7--7-----------|--7--7--7--7--7------------|
|--5--5--5--5--5-----------|--6--6--6--6--6------------|
|--------------------------|---------------------------|
|
|  |--4:3---|  |---4:3---|    |--4:3---|  |---4:3---|
|  E  E  E  E  E   E  E  E    E  E  E  E  E   E  E  E
|-------------14--17-14----|----14-17-14---------------|
|----------15-----------15-|-16----------16------------|
|-------14-----------------|-----------------17-14-----|
|----16--------------------|-----------------------16--|
|-17-----------------------|---------------------------|
|--------------------------|---------------------------|
|
|  |--4:3---|  |---4:3---|    |--4:3---|  |---4:3---|
|  E  E  E  E  E   E  E  E    E  E  E  E  E   E  E  E
|-------------17--20-17----|----17-20-17---------------|
|----------19-----------19-|-19----------19------------|
|-------17-----------------|-----------------20-17-----|
|----19--------------------|-----------------------19--|
|-21-----------------------|---------------------------|
|--------------------------|---------------------------|


  Q=200
 7/4                             6/4
   PM-------------------------------------------------|
   E E E E E E E E E  E E E E E   E E E E E E E E E E E E
|-------------------------------|-------------------------|
|-------------------------------|-------------------------|
|-------------------------------|-------------------------|
|-------------------------------|-------------------------|
|--2-2-2-2---2-2-2----2-2-2-2---|-2-2-2---2-2---2-2-2-2---|
|--0-0-0-0---0-0-0----0-0-0-0---|-0-0-0---0-0---0-0-0-0---|
|
|  W               H.             W               H
|-------------------------------|-------------------------|
|-------------------------------|-------------------------|
|-------------------------------|-------------------------|
|-14----------------------------|-------------------------|
|-------------------------------|-------------------------|
|-------------------------------|-------------------------|
|
|  W               H.             W               H
|-------------------------------|-------------------------|
|-------------------------------|-------------------------|
|-------------------------------|-------------------------|
|-17----------------------------|-------------------------|
|-------------------------------|-------------------------|
|-------------------------------|-------------------------|


   7/4                           6/4
    Gtrs I, II
    PM------------------------------------------------|
    E E E E E E E E E E E E E E   E E E E E E E E E E E E
||------------------------------|--------------------------||
||o-----------------------------|-------------------------o||
||------------------------------|--------------------------||
||------------------------------|--------------------------||
||o-2-2-2-2---2-2-2---2-2-2-2---|-2-2-2---2-2---2-2-2-2---o||
||--0-0-0-0---0-0-0---0-0-0-0---|-0-0-0---0-0---0-0-0-0----||


 7/4                           6/4
  PM--------------------------------------------------|
  E E E E E E E E E E E E E E   E E E E E E E E E E E E
|-----------------------------|-------------------------|
|-----------------------------|-------------------------|
|-----------------------------|-------------------------|
|-----------------------------|-------------------------|
|-2-2-2-2---2-2-2---2-2-2-2---|-2-2-2---2-2---2-2-2-2-2-|
|-0-0-0-0---0-0-0---0-0-0-0---|-0-0-0---0-0---0-0-0-0-0-|


    Q.=135
   15/8
    Gtr I
        PM----|     PM    PM----|
    E E E E E E E E E E E E E E E
||--------------------------------|
||o-------------------------------|
||--------------------------------|
||--------------------------------|
||o-3p2-2-2-2-2-3p2-2-3p2-2-2-2-2-|
||--1p0-0-0-0-0-1p0-0-1p0-0-0-0-0-|
|
|   Gtr II
|       PM----|     PM    PM----|
|   E E E E E E E E E E E E E E E
||--------------------------------|
||o-------------------------------|
||--------------------------------|
||--------------------------------|
||o-3p2-2-2-2-2-3p2-2-3p2-2-2-2-2-|
||--1p0-0-0-0-0-1p0-0-1p0-0-0-0-0-|


 6/8          15/8
                   PM----|     PM    PM----|
  E E E Q.     E E E E E E E E E E E E E E E
|-------0----|--------------------------------|
|-------0----|--------------------------------|
|-7-9-9-0----|--------------------------------|
|-7-9-9-9----|--------------------------------|
|-5-7-7-7----|-3p2-2-2-2-2-3p2-2-3p2-2-2-2-2--|
|------------|-1p0-0-0-0-0-1p0-0-1p0-0-0-0-0--|
|
|                  PM----|     PM    PM----|
| E E E Q.     E E E E E E E E E E E E E E E
|-------0----|--------------------------------|
|-------8----|--------------------------------|
|-7-9-9-9----|--------------------------------|
|-7-9-9-9----|--------------------------------|
|-5-7-7-7----|-3p2-2-2-2-2-3p2-2-3p2-2-2-2-2--|
|------------|-1p0-0-0-0-0-1p0-0-1p0-0-0-0-0--|


 6/8              2/4       15/8                            6/8
                                 PM----|     PM    PM----|
  E E E  E  E  E   E E E E   E E E E E E E E E E E E E E E   E E E Q.
|----------------|---------|-------------------------------|-------0----|
|----------------|---------|-------------------------------|-------0----|
|----------------|---------|-------------------------------|-7-9-9-0----|
|-9-9-9-10-10-10-|-7-7-6-6-|-------------------------------|-7-9-9-9----|
|----------------|---------|-3p2-2-2-2-2-3p2-2-3p2-2-2-2-2-|-5-7-7-7----|
|-7-7-7--8--8--8-|-5-5-4-4-|-1p0-0-0-0-0-1p0-0-1p0-0-0-0-0-|------------|
|
|                                PM----|     PM    PM----|
| E E E  E  E  E   E E E E   E E E E E E E E E E E E E E E   E E E Q.
|----------------|---------|-------------------------------|-------0----|
|----------------|---------|-------------------------------|-------8----|
|----------------|---------|-------------------------------|-7-9-9-9----|
|-9-9-9-10-10-10-|-7-7-6-6-|-------------------------------|-7-9-9-9----|
|----------------|---------|-3p2-2-2-2-2-3p2-2-3p2-2-2-2-2-|-5-7-7-7----|
|-7-7-7--8--8--8-|-5-5-4-4-|-1p0-0-0-0-0-1p0-0-1p0-0-0-0-0-|------------|


 15/8                            12/8
      PM----|     PM    PM----|
  E E E E E E E E E E E E E E E   E E E E E E S S E E Q.
|-------------------------------|----------------------------||
|-------------------------------|---------------------------o||
|-------------------------------|-------------8-9-8-8-8------||
|-------------------------------|-9---------5----------------||
|-3p2-2-2-2-2-3p2-2-3p2-2-2-2-2-|---9-----7---6-7-6-6-6-----o||
|-1p0-0-0-0-0-1p0-0-1p0-0-0-0-0-|-----7-8--------------------||
|
|     PM----|     PM    PM----|
| E E E E E E E E E E E E E E E   E E E E E E S S E E Q.
|-------------------------------|----------------------------||
|-------------------------------|---------------------------o||
|-------------------------------|-------------8-9-8-8-8------||
|-------------------------------|-9---------5----------------||
|-3p2-2-2-2-2-3p2-2-3p2-2-2-2-2-|---9-----7---6-7-6-6-6-----o||
|-1p0-0-0-0-0-1p0-0-1p0-0-0-0-0-|-----7-8--------------------||


 9/8
  Gtrs I, II
   PM------------------|
   E  E  E  E  E  E  E  E  E
|----------------------------|
|----------------------------|
|----------------------------|
|----------------------------|
|--2--2--2--2-----2--2--2----|
|--0--0--0--0-----0--0--0----|
|
| Gtr III
|  E  E  E  E  E  E  E  E  E
|----------------------------|
|----------------------------|
|-12-12-12-12-12-12-12-12-12-|
|----------------------------|
|-10-10-10-10-10-10-10-10-10-|
|----------------------------|
|
| Gtr IV
|  E  E  E  E  E  E  E  E  E
|----------------------------|
|----------------------------|
|--9--9--9--9--9--9--9--9--9-|
|----------------------------|
|--7--7--7--7--7--7--7--7--7-|
|----------------------------|


   PM------------------|        PM------------------|
   E  E  E  E  E  E  E  E  E    E  E  E  E  E  E  E  E  E
|----------------------------|----------------------------|
|----------------------------|----------------------------|
|----------------------------|----------------------------|
|----------------------------|----------------------------|
|--2--2--2--2-----2--2--2----|--2--2--2--2-----2--2--2----|
|--0--0--0--0-----0--0--0----|--0--0--0--0-----0--0--0----|
|
|  E  E  E  E  E  E  E  E  E    E  E  E  E  E  E  E  E  E
|----------------------------|----------------------------|
|----------------------------|----------------------------|
|-12-12-12-12-12-12-12-12-12-|-16-16-16-16-16-16-16-16-16-|
|----------------------------|----------------------------|
|-10-10-10-10-10-10-10-10-10-|-14-14-14-14-14-14-14-14-14-|
|----------------------------|----------------------------|
|
|  E  E  E  E  E  E  E  E  E    E  E  E  E  E  E  E  E  E
|----------------------------|----------------------------|
|----------------------------|----------------------------|
|--4--4--4--4--4--4--4--4--4-|-12-12-12-12-12-12-12-12-12-|
|----------------------------|----------------------------|
|--2--2--2--2--2--2--2--2--2-|-10-10-10-10-10-10-10-10-10-|
|----------------------------|----------------------------|


              Q=150
 6/8           2/4        4/4
  Gtr I
                             PM|   PM|     PM        PM   PM
  E E E E E E   E E  E E   E S S E S S E E E E   E E E Q  E E E
|-------------|----------|---------------------|-----------------|
|-------------|----------|---------------------|-----------------|
|-------------|-9-9--9-9-|-9-----9-----9-9-----|--------------4--|
|-------------|-8-8--8-8-|-8-----8-----8-8---5-|-6-5---3----3-4--|
|-7-----7-----|-7-7--7-7-|-7-----7-----7-7-----|-------3----3-2--|
|---6-5---6-5-|----------|---0-0---0-0-----0-3-|-4-3-0-1--0-1----|
|
| Gtr II
|                            PM|   PM|     PM        PM   PM
| E E E E E E   E Q.       E S S E S S E E E E   E E E Q  E E E
|-------------|----------|---------------------|-----------------|
|-------------|----------|---------------------|-----------------|
|-------------|-9--------|-9-----9-----9-9-----|--------------4--|
|-------------|-8--------|-8-----8-----8-8---5-|-6-5---3----3-4--|
|-7-----7-----|-7--------|-7-----7-----7-7-----|-------3----3-2--|
|---6-5---6-5-|----------|---0-0---0-0-----0-3-|-4-3-0-1--0-1----|


    Gtrs I, II
    PM--------|        PM------------|          PM----|     PM|
    E E E E E E Q    E S S S S S S S S E Q    E E E E E  E  S S E
||-----------------|------------------------|---------------------|
||o----------------|------------------------|---------------------|
||-----------------|---------------------6--|---------------------|
||----6-5---3-4----|---------------------5--|---5-----------------|
||o-2-4-3---3-2----|---1-----------1-2---4--|---5-6-5-3-[4]-4-4---|
||--0-4-3-0-1-2----|-----4-3-1-3-4-------3--|-----6-5-3-----2-2---|


    PM--------|
  E E E E +S  E. Q    E E E E E E S S E   E E E E +E  E E E
|-------------------|-------------------|--------------------|
|-------------------|-------------------|--------------------|
|-------------------|-------------------|-----------------4--|
|-------------------|-4-4-4-------------|-------6-(6)---3-4--|
|---6-3-1-(1)-1-----|-2-1-0---5-------2-|-1-----4-(4)---3-2--|
|---5-2-0-(0)-0-----|-------3---2-0-1---|---2-1-------0-1----|


                                        G
  E E E E E E S S E   E E E E +E  E E E
|-------------------|-------------------|
|-------------------|-------------------|
|-------------------|-----------------4-|
|-4-4-4-------------|-------6-(6)---3-4-|
|-2-1-0---5-------2-|-1-----4-(4)---3-2-|
|-------3---2-0-1---|---2-1-------0-1---|
|
|                                       G
| W                   W
|-------------------|-------------------|
|-------------------|-------------------|
|-------------------|-------------------|
|-------------------|-------------------|
|-------------------|-------------------|
|-------------------|-------------------|


 tr I
  PM--------|         PM----|
  E E E E E E   Q   E E +S  E S E E E E
|-----------------|---------------------|
|-----------------|---------------------|
|-----------------|---------------------|
|-----------------|---------------1-----|
|-1---1-----1-----|---1-(1)-1-------0---|
|-0---0-----0-----|---0-(0)-0---------2-|
|
|tr II
| PM----------|       PM----|
| E E E E E E Q     E E +S  E S E E E E
|-----------------|---------------------|
|-----------------|---------------7-----|
|-----------------|-----------------5---|
|-----------------|-------------------7-|
|-1---1-----1-----|---1-(1)-1-----------|
|-0---0-----0-----|---0-(0)-0-----------|


                                       Gtrs I, II
  PM--------|        PM----|               PM----|         PM----|
  E E E E E E Q    E E +S  E S E E E E     E. E. E H       E. E. E H
|----------------|----------------------||---------------|--------------|
|----------------|---------------------o||---------------|--------------|
|----------------|----------------------||---------------|--------------|
|----------------|---------------1------||---------------|--------------|
|-1---1-----1----|---1-(1)-1-------0---o||-6--6--6-------|-6--6--6-1----|
|-0---0-----0----|---0-(0)-0---------2--||-5--5--5-------|-5--5--5-2----|
|
| PM----------|      PM----|
| E E E E E E Q    E E +S  E S E E E E     W               W
|----------------|----------------------||---------------|--------------|
|----------------|---------------7-----o||---------------|--------------|
|----------------|-----------------5----||---------------|--------------|
|----------------|-------------------7--||---------------|--------------|
|-1---1-----1----|---1-(1)-1-----------o||---------------|--------------|
|-0---0-----0----|---0-(0)-0------------||---------------|--------------|


                                       Q=180
  Gtrs I, II
  PM----|        PM----|   PM------|
  E. E. E H      E. E. E E S S S S S S   H    +E  E +Q     W
|--------------|-----------------------|-----------------|------|
|--------------|-----------------------|-----------------|------|
|--------------|-----------------------|-0----(0)-0-(0)--|-2----|
|--------------|-----------------------|-1----(1)-0-(0)--|-1----|
|-6--6--6------|-6--6--6---1-1---1-1---|-3----(3)-1-(1)--|-0----|
|-5--5--5------|-5--5--5---2-2---2-2---|-----------------|------|


  H    +E  E +Q     H    +E  Q.     E E H.        W
|-----------------|---------------|-1-----------|------|
|-----------------|----------2----|-1-----------|------|
|-0----(0)-0-(0)--|-2----(2)-0----|-1-----------|------|
|-1----(1)-0-(0)--|-1----(1)-2----|-3-----------|------|
|-3----(3)-1-(1)--|-0----(0)-0----|-------------|------|
|-----------------|---------------|-------------|------|


  PM--------|           PM--------|           PM--------|
  E E E E E E S S S S   E E E E E E S S S S   E E E E E E S S S S
|---------------------|---------------------|---------------------|
|---------------------|---------------------|---------------------|
|---------------------|---------------------|---------------------|
|-------------2S3S2S3-|-------------2S3S2S3-|-------------2S3S2S3-|
|-5-2-0-4-1-0-1S2S1S2-|-5-2-0-4-1-0-1S2S1S2-|-5-2-0-4-1-0-1S2S1S2-|
|-5-2-0-4-1-0---------|-5-2-0-4-1-0---------|-5-2-0-4-1-0---------|


  Gtr I
    PM|       PM----|                   PM--------------------|
                                                  |-3-| |-3---|
  E E E E E E S S S S   E E +E  E +E  E S S S S   Q Q Q Q Q Q
|---------------------|-------------------------|-------------|
|---------------------|-------------------------|-------------|
|---------------------|-------------------------|-------------|
|-2-----5-8-7-6-6-6-6-|-8-7-(7)-8-(8)-7-6-6-6-6-|---5---------|
|-1-3-0-3-6-5-6-6-6-6-|-6-5-(5)-6-(6)-5-6-6-6-6-|-----4---7---|
|---3-0-3-6-5-4-4-4-4-|-6-5-(5)-6-(6)-5-4-4-4-4-|-4-----6---5-|
|
| Gtr II
|   PM|                                 PM----|
|                                                 |-3-| |-3-|
| E E E E E E Q         E E +E  E +E  E S S S S   Q Q Q Q Q Q
|---------------------|-------------------------|-------------|
|---------------------|-------------------------|-------------|
|---------------------|-------------------------|-------------|
|-2-----5-8-7---------|-8-7-(7)-8-(8)-7-6-6-6-6-|---5---------|
|-1-3-0-3-6-5---------|-6-5-(5)-6-(6)-5-6-6-6-6-|-----4---7---|
|---3-0-3-6-5---------|-6-5-(5)-6-(6)-5-4-4-4-4-|-4-----6---5-|


  Gtrs I, II
                  PM------------------|                           PM----|
  E E +E  E +E  E S S S S   E E E E E E S S S S   E E +E  E +E  E S S S S
|-------------------------|---------------------|-------------------------|
|-------------------------|---------------------|-------------------------|
|-------------------------|---------------------|-------------------------|
|-8-7-(7)-8-(8)-7-6-6-6-6-|-------------2S3S2S3-|-8-7-(7)-6-(6)-9-5-5-5-5-|
|-6-5-(5)-6-(6)-5-6-6-6-6-|-5-2-0-4-1-0-1S2S1S2-|-6-5-(5)-6-(6)-9-5-5-5-5-|
|-6-5-(5)-6-(6)-5-4-4-4-4-|-5-2-0-4-1-0---------|-6-5-(5)-4-(4)-7-3-3-3-3-|


                PM--------|             PM--|
  |-3-| |-3---------------------------------|
  Q Q Q Q Q Q   E E E E E E S S S S   E E E E E E Q
|-------------|---------------------|----------------|
|-------------|---------------------|----------------|
|-------------|---------------------|----------------|
|---4---------|-------------2S3S2S3-|-2-----5-8-7----|
|-----3---6---|-5-2-0-4-1-0-1S2S1S2-|-1-3-0-3-6-5----|
|-3-----5---4-|-5-2-0-4-1-0---------|---3-0-3-6-5----|


                  PM----|                                 PM------|
                            |-3-| |-3-----------------------------|
  E E +E  E +E  E S S S S   Q Q Q Q Q Q   E E +E  E +E  E S S S S
|-------------------------|-------------|-------------------------|
|-------------------------|-------------|-------------------------|
|-------------------------|-------------|-------------------------|
|-8-7-(7)-8-(8)-7-6-6-6-6-|---5---------|-8-7-(7)-8-(8)-7-6-6-6-6-|
|-6-5-(5)-6-(6)-5-6-6-6-6-|-----4---7---|-6-5-(5)-6-(6)-5-6-6-6-6-|
|-6-5-(5)-6-(6)-5-4-4-4-4-|-4-----6---5-|-6-5-(5)-6-(6)-5-4-4-4-4-|


  PM--------|                           PM--------------------|
                                                  |-3-| |-3---|
  E E E E E E S S S S   E E +E  E +E  E S S S S   Q Q Q Q Q Q
|---------------------|-------------------------|-------------|
|---------------------|-------------------------|-------------|
|---------------------|-------------------------|-------------|
|-------------2S3S2S3-|-8-7-(7)-6-(6)-9-5-5-5-5-|---4---------|
|-5-2-0-4-1-0-1S2S1S2-|-6-5-(5)-6-(6)-9-5-5-5-5-|-----3---6---|
|-5-2-0-4-1-0---------|-6-5-(5)-4-(4)-7-3-3-3-3-|-3-----5---4-|


    Gtr I
      PM|   PM--|       PM|   PM|
    E E E E E E E E   E E E E E E E E
||------------------|------------------||
||o-----------------|-----------------o||
||------------------|------------------||
||------------------|------------------||
||o-5-----5-------5-|-4-----4---------o||
||----6-5---5-3-2---|---3-2---2-0-6-7--||
|
|   Gtr II
|                       PM--------|
|   E E E E H         Q E E E E E E
||------------------|------------------||
||o-----------------|-----------------o||
||------------------|------------------||
||--7-----7---------|------------------||
||o-5-----5---------|---4---3-2---2---o||
||--5-----5---------|---2---2-0---0----||


        PM|   PM--|       PM|   PM|
      E E E E E E E E   E E E E E E E E
|-||------------------|------------------||
|-||o-----------------|-----------------o||
|-||------------------|------------------||
|-||------------------|------------------||
|-||o-5-----5-------5-|-4-----4---------o||
|-||----6-5---5-3-2---|---3-2---2-0-6-7--||
|
|       PM|   PM--|       PM|   PM|
|     E E E E E E E E   E E E E E E E E
|-||------------------|------------------||
|-||o-----------------|-----------------o||
|-||------------------|------------------||
|-||--5-----5-------5-|-4-----4----------||
|-||o---6-5---5-3-2---|---3-2---2-0-6-7-o||
|-||------------------|------------------||


  Gtrs I, II
  PM--------|           PM--------|           PM--------|
  E E E E E E S S S S   E E E E E E S S S S   E E E E E E S S S S
|---------------------|---------------------|---------------------|
|---------------------|---------------------|---------------------|
|---------------------|---------------------|---------------------|
|-------------2S3S2S3-|-------------2S3S2S3-|-------------2S3S2S3-|
|-5-2-0-4-1-0-1S2S1S2-|-5-2-0-4-1-0-1S2S1S2-|-5-2-0-4-1-0-1S2S1S2-|
|-5-2-0-4-1-0---------|-5-2-0-4-1-0---------|-5-2-0-4-1-0---------|


 3/4                     4/4
  E E E E E E   H.        H    +E  E +Q     H    +E  Q.
|-------------|---------|-----------------|----------------|
|-------------|---------|-----------------|----------2-----|
|-------3-----|---------|-0----(0)-0-(0)--|-2----(2)-0-----|
|-----2---2---|---------|-1----(1)-0-(0)--|-1----(1)-2-----|
|-0-2-------1-|---------|-3----(3)-1-(1)--|-0----(0)-0-----|
|-------------|---------|-----------------|----------------|


 6/4                4/4                       5/4
                   Gtr I
                                               PM----|       PM------|
                     |-3-| |-3-| |-3-| |-3---------------------------|
  E E H.      H      E E E E E E E E E E E E   E E E E S S E E E E E
|------------------|-------------------------|------------------------|
|-3----------------|-------------------------|------------------------|
|-2----------------|-5-4-2-------------------|------------------------|
|-3----------------|-------5-4-2-------------|------------------------|
|------------------|-------------5-3-2-------|---------2-3-2----------|
|------------------|-------------------5-3-2-|-0-2-3-5-------5-3-2-0--|
|
|                  Gtr II
|                                              PM----|       PM------|
|                    |-3-| |-3-| |-3-| |-3---------------------------|
| W           H      E E E E E E E E E E E E   E E E E S S E E E E E
|------------------|-------------------------|------------------------|
|------------------|-------------------------|------------------------|
|------------------|-9-7-5-------------------|------------------------|
|------------------|-------9-7-5-9-7-5-------|------------------------|
|------------------|-------------------9-7-5-|---------2-3-2----------|
|------------------|-------------------------|-0-2-3-5-------5-3-2-0--|


 4/4                 5/4                     4/4
  Gtrs I, II
  PM--|       PM------------|       PM------------|
  E E E S S E E E E   E E E E S S E E E E E   E E  E E E E E E
|-------------------|-----------------------|------------------|
|-------------------|-----------------------|------------------|
|-------------------|-----------------------|------------------|
|-------------------|-----------------------|----------9---7-9-|
|-------3-5-3-------|---------5-7-5---------|--------7---7-----|
|-3-5-7-------7-5-3-|-0-5-7-8-------8-7-5-0-|-7-8-10-----------|


 5/4                          4/4
  PM-----|          PM---------------|            PM-------
  E E  E  E S  S E  E  E E E    E  E  E  S  S  E  E  E  E
|----------------------------|----------------------------|
|----------------------------|----------------------------|
|----------------------------|----------------------------|
|----------------------------|----------------------------|
|-----------9-10-9-----------|----------10-12-10----------|
|-0-8-10-12--------12-10-8-0-|-10-12-14----------14-12-10-|


 5/4
 ---------|            PM------|
  E  E  E  E  S  S  E  E  E  E E
|---------------------------------|
|---------------------------------|
|---------------------------------|
|---------------------------------|
|------------12-14-12-------------|
|-0-12-14-15----------15-14-12-0--|


 4/4                         5/4                           3/4
                          Gtr I
   PM---|
   E  E  E  E  E  E  E  E     E  E  E E  E E  E  E E  E  3x E  E  E E  E E
|-------------------------||-----------------------------||----------------|
|-------------------------||o---------------------------o||----------------|
|-------------------------||-----------------------------||----------------|
|-------------16----14-16-||-----------------------------||----------------|
|----------14----14-------||o---------------------------o||----------------|
|-14-15-17----------------||--0-15-19-0-17-0-15-19-0-17--||-0-15-19-0-17-0-|
|
|                         Gtr II
|  W                          E  E  E E  E E  E  E E  E  3x E  E  E E  E E
|-------------------------||-----------------------------||----------------|
|-------------------------||o---------------------------o||----------------|
|-------------------------||-----------------------------||----------------|
|-------------------------||-----------------------------||----------------|
|-------------------------||o---------------------------o||----------------|
|-------------------------||--0--3--7-0--5-0--3--7-0--5--||-0--3--7-0--5-0-|


 4/4
  Gtrs I, II
   E  E  E  E  E  E  E  E    E  E  E  E  E  E  E  E
|-------------------------|-------------------------|
|-------------------------|-------------------------|
|-------------------------|-------------------------|
|-14----14----12-14----14-|----12-14----14----12-14-|
|-------------------------|-------------------------|
|-12----12----10-12----12-|----10-12----12----10-12-|
|
| Gtr III
|  E  E  E  E  E  E  E  E    E  E  E  E  E  E  E  E
|-------------------------|-19-------17-------------|
|----------------17-20----|-------------------20----|
|----------16-------------|----19-17----17-16----16-|
|----14-------14-------17-|-------------------------|
|-------14----------------|-------------------------|
|-12----------------------|-------------------------|
|
| Gtr IV
|  W                         E  E  E  E  E  E  E  E
|-------------------------|-15-------14-------12----|
|-------------------------|-------------------------|
|-------------------------|----16-14----14-12----12-|
|-------------------------|-------------------------|
|-------------------------|-------------------------|
|-------------------------|-------------------------|


              Q=135
 2/4
   E  E  E  E    E  E  E  E
|-------------|-------------|
|-------------|-------------|
|-------------|-------------|
|----14----12-|-------------|
|-------------|-14-12-------|
|----12----10-|-------15-14-|
|
|  E  E  E  E    E  E  E  E
|-------------|-------------|
|----19-------|-------------|
|-------------|-------------|
|-19----19-17-|-17-16-------|
|-------------|-------19-17-|
|-------------|-------------|
|
|  E  E  E  E    E  E  E  E
|----10-------|-------------|
|-------------|-------------|
|-11----11-19-|--7----------|
|-------------|----10--9--7-|
|-------------|-------------|
|-------------|-------------|


 7/4                                2/4       5/8
   E E E E +Q   E E E  E +E  E E E   E E E E   E E E E E
|----------------------------------|---------|-----------|
|----------------------------------|---------|-----------|
|----------------------------------|---------|-----------|
|--------9-(9)------5--------------|---------|-----5---4-|
|------7--------0-3----5-(5)-------|-------9-|-0-3---5---|
|--0-0-----------------------5-3-2-|-0-0-7---|-----------|
|
|  W                H.               H         H       E
|----------------------------------|---------|-----------|
|----------------------------------|---------|-----------|
|----------------------------------|---------|-----------|
|----------------------------------|---------|-----------|
|-19-------------------------------|---------|-----------|
|----------------------------------|---------|-----------|
|
|  W                H.               H         H       E
|----------------------------------|---------|-----------|
|----------------------------------|---------|-----------|
|----------------------------------|---------|-----------|
|--9-------------------------------|---------|-----------|
|----------------------------------|---------|-----------|
|----------------------------------|---------|-----------|


 7/4                              2/4       4/4
  Gtr I
  E E E E +Q   E E E E +E  E E E   E E E E   E E E E E  E  E  E
|--------------------------------|---------|--------------------|
|--------------------------------|---------|--------------------|
|--------------------------------|---------|---------------9--7-|
|-------9-(9)------5-------------|-------9-|-----5---4--7-------|
|-----7--------0-3---5-(5)-------|-----7---|-0-3---5------------|
|-0-0----------------------5-3-2-|-0-0-----|--------------------|
|
| Gtr II
| E E E E +Q   E E E E +E  E E E   E E E E   E E E E E  E  E  E
|--------------------------------|---------|--------------------|
|--------------------------------|---------|--------------------|
|--------------------------------|---------|--------------12-11-|
|-------9-(9)------5-------------|-------9-|-----5---4-10-------|
|-----7--------0-3---5-(5)-------|-----7---|-0-3---5------------|
|-0-0----------------------5-3-2-|-0-0-----|--------------------|


 7/4                              2/4       5/8
  Gtrs I, II
  E E E E +Q   E E E E +E  E E E   E E E E   E E E E E
|--------------------------------|---------|-----------|
|--------------------------------|---------|-----------|
|--------------------------------|---------|-----------|
|-------9-(9)------5-------------|---------|-----5---4-|
|-----7--------0-3---5-(5)-------|-------9-|-0-3---5---|
|-0-0----------------------5-3-2-|-0-0-7---|-----------|


 7/4                              2/4                 4/4
  E E E E +Q   E E E E +E  E E E   E E E E   E E E E   Q  H.
|--------------------------------|---------|---------|----------|
|--------------------------------|---------|---------|----------|
|--------------------------------|---------|---------|-2--2-----|
|-------9-(9)------5-------------|---------|-----5---|-2--2-----|
|-----7--------0-3---5-(5)-------|-------9-|-0-3---5-|-0--0-----|
|-0-0----------------------5-3-2-|-0-0-7---|---------|----------|


   7/4
    Gtr V
    E  E   E   E   E   E   E   E  E   E   E   E   E   E   4x
||-----------------0--(0)-(0)-(0)(0)-(0)-(0)--0--(0)-(0)--||-|
||o--------8--(8)-(8)--8--(8)-(8)(8)--8--(8)-(8)--8--(8)-o||-|
||-------------0--(0)-(0)--0--(0)(0)-(0)--0--(0)-(0)--0---||-|
||--5S=7--(7)-(7)-(7)-(7)-(7)--5S=7--(7)-(7)-(7)-(7)-(7)--||-|
||o-0-(0)-(0)-(0)-(0)-(0)-(0)--0-(0)-(0)-(0)-(0)-(0)-(0)-o||-|
||--------------------------------------------------------||-|


    E  E   E    E    E    E    E    E   E    E    E    E    E    E   4x
||-------------------0---(0)--(0)--(0)-(0)--(0)--(0)---0---(0)--(0)--||
||o-------10--(10)-(10)--10--(10)-(10)(10)--10--(10)-(10)--10--(10)-o||
||-------------11--(11)-(11)--11--(11)(11)-(11)--11--(11)-(11)--11---||
||--7S=9--(9)--(9)--(9)--(9)--(9)---7S==9---(9)--(9)--(9)--(9)--(9)--||
||o-----------------------------------------------------------------o||
||--0-(0)-(0)--(0)--(0)---0---(0)---0--(0)--(0)--(0)--(0)--(0)--(0)--||


    Gtr V
     E  E   E   E   E    E   E   E   E   E   E   E    E   E   4x
||------------------0---(0)-(0)-(0)-(0)-(0)-(0)-(0)--(0)-(0)--||-|
||o---------8--(8)-(8)---8--(8)-(8)-(8)--8--(8)--7----5--(5)-o||-|
||--------------0--(0)--(0)--0--(0)-(0)-(0)--0--(0)--(0)--7---||-|
||---5S=7--(7)-(7)-(7)--(7)-(7)--5S==7--(7)-(7)-(7)--(7)-(7)--||-|
||o--0-(0)-(0)-(0)-(0)--(0)-(0)--0--(0)-(0)-(0)-(0)--(0)-(0)-o||-|
||------------------------------------------------------------||-|
|
|   Gtr VI
|    Q      Q       E    E   E   E  +E   E  +E   E    E   E   4x
||--10------7------(7)---7--(7)-10-(10)--7--(7)-(7)---7--(7)--||-|
||o--8------8------10--(10)--8---8--(8)--8--(8)-10--(10)--8--o||-|
||---9------9-------9---(9)--9---9--(9)--9--(9)--9---(9)--9---||-|
||------------------------------------------------------------||-|
||o----------------------------------------------------------o||-|
||------------------------------------------------------------||-|


    E  E   E    E    E    E    E    E   E    E    E    E    E    E    4x
||-------------------0---(0)--(0)--(0)-(0)--(0)--(0)---0---(0)--(0)---||
||o-------10--(10)-(10)--10--(10)-(10)(10)--10--(10)-(10)--10--(10)--o||
||-------------11--(11)-(11)--11--(11)(11)-(11)--11--(11)-(11)--11----||
||--7S=9--(9)--(9)--(9)--(9)--(9)---7S==9---(9)--(9)--(9)--(9)--(9)---||
||o------------------------------------------------------------------o||
||--0-(0)-(0)--(0)--(0)---0---(0)---0--(0)--(0)--(0)--(0)--(0)--(0)---||
|
|   W                                   H.                            4x
||--------------------------------------------------------------------||
||o------------------------------------------------------------------o||
||--------------------------------------------------------------------||
||--------------------------------------------------------------------||
||o------------------------------------------------------------------o||
||--------------------------------------------------------------------||


 4/4
  Gtr V
   E   E    E    E    E    E   +Q     E   E    E    E    E    E   E  E
|-------------------------12--(12)-|-------------------------10--------|
|----------10--(10)--10--(10)-(10)-|-----------8---(8)---8---(8)-13-12-|
|------9---(9)---9---(9)--(9)--(9)-|------7---(7)---7---(7)--(7)-------|
|-12-(12)-(12)-(12)-(12)-(12)-(12)-|-10-(10)-(10)-(10)-(10)-(10)-------|
|----------------------------------|-----------------------------------|
|----------------------------------|-----------------------------------|


     E   E    E    E    E    E    E    E     E   E    E    E    E    E    E    E
||----------------------------------------|---------------------------------------|
||o----------12--(12)-(12)-(12)--12--(12)-|----------12--(12)-(12)-(12)--12--(12)-|
||------12--(12)--12--(12)--12--(12)--12--|-----11--(11)--11--(11)--11--(11)--11--|
||--14-(14)-(14)-(14)--14--(14)-(14)-(14)-|-14-(14)-(14)-(14)--14--(14)-(14)-(14)-|
||o---------------------------------------|---------------------------------------|
||--------
4 comments total. Showing first comments.
0 reply
Faded Grey wrote on August 24 2008, 12:09 am

Awesome tab man.

0 reply
Dregen wrote on October 29 2008, 06:34 pm

Now people that can use Guitar Pro or PowerTab as a resource can play this.

Good job man.

0 reply
Dregen wrote on October 29 2008, 06:34 pm

I meant can't use... Sorry

I want to post or [tab]
guest
You may want to rate the tab now too:
select rating
Please do not post tabs as comments. Select "correction" instead!