Oops, an error
Loading. Please wait.

Deja Vu Bass Tab

ver2
ver2

Whole song

More versions @911Tabs.com
1,444 views 21 this week
no commentswrite comment
1 2 3 4 5
please rate
Autoscroll
+/-
esc
set tempo
stop
Difficulty
intermediate
WARNING: You are trying to view
                                    content from Ultimate-Guitar.com
                                    in an unauthorized application,
                                    which is prohibited.

                                    Please use an official Ultimate
                                    Guitar Tabs application for iPhone,
                                    iPad or Android to access legitimate
                                    chords, guitar, bass, and drum tabs
                                    from Ultimate-Guitar.com database.

                                    Type "ultimate guitar tabs" in Apple
                                    App Store's or Android Market's
                                    search to find the application.
============================================
       Deja Vu - Beyoncé feat. Jay-Z
============================================

Main Riff:
|-------------------------------------------|
|-------------x-3-4-5---------------x-3-4-5-|
|-------------------------------------------|
|-3-x3---3-3-----------3-x3-3-3-3-----------|

Lick before chorus:
|-14-15-17--14/15\14-----14----14/15\14-----|
|--------------------17-----17----------17--|
|-------------------------------------------|
|-------------------------------------------|

Chorus:
|-------------------------------------------|
|-------6--8--10--8--10--------5--7--9--7--9|
|----6----------------------5---------------|
|-4----------------------3------------------|

That's about it. After Jay-Z's main rap the
main riff modulates between G and G# like so:
|-------------------------------------------|
|-------------x-4-5-6---------------x-3-4-5-|
|-------------------------------------------|
|-4-x4---4-4-----------3-x3-3-3-3-----------|

Then into the chorus.

Comments/amendments
mickyginger@gmail.com
comments
We did not receive enough feedback on this tab! Please rate:
1 2 3 4 5
I want to post or [tab]
guest
You may want to rate the tab now too:
select rating
Please do not post tabs as comments. Select "correction" instead!