Oops, an error
Loading. Please wait.

And With The Scissor Kick Is Victorious Tab

1,009 views 3 this week
no commentswrite comment
1 2 3 4 5
please rate
Autoscroll
+/-
esc
set tempo
stop
Contributor
Tuning
D A D G B E
WARNING: You are trying to view
                                    content from Ultimate-Guitar.com
                                    in an unauthorized application,
                                    which is prohibited.

                                    Please use an official Ultimate
                                    Guitar Tabs application for iPhone,
                                    iPad or Android to access legitimate
                                    chords, guitar, bass, and drum tabs
                                    from Ultimate-Guitar.com database.

                                    Type "ultimate guitar tabs" in Apple
                                    App Store's or Android Market's
                                    search to find the application.
Intro

e]----------------------------------------|
b]---3---5-----7---5-----3---5-----7---9--|
g]---5---7-----9---7-----5---7-----9---11-|
d]-0---0----0----0----0----0----0----0----|
a]----------------------------------------|
d]----------------------------------------| x2

e]---------------------------------------------------|
b]---10----13-----10----13-----10----13-----10---8-8-|
g]---9-----11-----9-----11-----9-----11-----9----7-7-|
d]-0----0------0-----0------0-----0------0-----0-----|
a]---------------------------------------------------|
d]---------------------------------------------------| x2

e]----------------------------------------|
b]----------------------10-10-10-10-10-10-|
g]-7--7--7--7-7-7-7-7-7-10-10-10-10-10-10-|
d]-5--5--5--x-x-x-x-x-x-8--8--8--8--8--8--|
a]-5--5--5--5-5-5-5-5-5-8--8--8--8--8--8--|
d]-5--5--5--4-4-4-4-4-4-8--8--8--8--8--8--|

*Bass Fill*

e]-------------------------------------|
b]-------------------------------------|
g]-10/12-------12-12-12-12-12-12-12-12-|
d]-x--x--------10-10-10-10-10-10-10-10-|
a]-8-/10-------10-10-10-10-10-10-10-10-|
d]-0-----------10-10-10-10-10-10-10-10-|

e]-------------------------------------------------------------------------|
b]-------------------------------------------------------------------------|
g]-7-7-7-7-7-7-7-7-10-10-10-10-10-10-10-10-5-5-5-5-5-5-5-5-9-9-9-9-9-9-9-9-|
d]-5-5-5-5-5-5-5-5-8--8--8--8--8--8--8--8--3-3-3-3-3-3-3-3-7-7-7-7-7-7-7-7-|
a]-5-5-5-5-5-5-5-5-8--8--8--8--8--8--8--8--3-3-3-3-3-3-3-3-7-7-7-7-7-7-7-7-|
d]-5-5-5-5-5-5-5-5-8--8--8--8--8--8--8--8--3-3-3-3-3-3-3-3-7-7-7-7-7-7-7-7-|

e]-------------------------------------|
b]-------------------------------------|
g]-10/12-------12-12-12-12-12-12-12-12-|
d]-x--x--------10-10-10-10-10-10-10-10-|
a]-8-/10-------10-10-10-10-10-10-10-10-|
d]-0-----------10-10-10-10-10-10-10-10-|

e]---------------------------------------|
b]---------------------------------------|
g]-10-10-10-10-10-10-10-10--9-10-12-14-0-|
d]-8--8--8--8--8--8--8--8---x-x--x--x--0-|
a]-8--8--8--8--8--8--8--8---7-8--10-12-0-|
d]-8--8--8--8--8--8--8--8--------------0-|

e]-------------------------------------------|
b]-------------------------------------------|
g]-12-12-12-12-12-12-12-12--9-10-12-14-12-10-|
d]-10-10-10-10-10-10-10-10--x-x--x--x--x--x--|
a]-10-10-10-10-10-10-10-10--7-8--10-12-10-8--|
d]-10-10-10-10-10-10-10-10-------------------|

e]---------------------------------------|
b]---------------------------------------|
g]-10-10-10-10-10-10-10-10--9-10-12-14-0-|
d]-8--8--8--8--8--8--8--8---x-x--x--x--0-|
a]-8--8--8--8--8--8--8--8---7-8--10-12-0-|
d]-8--8--8--8--8--8--8--8--------------0-|

e]------------------------------------------------------------|
b]------------------------------------------------------------|
g]-12-12-12-12-12-12-12-12------12-12-12-12-12-12-12-12\------|
d]-10-10-10-10-10-10-10-10-[10]-10-10-10-10-10-10-10-10\------|
a]-10-10-10-10-10-10-10-10-[10]-10-10-10-10-10-10-10-10\------|
d]-10-10-10-10-10-10-10-10-[10]-10-10-10-10-10-10-10-10\ ([10-| = harmonics)

e]-----------------------------------------|
b]-------5-5-------6-6-------5-8-8-8-8-8-8-|
g]-------5-5-------7-7-------5-9-9-9-9-9-9-|
d]-0-0-0-----0-0-0-----0-0-0---------------|
a]-0-0-0-----0-0-0-----0-0-0---------------|
d]-0-0-0-----0-0-0-----0-0-0---------------| x4

e]--------------------------------|
b]--------------------------------|
g]----9-9--9-10-10--9-9--12-12-12-|
d]-0--x-x--x-x--x---x-x--10-10-10-|
a]-0--7-7--7/8--8---7-7--10-10-10-|
d]-0---------------------10-10-10-| x4

e]------------------|
b]------------------|
g]---0---0---0---0--|
d]-5---5---5---5----|
a]------------------|
d]------------------|

1st Verse

e]-3-3-3-3-3-3-3-3-3-3-3-3-3-3-3-3--3-3-3-3-3-3-3-3-|
b]-5-5-5-5-5-5-5-5-5-5-5-5-5-5-5-5--5-5-5-5-5-5-5-5-|
g]-5-5-5-5-4-4-4-4-0-0-0-0-0-0-0-0--5-5-5-5-4-4-4-4-|
d]-----------------5-5-5-5-5-5-5-5------------------|
a]--------------------------------------------------|
d]--------------------------------------------------|

e]-3-3-3-3--7-7-7--- e]---------------------|
b]-5-5-5-5--5-5-5-8- b]-8-8-8-8-8-8-8-8-----|
g]-5-5-5-5--5-5-5-5- g]-5-5-5-5-5-5-5-5-----|
d]------------------ d]---------------------|
a]------------------ a]---------------------|
d]------------------ x4 d]------------------|

Bridge

e]----------------------------------------------------------------------------------|
b]----------------------------------------------------------------------------------|
g]-9-9-5-5-5-5-5-5-5-5-/9-7-7-7-7-7-7-7-7-/9-5-5-5-5-5-5-5-5-/9-7-7-7-7-7-7-7-7-/11-|
d]-7-7-3-3-3-3-3-3-3-3-/7-5-5-5-5-5-5-5-5-/7-3-3-3-3-3-3-3-3-/7-5-5-5-5-5-5-5-5-/9--|
a]-7-7-3-3-3-3-3-3-3-3-/7-5-5-5-5-5-5-5-5-/7-3-3-3-3-3-3-3-3-/7-5-5-5-5-5-5-5-5-/9--|
d]-7-7-3-3-3-3-3-3-3-3-/7-5-5-5-5-5-5-5-5-/7-3-3-3-3-3-3-3-3-/7-5-5-5-5-5-5-5-5-/9--|

Chorus

e]-------------------------------------------------------|
b]-------------------------------------------------------|
g]---------9-9-9-9--10-10/12--9-9-7-7-5-5-5-5-5-5-5-5-/9-|
d]-0-0-0-0-7-7-7-7--0--0--0---7-7-5-5-3-3-3-3-3-3-3-3-/7-|
a]-0-0-0-0-7-7-7-7--8--8-/10--7-7-5-5-3-3-3-3-3-3-3-3-/7-|
d]-0-0-0-0-7-7-7-7--0--0--0---7-7-5-5-3-3-3-3-3-3-3-3-/7-| x2

e]---------|
b]---------|
g]-5--5----|
d]-3--3----|
a]-3--3----|
d]-3--3----|

*Drum Fill*

Intro Riff

e]---------------------------------------|
b]---------------------------------------|
g]-10-10-10-10-10-10-10-10--9-10-12-14-0-|
d]-8--8--8--8--8--8--8--8---x-x--x--x--0-|
a]-8--8--8--8--8--8--8--8---7-8--10-12-0-|
d]-8--8--8--8--8--8--8--8--------------0-|

e]-------------------------------------------|
b]-------------------------------------------|
g]-12-12-12-12-12-12-12-12--9-10-12-14-12-10-|
d]-10-10-10-10-10-10-10-10--x-x--x--x--x--x--|
a]-10-10-10-10-10-10-10-10--7-8--10-12-10-8--|
d]-10-10-10-10-10-10-10-10-------------------|

e]---------------------------------------|
b]---------------------------------------|
g]-10-10-10-10-10-10-10-10--9-10-12-14-0-|
d]-8--8--8--8--8--8--8--8---x-x--x--x--0-|
a]-8--8--8--8--8--8--8--8---7-8--10-12-0-|
d]-8--8--8--8--8--8--8--8--------------0-|

e]-------------------------------------------------------|
b]-------------------------------------------------------|
g]-12-12-12-12-12-12-12-12------12-12-12-12-12-12-12-12\-|
d]-10-10-10-10-10-10-10-10-[10]-10-10-10-10-10-10-10-10\-|
a]-10-10-10-10-10-10-10-10-[10]-10-10-10-10-10-10-10-10\-|
d]-10-10-10-10-10-10-10-10-[10]-10-10-10-10-10-10-10-10\-|

e]-----------------------------------------|
b]-------5-5-------6-6-------5-8-8-8-8-8-8-|
g]-------5-5-------7-7-------5-9-9-9-9-9-9-|
d]-0-0-0-----0-0-0-----0-0-0---------------|
a]-0-0-0-----0-0-0-----0-0-0---------------|
d]-0-0-0-----0-0-0-----0-0-0---------------|

e]--------------------------------|
b]--------------------------------|
g]----9-9--9-10-10--9-9--12-12-12-|
d]-0--x-x--x-x--x---x-x--10-10-10-|
a]-0--7-7--7/8--8---7-7--10-10-10-|
d]-0---------------------10-10-10-| x4

e]-----------------------------------|
b]-----------------------------------|
g]-----------------12-12-12-12-12-12-|
d]-0-0-x-0-0-x-0-0-10-10-10-10-10-10-|
a]-0-0-x-0-0-x-0-0-10-10-10-10-10-10-|
d]-0-0-x-0-0-x-0-0-10-10-10-10-10-10-|

e]-----------------------------------|
b]-----------------------------------|
g]-----------------12-12-12-12-12-12-|
d]-0-0-x-0-0-x-0-0-10-10-10-10-10-10-|
a]-0-0-x-0-0-x-0-0-10-10-10-10-10-10-|
d]-0-0-x-0-0-x-0-0-10-10-10-10-10-10-| x4

e]------------------|
b]------------------|
g]---0---0---0---0--|
d]-5---5---5---5----|
a]------------------|
d]------------------|

2nd Verse

e]-----3----------3----------3---3-----3---3-|
b]---5---5------5---5------5---------5-------|
g]-5-------5--4-------4--0-----0---0-----0---|
d]-----------------------5-----5---5-----5---|
a]-------------------------------------------|
d]-------------------------------------------|

e]-----3----------3-----|
b]---5---5------5---5---|
g]-5-------5--4-------4-|
d]----------------------|
a]----------------------|
d]----------------------|

e]-----3------7------ e]---------------------|
b]---5---5---------8- b]-8-8-8-8-8-8-8-8-----|
g]-5-------5--5--5--- g]-5-5-5-5-5-5-5-5-----|
d]------------------- d]---------------------|
a]------------------- a]---------------------|
d]------------------- x4 d]------------------|

Bridge

e]----------------------------------------------------------------------------------|
b]----------------------------------------------------------------------------------|
g]-9-9-5-5-5-5-5-5-5-5-/9-7-7-7-7-7-7-7-7-/9-5-5-5-5-5-5-5-5-/9-7-7-7-7-7-7-7-7-/11-|
d]-7-7-3-3-3-3-3-3-3-3-/7-5-5-5-5-5-5-5-5-/7-3-3-3-3-3-3-3-3-/7-5-5-5-5-5-5-5-5-/9--|
a]-7-7-3-3-3-3-3-3-3-3-/7-5-5-5-5-5-5-5-5-/7-3-3-3-3-3-3-3-3-/7-5-5-5-5-5-5-5-5-/9--|
d]-7-7-3-3-3-3-3-3-3-3-/7-5-5-5-5-5-5-5-5-/7-3-3-3-3-3-3-3-3-/7-5-5-5-5-5-5-5-5-/9--|

Chorus

e]-------------------------------------------------------|
b]-------------------------------------------------------|
g]---------9-9-9-9--10-10/12--9-9-7-7-5-5-5-5-5-5-5-5-/9-|
d]-0-0-0-0-7-7-7-7--0--0--0---7-7-5-5-3-3-3-3-3-3-3-3-/7-|
a]-0-0-0-0-7-7-7-7--8--8-/10--7-7-5-5-3-3-3-3-3-3-3-3-/7-|
d]-0-0-0-0-7-7-7-7--0--0--0---7-7-5-5-3-3-3-3-3-3-3-3-/7-| x2

Build Up

e]-5-5-5-5-5-5-5-5--5-5-5-5--5-5-5-5-5-5-5-5--5-5-5-5-|
b]-3-3-3-3-3-3-3-3--0-0-0-0--3-3-3-3-3-3-3-3----------|
g]--------------------------------------------3-3-3-3-|
d]----------------------------------------------------|
a]----------------------------------------------------|
d]----------------------------------------------------|

e]-5-5-5-5-5-5-5-5--------------------------------|
b]-3-3-3-3-3-3-3-3--10-10-10-10-8-8-8-8-6-6-6-6-5-|
g]------------------0--0--0--0--0-0-0-0-0-0-0-0-0-|
d]------------------------------------------------|
a]------------------------------------------------|
d]------------------------------------------------|

Build Up x2

Heavy Verse

e]--------------------------------------------------|
b]-3-3-3-3------------------3-3-3-3-----------------|
g]-2-2-2-2--11-11-11-11-11--2-2-2-2--10-10-10-10-10-|
d]-0-0-0-0--9--9--9--9--9---0-0-0-0--8--8--8--8--8--|
a]-0-0-0-0--9--9--9--9--9---0-0-0-0--8--8--8--8--8--|
d]-0-0-0-0------------------0-0-0-0-----------------|

e]-----------------------------------------|
b]-3-3-3-3---------------------------------|
g]-2-2-2-2--14-14-14--12-12-12--10-10-10-9-|
d]-0-0-0-0--x--x--x---x--x--x---x--x--x--x-|
a]-0-0-0-0--12-12-12--10-10-10--8--8--8--7-|
d]-0-0-0-0---------------------------------|

Heavy Verse x2

Outro Verse

e]-----------------------------------------------------------------------|
b]-----------------------------------3-3-3-3-3-3-3-3---------------------|
g]-9-9-9-9-9-9-9-9--5-5-5-5-5-5-5-5--2-2-2-2-2-2-2-2--4-4-4-4-4-4-4-4----|
d]-7-7-7-7-7-7-7-7--3-3-3-3-3-3-3-3--0-0-0-0-0-0-0-0--2-2-2-2-2-2-2-2----|
a]-7-7-7-7-7-7-7-7--3-3-3-3-3-3-3-3--0-0-0-0-0-0-0-0--2-2-2-2-2-2-2-2----|
d]-7-7-7-7-7-7-7-7--3-3-3-3-3-3-3-3--0-0-0-0-0-0-0-0--2-2-2-2-2-2-2-2----|

Outro Verse x2

Outro

e]----------------------------------------|
b]----------------------------------------|
g]-9-9--9-9--9-9--9-9--9-9--9-9--9-9--9-9-|
d]-9-9--9-9--9-9--9-9--9-9--9-9--9-9--9-9-|
a]-7-7--7-7--7-7--7-7--7-7--7-7--7-7--7-7-|
d]-0-0--0-0--0-0--0-0--0-0--0-0--0-0--0-0-|

e]---------------|
b]-------0-------|
g]-12-12---11-11-|
d]-10-10---12-12-|
a]-10-10---10-10-|
d]-10-10---10-10-|

e]-------|
b]-------|
g]-9-/11-|
d]-x--x--|
a]-7-/9--|
d]-0-----|
comments
We did not receive enough feedback on this tab! Please rate:
print report bad tab
1 2 3 4 5
I want to post or [tab]
guest
You may want to rate the tab now too:
select rating
Please do not post tabs as comments. Select "correction" instead!