Oops, an error
Loading. Please wait.

Biblical Tab

ver2
ver2

Whole song

Interactive

More versions @911Tabs.com
3,892 views 75 this week
no commentswrite comment
1 2 3 4 5
excellent!
x 4
Autoscroll
+/-
esc
set tempo
stop
Contributor
Difficulty
Tuning
intermediate
C# G# C# F# A# D#
WARNING: You are trying to view
                                    content from Ultimate-Guitar.com
                                    in an unauthorized application,
                                    which is prohibited.

                                    Please use an official Ultimate
                                    Guitar Tabs application for iPhone,
                                    iPad or Android to access legitimate
                                    chords, guitar, bass, and drum tabs
                                    from Ultimate-Guitar.com database.

                                    Type "ultimate guitar tabs" in Apple
                                    App Store's or Android Market's
                                    search to find the application.
Brilliant song by a brilliant band, haven't found many accurate tabs on here so 
I've went off what I've learned by ear/watching live performances.

Tuning : C# G# C# F# A# D#

Intro-

"baby if you could"

|---------|
|-5--5--6-|
|-5--5--5-|
|-x--x--3-|
|-3--0--x-|
|---------|

Verse - (part one)

"play another song here"

pm . . . . . . . . . . . . . . . . . .
|------------------------------------|
|-555555555555555555-6666666666666666|
|-555555555555555555-5555555555555555|   x2
|------------------------------------|
|------------------------------------|
|------------------------------------|

(little pull off bit)

|--3p0----------0-3----|
|------6----x3---------|
|--------5-------------|
|----------------------|
|----------------------|

Prechorus - 

"maybe there's an undertow here"
                                                         (slowly bend)
|-------------------------------------------------------------------------|
|--66666666-55555555-88888888-66666666-66666666-55555555------------------|
|--77777777-55555555-77777777-77777777-55555555-55555555-7777777777777777-|
|--------------------------------------------------------5555555555555555-|
|-------------------------------------------------------------------------|
|-------------------------------------------------------------------------|


Chorus

"you gave me magical"

|-------------------------------------------------------------------------|
|--------------------1111111-------------------333333333------------------|
|--------------------0000000-222222222---------000000000-2222222222222222-|
|--3333333-222222222-2222222-222222222-3333333-xxxxxxxxx-2222222222222222-|
|--3333333-333333333-3333333-000000000-3333333-555555555-0000000000000000-|
|--3333333-222222222-------------------3333333-555555555------------------|

|--------------------------------------------------------------------------|
|--------------------1111111-------------------333333333-------------------|
|--------------------0000000-222222222---------000000000-2222222-444444444-|
|--3333333-222222222-2222222-222222222-3333333-xxxxxxxxx-2222222-444444444-|
|--3333333-333333333-3333333-000000000-3333333-555555555-0000000-222222222-|
|--3333333-222222222-------------------3333333-555555555-------------------|

Post Chorus

|---------------------------------------------------------|
|---------------------------------------------------------|
|--5----------5----------2--------------------------------|
|--5-x16------3-x16------2-x16------5---------------------|
|--3---------------------0----------5-x16-----------------|
|-----------------------------------5---------------------|

Verse x1

Prechorus x1

Chorus x1

Post Chorus x2

Bridge - (with post chorus playing underneath) x2

|-------------------------------------------------------------------------|
|-------------------------------------------------------------------------|
|--5555555-7-9-x6--4444444-5-7--7777777-9-10-9----------------------------|
|-------------------------------------------------------------------------|
|-------------------------------------------------------------------------|
|-------------------------------------------------------------------------|

Outro (same as intro)

|---------|
|-5-----6-|
|-5-----5-|
|-x-----3-|
|-3--0--x-|
|---------|
comments
print report bad tab
I want to post or [tab]
guest
You may want to rate the tab now too:
select rating
Please do not post tabs as comments. Select "correction" instead!