Oops, an error
Loading. Please wait.

Blackened Sky Tab

14,560 views 3 this week
2 commentsread comments
1 2 3 4 5
excellent!
x 10
Autoscroll
+/-
esc
set tempo
stop
Contributor
Hey! There's an official Ultimate Guitar app which is ideal
for learning songs when you're away from computer. Get the app
WARNING: You are trying to view
                                    content from Ultimate-Guitar.com
                                    in an unauthorized application,
                                    which is prohibited.

                                    Please use an official Ultimate
                                    Guitar Tabs application for iPhone,
                                    iPad or Android to access legitimate
                                    chords, guitar, bass, and drum tabs
                                    from Ultimate-Guitar.com database.

                                    Type "ultimate guitar tabs" in Apple
                                    App Store's or Android Market's
                                    search to find the application.
This is Biffy Clyro's first full length album and her are the tabs for it enjoy

Joy.Discovery.Invention

Tuning Standard

Verse 1

e]------------------------------------|
b]------------------------------------|
g]-----------------4------4-----------|
d]-----9------9------5------5---------|
a]---7------7-----------3-------------| x3
e]-0------9------3--------------------|

Pre-Chorus

e]------------------------------------|
b]------------------------------------|
g]-7/9-7/9-7/11-7---------------------|
d]------------------------------------|
a]-5/7-5/7-5/9--5---------------------|
e]------------------------------------|

Chorus

e]---------------------------------|
b]---------------------------------|
g]---------------------------------|
d]-12-12-12-12-12-12-12-12---------|
a]-10-10-10-10-10-10-10-10---------|
e]-8--8--8--8--8--8--8--8----------|

e]---------------------------------|
b]---------------------------------|
g]---------------------------------|
d]-12-12-12-12-12-12-12-12---------|
a]-10-10-10-10-10-10-10-10---------|
e]-0--0--0--0--0--0--0--0----------|

Repeat Pre-Chorus and Chorus

Go Back to Verse 1

Then...

e]---------------------------------|
b]---------------------------------|
g]-------0-------0-----------------|
d]-9-9-9-9-9-9-9-9-----------------|
a]-7-7-7-7-7-7-7-7-----------------|
e]-0-0-0-0-0-0-0-0-----------------|

Bridge

e]----------------------------------|
b]----------------------------------|
g]-x-x-12-12-x-x-11-11--7-----------|
d]-------------------------9-9-9----|
a]-x-x-10-10-x-x-9--9---5--7-7-7----|
e]-------------------------0-0-0----|

e]---------------------------------|
b]---------------------------------|
g]---------------------------------|
d]-9-9-9-9-/-12-12--4-/-5-5-5-5----|
a]-7-7-7-7-/-10-10--2-/-3-3-3-3----|
e]-7-7-7-7-/-10-10--2-/-3-3-3-3----|

Repeat Bridge x4

Verse 2

e]----------------------------------|
b]----------------------------------|
g]----------------------7----9--9-9-|
d]--5--5-5------------7---7--9--9-9-|
a]--5--5-5--5--5-5---5-------7--7-7-|
e]--3--3-3--2--2-2-----------0--0-0-|

e]---------------------------------|
b]---------------------------------|
g]-5-5-5-5-5-5-5-5-----------------|
d]-5-5-5-5-5-5-5-5-5-5-5-5-5-5-5-5-|
a]-3-3-3-3-3-3-3-3-2-2-2-2-2-2-2-2-|
e]-----------------0-0-0-0-0-0-0-0-|

Repeat Verse 2

Go Back to Bridge x3

Then...

e]-------------------------------------------------------|
b]-------------------------------------------------------|
g]-x-x-12-12-x-x-11-11--14-16-16--16-16-19-19--11-12-12--|
d]-------------------------------------------------------|
a]-x-x-10-10-x-x-9--9---12-14-14--14-14-17-17--9--10-10--|
e]-------------------------------------------------------|

e]---------------------------------|
b]---------------------------------|
g]-19-19-18-18--14-16-16--14/16\14-|
d]---------------------------------|
a]-17-17-16-16--12-14-14--12/14\12-|
e]---------------------------------|

e]---------------------------|
b]---------------------------|
g]-19-17-16-11-12-12---------|
d]---------------------------|
a]-17-15-14-9--10-10---------|
e]---------------------------|


Ourto Chorus

e]-----------------------------------|
b]-----------------------------------|
g]-----------------------------------|
d]--0-------0-------7--(x8)-9--------|
a]--2-------0-------5-------7--------|
e]--3-------2---------------0--------|

e]---------------------------------|
b]---------------------------------|
g]---------------------------------|
d]-12-12-12-12-12-12-12-12---------|
a]-10-10-10-10-10-10-10-10---------|
e]-8--8--8--8--8--8--8--8----------|

e]---------------------------------|
b]---------------------------------|
g]---------------------------------|
d]-12-12-12-12-12-12-12-12---------|
a]-10-10-10-10-10-10-10-10---------|
e]-0--0--0--0--0--0--0--0----------|

e]---------------------------------|
b]---------------------------------|
g]---------------------------------|
d]-12-12-12-12-12-12-12-12--12-----|
a]-10-10-10-10-10-10-10-10--10-----|
e]-8--8--8--8--8--8--8--8---0------|
Joy.Discovery.Invention
Look at slow motion asleep at the door
Next to destruction, reach for the source

Get up, get up, get over, take me to your blackened sky
Get up, get up, get over, take me to your blackened sky

Sink with your wasted dreams when you can,
Find time to console them, become what I am
If you submit to all the hopes you've made,
Down through your heart

Get up, get up, get over, take me to your blackened sky
Get up, get up, get over, take me to your blackened sky

Pass away, I hope you don't mind,
Watch the letters send, to see this through

If you want it get it, go and break my heart
take me to your blackened sky
If you want it get it, go and break my heart
Take me to your blackened sky

Pass away, I hope you don't mind,
Watch the letters send, to see this through

If you want it get it, come and break my heart
Take me to your blackened sky.

-------------------------------------------------------------------

Tuning - Drop D

27

Verse

e]---------------------------------|
b]---------------------------------|
g]---------------------------------|
d]---------------------------------|
a]-7-7-7-7-7-7-5-5-9-9-9-9-9-9-7-7-| x8
d]-5-5-5-5-5-5-5-5-0-0-0-0-0-0-0-0-|

Chorus

e]-----------------------------|
b]-----------------------------|
g]-----------------------------|
d]-----------------------------|
a]-9-10-10-10---10---10---10---|
d]-0-9--9-----9----9----9----9-|

e]-------------------------------|
b]-------------------------------|
g]-------------------------------|
d]-------------------------------|
a]-12-12-12----12----12----12----|
d]-11-11----11----11----11----11-|

1st Time

e]-------------------------------|
b]-------------------------------|
g]-------------------------------|
d]-------------------------------|
a]-12-12-12----12----12----12----| x2
d]-12-12----12----12----12----12-|

2nd Time

e]-------------------------------|
b]-------------------------------|
g]-------------------------------|
d]-------------------------------|
a]-12-12-12---12---12---12-------| x2
d]-0--0-----0----0----0----0-----|

e]---------------------------------|
b]---------------------------------|
g]-11-11-11^12^11------------------|
d]---------------------------------|
a]-9--9--9--9--9-------------------|
d]-0--0--0--0--0-------------------|

Verse 2

e]---------------------------------|
b]---------------------------------|
g]-------------7-7/11--------------|
d]---------------------------------|
a]-7-7-7-7-7-7-5-5-9-9-9-9-9-9-7-7-| x6
d]-5-5-5-5-5-5-5-5-0-0-0-0-0-0-0-0-|

Chorus 2

e]---------------------------------|
b]---------------------------------|
g]---------------------------------|
d]---9--9--9--9--9--9--9--9--9-----|
a]-9-10-10-10-10-10-10-10-10-10----|
d]-0-9--9--9--9--9--9--9--9--9-----|

e]---------------------------------|
b]---------------------------------|
g]---------------------------------|
d]-11-11-11-11-11-11-11-11---------|
a]-12-12-12-12-12-12-12-12---------|
d]-11-11-11-11-11-11-11-11---------|

e]---------------------------------|
b]---------------------------------|
g]-2-2-2-2-2-2-2-2-----------------|
d]-0-0-0-0-0-0-0-0-----------------|
a]-0-0-0-0-0-0-0-0-----------------|
d]-0-0-0-0-0-0-0-0-----------------|

e]---------------------------------|
b]---------------------------------|
g]-11-11-11-11-11-11-11-11---------|
d]---------------------------------|
a]-9--9--9--9--9--9--9--9----------|
d]-0--0--0--0--0--0--0--0----------|

e]---------------------------------|
b]---------------------------------|
g]---------------------------------|
d]---9--9--9--9--9--9--9--9--9-----|
a]-9-10-10-10-10-10-10-10-10-10----|
d]-0-9--9--9--9--9--9--9--9--9-----|

e]---------------------------------|
b]---------------------------------|
g]---------------------------------|
d]-11-11-11-11-11-11-11-11---------|
a]-12-12-12-12-12-12-12-12---------|
d]-11-11-11-11-11-11-11-11---------|

e]---------------------------------|
b]---------------------------------|
g]-11-11-11-11-11-11-11-11---------|
d]---------------------------------|
a]-9--9--9--9--9--9--9--9----------|
d]-0--0--0--0--0--0--0--0----------|

e]---------------------------------|
b]---------------------------------|
g]-9-9-9-9-9-7-7-7-----------------|
d]-7-7-7-7-7-5-5-5-----------------|
a]-7-7-7-7-7-5-5-5-----------------|
d]-7-7-7-7-7-5-5-5-----------------|

e]---------------------------------|
b]---------------------------------|
g]-11-11-11-11-11-11-11-11---------|
d]---------------------------------|
a]-9--9--9--9--9--9--9--9----------|
d]-0--0--0--0--0--0--0--0----------|

e]---------------------------------|
b]---------------------------------|
g]-9-9-9-9-9-<5>-------------------|
d]-7-7-7-7-7-<5>-------------------|
a]-7-7-7-7-7-<5>-------------------|
d]-7-7-7-7-7-<5>-------------------|

Verse 3

e]---------------------------------------|
b]---------------------------------------|
g]-9-9-9-9-9-9-7-7/11-11-11-11-11-11-9-9-|
d]-------------5-5-----------------------|
a]-7-7-7-7-7-7-5-5-9--9--9--9--9--9--7-7-| x6
d]-5-5-5-5-5-5-5-5-0--0--0--0--0--0--0-0-|

Go back to Chorus 2

Then...

e]---------------------------------|
b]---------------------------------|
g]-9-9-9-9-9-7-7-7-----------------|
d]-7-7-7-7-7-5-5-5-----------------|
a]-7-7-7-7-7-5-5-5-----------------|
d]-7-7-7-7-7-5-5-5-----------------|

e---------------------------------|
b---------------------------------|
g-11-11-11-11-11-11-11-11---------|
d---------------------------------|
a-9--9--9--9--9--9--9--9----------|
d-0--0--0--0--0--0--0--0----------|

e---------------------------------|
b---------------------------------|
g-9-9-9-9-9-7-7-7---2-------------|
d-7-7-7-7-7-5-5-5---0-------------|
a-7-7-7-7-7-5-5-5---0-------------|
d-7-7-7-7-7-5-5-5---0-------------|

Solo

e------------------------------------|
b------------------------------------|
g------------------------------------|
d-/12--11/12--11/12/11/7-11/12/14/12-|
a------------------------------------|
d------------------------------------|

e---------------------------------|
b---------------------------------|
g---------------------------------|
d-11/12/11/12/14/16/12------------|
a---------------------------------|
d---------------------------------|
27
I stroke your silken skin, kiss you goodbye,
Your eyes just pierce me through.
I am bleeding with blood I'd give to you, to be the way we were.

I still feel the pain in my heart.
Thoughts once pure are now diluted.

We sat and watched the sun go down.
We wrapped together in each other's arms.
I never felt so clean as when we're alone,
On descend that night.

I still feel the pain in my heart.
Thoughts once pure are now diluted.

I love the way your hair, hangs over your eyes,
Trust me with your stare.
If I could fly to you, I would to be, the way we were.

I still feel the pain in my heart.
Thoughts once pure are now diluted.

It's alright now. It's alright now.
It's alright now. It's alright now.

----------------------------------------------------------------------
Justboy

e]------------------------------|
b]------------------------------|
g]--------------------7--7-7-7--|
d]-7--7-7-7--7-7-7-7--5--5-5-5--|
a]-4--4-4-4--4-4-4-4--5--5-5-5--|
d]--------------------0--0-0-0--|

e]------------------------------|
b]------------------------------|
g]-7-7-7-7-------------9-7------|
d]-5-5-5-5--5-5---5-------------|
a]-5-5-5-5--5-5-5-5-4--7-5------|
d]-0-0-0-0--5-5-4-5-5-----------|

Verse

e]---------------------------------|
b]---------------------------------|
g]---------------------------------|
d]---7-7---7-7---7-7-----7-7-------|
a]-5-----5-----4-----4/5-----------|
d]-0-----0-------------------------|

e]---------------------------------|
b]---------------------------------|
g]---------------------------------|
d]---7-7---7-7---7-7---7-7---------|
a]-5-----5-----5-----5-------------| x8
d]-5-----5-----5-----5-------------|

Pre-Chorus

e]---------------------------------|
b]---------------------------------|
g]---------------------------------|
d]-2-2-2-x-x-x-x-5-5-5-------------|
a]-2-2-2-x-x-x-x-5-5-5-------------| x2
d]-2-2-2-x-x-x-x-5-5-5-------------|

Chorus

e]-----------------------------------|
b]-----------------------------------|
g]-2-2-2-2-2-2-2-2--6-6-6-6--7-7-7-7-|
d]-0-0-0-0-0-0-0-0-------------------|
a]-0-0-0-0-0-0-0-0--4-4-4-4--5-5-5-5-|
d]-0-0-0-0-0-0-0-0-------------------|

e]---------------------------------|
b]---------------------------------|
g]-7-----------------------7-------|
d]-5-------9-------7-------5-------|
a]-5-(x8)--9-(x8)--7-(x8)--5-(x8)--|
d]-5-------9-------7-------5-------|

Repeat Chorus

Go back to Verse
           Pre-Chorus
       and Chorus

Bridge (Part1)

e]---------------------------------|
b]---------------------------------|
g]-7-7-7-7-7-7-7--7-7-7-7-7-7-7----|
d]----------------5-5-5-5-5-5-5----|
a]-5-5-5-5-5-5-5--5-5-5-5-5-5-5----|
d]-4-4-4-4-4-4-4--5-5-5-5-5-5-5----|

e]---------------------------------|
b]---------------------------------|
g]-2-2-2-2-2-2--9-9-9-9-9-9--------|
d]-0-0-0-0-0-0--7-7-7-7-7-7--------|
a]-0-0-0-0-0-0--7-7-7-7-7-7--------|
d]-0-0-0-0-0-0--7-7-7-7-7-7--------|

e]---------------------------------|
b]---------------------------------|
g]--6-6-6-6-6-6-6--7-7-7-7-7-7-----|
d]--7-7-7-7-7-7-7--7-7-7-7-7-7-----|
a]--4-4-4-4-4-4-4--5-5-5-5-5-5-----|
d]--4-4-4-4-4-4-4--5-5-5-5-5-5-----|

Repeat Bridge (Part1) x3

Then...

e]---------------------------------|
b]---------------------------------|
g]-7-7-7-7-7-7-7--7-7-7-7-7-7-7----|
d]----------------5-5-5-5-5-5-5----|
a]-5-5-5-5-5-5-5--5-5-5-5-5-5-5----|
d]-4-4-4-4-4-4-4--5-5-5-5-5-5-5----|

e]----------------------------------|
b]----------------------------------|
g]-7-7-7-7-7-7--6-6-6-6-6-6-6-6-7-6-|
d]-0-0-0-0-0-0----------------------|
a]-0-0-0-0-0-0--7-7-7-7-7-7-7-7-7-7-|
d]-0-0-0-0-0-0--7-7-7-7-7-7-7-7-7-7-|

e]---------------------------------|
b]---------------------------------|
g]--6-6-6-6-6-6-6--7-7-7-7-7-7-----|
d]--7-7-7-7-7-7-7--7-7-7-7-7-7-----|
a]--4-4-4-4-4-4-4--5-5-5-5-5-5-----|
d]--4-4-4-4-4-4-4--5-5-5-5-5-5-----|

e]---------------------------------|
b]---------------------------------|
g]-7-7-7--7-7-9-7-7-7-7------------|
d]---------------------------------|
a]-9-9-9-10-9-7-5-5-5-5------------|
d]----------------0-0-0------------|

Bridge (Part2)

e]----------------------------------|
b]----------------------------------|
g]-2-2-2-2-2-2-2--9-9-9-9-9-9-9-9---|
d]-0-0-0-0-0-0-0--7-7-7-7-7-7-7-7---|
a]-0-0-0-0-0-0-0--7-7-7-7-7-7-7-7---|
d]-0-0-0-0-0-0-0--7-7-7-7-7-7-7-7---|

e]----------------------------------|
b]----------------------------------|
g]-7-7-7-7-7-7-7--7-7-7-7-7-7-7-----|
d]----------------5-5-5-5-5-5-5-----|
a]-5-5-5-5-5-5-5--5-5-5-5-5-5-5-----|
d]-4-4-4-4-4-4-4--5-5-5-5-5-5-5-----|

Repeat Bridge (Part2)

e]----------------------------------|
b]----------------------------------|
g]-2-2-2-2-2-2-2--9-9-9-9-9-9-9-9---|
d]-0-0-0-0-0-0-0--7-7-7-7-7-7-7-7---|
a]-0-0-0-0-0-0-0--7-7-7-7-7-7-7-7---|
d]-0-0-0-0-0-0-0--7-7-7-7-7-7-7-7---|

e]---------------------------------|
b]---------------------------------|
g]-6-6-6-6-6-6-6-7-7-7-7-7-7-7-7-2-|
d]-4-4-4-4-4-4-4-5-5-5-5-5-5-5-5-0-|
a]-4-4-4-4-4-4-4-5-5-5-5-5-5-5-5-0-|
d]-4-4-4-4-4-4-4-5-5-5-5-5-5-5-5-0-|

Outro

e]---------------------------------|
b]---------------------------------|
g]---------------------------------|
d]-7-7-7-7-7-7-7-7-7-7-7-7---------|
a]-5-5-5-5-5-5-5-5-5-5-5-5---------|
d]---------------------------------|

e]---------------------------------|
b]---------------------------------|
g]-7-9-6-6-7-6-6-9-6-6-7-6-6-------|
d]-5/7-7-7-7-7-7-7-7-7-7-7-7-------|
a]---------------------------------|
d]---------------------------------|

e]---------------------------------|
b]---------------------------------|
g]-6-6-6-6-6-6-6-6-6-6-6-6---------|
d]-4-4-4-4-4-4-4-4-4-4-4-4---------|
a]---------------------------------|
d]---------------------------------|

e]---------------------------------|
b]---------------------------------|
g]-7-7-7-7-7-7-7-7-7-7-7-7-7-7-----|
d]-5-5-5-5-5-5-5-5-5-5-5-5-5-7-----|
a]---------------------------5-----|
d]---------------------------0-----|

Justboy
Every once in a while I see your face,
I'm feeling half the man.
Then you cup your hands, you throw me away, I'm under.

But then everything beneath me fades. I'm feeling half the man.
Then you shut your eyes and pull me away, I'm under.
All alone with these thoughts of mine,
people look and tell me justboy.

I don't believe in anything,
that's the message in your eyes (in your eyes).
I don't believe in anything,
that's the message in your eye.

I have tried so hard to leave this place, it leaves me underhad.
I want to feel your breath here with me, and kiss you...
All alone with these thoughts of mine,
people look and tell me justboy.

I don't believe in anything,
that's the message in your eyes (in your eyes).
I don't believe in anything,
that's the message in your eye.

I am hoping, through the dark clouds,
light shall break and bring a bright sky,
I am hoping, through the dark clouds,
light shall break and bring a bright sky,
I am hoping, through the dark clouds,
light shall break and bring a bright sky.

Light shall break and bring a bright sky.

--------------------------------------------------------------

Kill The Old, Torture Thier YOung

Tuning - Drop D

Intro

e]-<12>-----<12>----------|
b]-----<12>------<12>-----|
g]------------------------|
d]------------------------|
a]------------------------|
d]------------------------|

e]---------------------------------|
b]---------------------------------|
g]-9-9-9-9-9-9-9-9-9-9-9-9-9-9-9-9-|
d]-7-7-7-7-7-7-7-7-7-7-7-7-7-7-7-7-|
a]-7-7-7-7-7-7-7-7-7-7-7-7-7-7-7-7-|
d]-7-7-7-7-7-7-7-7-7-7-7-7-7-7-7-7-|

e]---------------------------------|
b]-9-9-9-9-9-9-9-9-9-9-9-9-9-9-9-9-|
g]-9-9-9-9-9-9-9-9-9-9-9-9-9-9-9-9-|
d]-0-0-0-0-0-0-0-0-0-0-0-0-0-0-0-0-|
a]-0-0-0-0-0-0-0-0-0-0-0-0-0-0-0-0-|
d]-0-0-0-0-0-0-0-0-0-0-0-0-0-0-0-0-|

Repeat

e]---------------------------------|
b]---------------------------------|
g]-9-9-9-9-9-9-9-9-9-9-9-9-9-9-9-9-|
d]-7-7-7-7-7-7-7-7-7-7-7-7-7-7-7-7-|
a]-7-7-7-7-7-7-7-7-7-7-7-7-7-7-7-7-|
d]-7-7-7-7-7-7-7-7-7-7-7-7-7-7-7-7-|

e]---------------------------------|
b]-9-9-9-9-9-9-9-9-9-9-9-9-9-9-9-9-|
g]-9-9-9-9-9-9-9-9-9-9-9-9-9-9-9-9-|
d]-7-7-7-7-7-7-7-7-7-7-7-7-7-7-7-7-|
a]-7-7-7-7-7-7-7-7-7-7-7-7-7-7-7-7-|
d]-8-8-8-8-8-8-8-8-8-8-8-8-8-8-8-8-|

e]---------------------------------|
b]---------------------------------|
g]-9-9-9-9-9-9-9-9-9-9-9-9-9-9-9-9-|
d]-7-7-7-7-7-7-7-7-7-7-7-7-7-7-7-7-|
a]-7-7-7-7-7-7-7-7-7-7-7-7-7-7-7-7-|
d]-7-7-7-7-7-7-7-7-7-7-7-7-7-7-7-7-|

e]---------------------------------|
b]-9-9-9-9-9-9-9-9-9-9-9-9-9-9-9-9-|
g]-9-9-9-9-9-9-9-9-9-9-9-9-9-9-9-9-|
d]-0-0-0-0-0-0-0-0-0-0-0-0-0-0-0-0-|
a]-0-0-0-0-0-0-0-0-0-0-0-0-0-0-0-0-|
d]-0-0-0-0-0-0-0-0-0-0-0-0-0-0-0-0-|

e]-3-3-3-3-3-3-3-3-3-3-3-3-3-3-3-3-|
b]-5-5-5-5-5-5-5-5-5-5-5-5-5-5-5-5-|
g]-4-4-4-4-4-4-4-4-4-4-4-4-4-4-4-4-|
d]-3-3-3-3-3-3-3-3-3-3-3-3-3-3-3-3-|
a]-3-3-3-3-3-3-3-3-3-3-3-3-3-3-3-3-| x2
d]-3-3-3-3-3-3-3-3-3-3-3-3-3-3-3-3-|

e]---------3---------3-------3-----|
b]---------5---------5-------5-----|
g]---------4---------4-------4-----|
d]-3-3-3-3-3-3-3-3-3-3-3-3-3-3-3-3-|
a]-3-3-3-3-3-3-3-3-3-3-3-3-3-3-3-3-| x4
d]-3-3-3-3-3-3-3-3-3-3-3-3-3-3-3-3-|

Verse
e]----------|
b]----------|
g]----------|
d]------0---|
a]-3/7--0---|
d]-3/7--0---|

e]---------------------------------|
b]---------------------0-0-0h1p0---|
g]-------2-2-2-2-2-2-2-----------2-|
d]-0-0-0-0-0-0-2-2-2-2-------------|
a]-0-0-0-0-0-0-0-0-0-0-------------|
d]-0-0-0-0-0-0---------------------|

e]----------------------------------|
b]----------------------------------|
g]-4-4-4-4-4-4-4-4--5-5-5-5-5-5-5---|
d]-5-5-5-5-5-5-5-5--3-3-3-3-3-3-3---|
a]-3-3-3-3-3-3-3-3--3-3-3-3-3-3-3---|
d]------------------3-3-3-3-3-3-3---|

e]----3-----3-----------3-----3-----|
b]------4-----4-----------4-----4---|
g]--------5-----5-----------5-----5-|
d]----------------------------------|
a]--------------------0-------------|
d]-0--------------------------------|

e]---3--3------|
b]---4--4------|
g]---5--5------|
d]-------------|
a]-3-----------|
d]---------3---|

Repeat
Chorus

e]-------------------------------------|
b]-------------------------------------|
g]-----4-----5-----------------------5-|
d]---3-----5---0-2-3-3-3-3-3-3-3-2-0-5-|
a]-2-----3-----0-2-3-3-3-3-3-3-3-2-0-3-|
d]-------------0-2-3-3-3-3-3-3-3-2-0---|

e]---------------------------------|
b]---------------------------------|
g]-9-7-4-4-4-4-5-4-4-5-4-----------|
d]---------------------------------|
a]-7-5-2-2-2-2-3-2-2-3-2-----------|
d]---------------------------------|

Repeat
Go back to Verse
Chorus 2

e]-------------------------------------|
b]-------------------------------------|
g]-4-4-4---5-------------------------5-|
d]-3-3-3---5---0-2-3-3-3-3-3-3-3-2-0-5-|
a]-2-2-2---3---0-2-3-3-3-3-3-3-3-2-0-3-|
d]-------------0-2-3-3-3-3-3-3-3-2-0---|

e]---------------------------------|
b]---------------------------------|
g]-9-7-4-4-4-4-5-4-4-5-7-----------|
d]---------------------------------|
a]-7-5-2-2-2-2-3-2-2-3-5-----------|
d]---------------------------------|

e]---------------------------------|
b]---------------------------------|
g]-9-9-9-12-12-12------------------|
d]---------------------------------|
a]-7-7-7-10-10-10------------------|
d]---------------------------------|

e]---------------------------------|
b]---------------------------------|
g]-------4-4-4-------4-------5-----|
d]-0-2-3-3-3-3-x-x-x-3-3-2-0-5-----|
a]-0-2-3-3-3-3-x-x-x-3-3-2-0-3-----|
d]-0-2-3-3-3-3-x-x-x-3-3-2-0-------|

e]---------------------------------|
b]---------------------------------|
g]-9-7-4-4-4-4-5-4-4-5-7-----------|
d]---------------------------------|
a]-7-5-2-2-2-2-3-2-2-3-5-----------|
d]---------------------------------|

e]--------3---------3----------3----------3-|
b]------4---4-----4---4------4---4------4-4-|
g]----5---------5----------5----------5-----|
d]------------------------------------------|
a]------------0----------3------------------|
d]-0--------------------------------3-------|

Bridge

e]---------------------------------|
b]-------9-9-9-9-10-----9-9-9-9-10-|
g]---------------------------------|
d]-0-0-0-0-0-0-0--0-7-7-7-7-7-7--7-|
a]-0-0-0-0-0-0-0--0-7-7-7-7-7-7--7-|
d]-0-0-0-0-0-0-0--0-7-7-7-7-7-7--7-|

e]---------------------------------|
b]-5-5-5-5-5-5-5-5-5-5-5-5-5-5-5-5-|
g]-5-5-5-5-5-5-5-5-5-5-5-5-5-5-5-5-|
d]-3-3-3-3-3-3-3-3-3-3-3-3-3-3-3-3-|
a]-3-3-3-3-3-3-3-3-3-3-3-3-3-3-3-3-|
d]-3-3-3-3-3-3-3-3-3-3-3-3-3-3-3-3-|

Repeat Bridge x5

e]---------------------------------|
b]-------9-9-9-9-10-----9-9-9-9-10-|
g]---------------------------------|
d]-0-0-0-0-0-0-0--0-7-7-7-7-7-7--7-|
a]-0-0-0-0-0-0-0--0-7-7-7-7-7-7--7-|
d]-0-0-0-0-0-0-0--0-7-7-7-7-7-7--7-|

e]---------------------------------|
b]-5-5-5-5----5-5-5-5--------------|
g]-5-5-5-5----5-5-5-5--------------|
d]-3-3-3-3----3-3-3-3--------------|
a]-3-3-3-3----3-3-3-3--------------|
d]-3-3-3-3----3-3-3-3--------------|

e]-------------------|
b]-------9-9-9-9-10--|
g]-------------------|
d]-0-0-0-0-0-0-0--0--|
a]-0-0-0-0-0-0-0--0--|
d]-0-0-0-0-0-0-0--0--|

e]--------------------|
b]--------------------|
g]--------------------|
d]-9-9-9-9-9-9-9-9----|
a]-8-8-8-8-8-8-8-8----|
d]-9-9-9-9-9-9-9-9----|

e]---------------------------------|
b]---------------------------------|
g]---------------------------------|
d]-11-11-11-11-11-11-11-11---------|
a]-10-10-10-10-10-10-10-10---------|
d]-11-11-11-11-11-11-11-11---------|

e]---------------------------------|
b]---------------------------------|
g]---------------------------------|
d]-12-12-12-12-12-12-12-12---------|
a]-12-12-12-12-12-12-12-12---------|
d]-12-12-12-12-12-12-12-12---------|

e]---------------------------------|
b]---------------------------------|
g]---------------------------------|
d]-12/6-12/6-12/6-15---------------|
a]---------------------------------|
d]---------------------------------|

Pre Outro

e]-----------------------------------|
b]-------5-------5---------5-------5-|
g]-------5-------5---------5-------5-|
d]-3-3-3-3-3-3-3-3---3-3-3-3-3-3-3-3-|
a]-3-3-3-3-3-3-3-3---3-3-3-3-3-3-3-3-| x2
d]-3-3-3-3-3-3-3-3---3-3-3-3-3-3-3-3-|

Part1

e]---------------------------------|
b]---------------------------------|
g]---------------17----------17----|
d]------15-15-15-15-15-15-15-15----|
a]------15-15-15-15-15-15-15-15----|
d]-3/15-15-15-15-15-15-15-15-15----|

e]------------------|
b]-------5-------5--|
g]-------5-------5--|
d]-3-3-3-3-3-3-3-3--|
a]-3-3-3-3-3-3-3-3--|
d]-3-3-3-3-3-3-3-3--|

Repeat

e]---------------------|
b]---------------------|
g]---------------------|
d]-10-3-3-3-3-3-3-3----|
a]-10-3-3-3-3-3-3-3----| x2
d]-10-3-3-3-3-3-3-3----|

e]-------------------------------------|
b]-------------------------------------|
g]-------------------------------------|
d]-10-0-0-0-0-0-0-0-0-10-0-0-0-0-0-0-0-|
a]-10-0-0-0-0-0-0-0-0-10-0-0-0-0-0-0-0-|
d]-10-0-0-0-0-0-0-0-0-10-0-0-0-0-0-0-0-|

e]---------------------|
b]---------------------|
g]---------------------|
d]-10-3-3-3-3-3-3-3----|
a]-10-3-3-3-3-3-3-3----| x2
d]-10-3-3-3-3-3-3-3----|

e]-------------------------------------|
b]-------------------------------------|
g]-------------------------------------|
d]-10-0-0-0-0-0-0-0-0-10-0-0-0-0-0-0-0-|
a]-10-0-0-0-0-0-0-0-0-10-0-0-0-0-0-0-0-|
d]-10-0-0-0-0-0-0-0-0-10-0-0-0-0-0-0-0-|

e]-----5-----5-------|
b]---5-----5------5--|
g]-------------------|
d]-3-----3------3----|
a]-------------------|
d]-------------------|

e]-----------------------------------|
b]-------5-------5---5^6-5^6-5^6-5^6-|
g]-------5-------5-------------------|
d]-3-3-3-3-3-3-3-3---3---3---3---3---|
a]-3-3-3-3-3-3-3-3---3---3---3---3---|
d]-3-3-3-3-3-3-3-3---3---3---3---3---|

Kill the Old, Torture Their Young
Open your eye, turn your back away, from me

Sensations, collapse under broken hearts,
When times light, just when you fall asleep

And I thought, to fly away,
And clear my heart and die
That's just what I thought today.

And I thought, to smile away,
And sell fire and die
That's just what I thought today.

Where now? I'll get back I'll get back
Where now? I'll get back I'll get back
Where now? (Something's wrong), I'll get back I'll get back
Where now? (Something's wrong), I'll get back I'll get back
Hey, Hey

--------------------------------------------------------------------

The Go-Slow

Tuning - Drop D

Intro

e]---------------------------------|
b]---------------------------------|
g]---------------------------------|
d]-x-x-x-x-------------------------|
a]-x-x-x-x-------------------------|
d]-x-x-x-x-------------------------|

e]---------------------------------|
b]---------------------------------|
g]-9-9-9-------9-9-9---------------|
d]-7-7-7-0-0-0-7-7-7-0-0-0---------|
a]-8-8-8-0-0-0-8-8-8-0-0-0---------|
d]-------0-0-0-------0-0-0---------|

e]---------------------------------|
b]---------------------------------|
g]-10-10-10-10-10-10-9-9-9-9-9-9---|
d]-8--8--8--8--8--8--8-8-8-8-8-8---|
a]-8--8--8--8--8--8--8-8-8-8-8-8---|
d]-8--8--8--8--8--8--8-8-8-8-8-8---|

e]---------------------------------|
b]---------------------------------|
g]-9-9-9-9-9-9-9-9-9-9-9-----------|
d]-7-7-7-7-7-0-0-0-0-0-0-----------|
a]-7-7-7-7-7-0-0-0-0-0-0-----------|
d]-7-7-7-7-7-0-0-0-0-0-0-----------|

e]---------------------------------|
b]---------------------------------|
g]-10-10-10-10-10-10-9-9-9-9-9-9---|
d]-8--8--8--8--8--8--8-8-8-8-8-8---|
a]-8--8--8--8--8--8--8-8-8-8-8-8---|
d]-8--8--8--8--8--8--8-8-8-8-8-8---|

e]---------------------------------|
b]---------------------------------|
g]-9-9-9-------9-9-9---------------|
d]-7-7-7-0-0-0-7-7-7-0-0-0---------|
a]-7-7-7-0-0-0-7-7-7-0-0-0---------|
d]-7-7-7-0-0-0-7-7-7-0-0-0---------|

e]---------------------------------|
b]---------------------------------|
g]-10-10-10-10-10-10-9-9-9-9-9-9---|
d]-8--8--8--8--8--8--8-8-8-8-8-8---|
a]-8--8--8--8--8--8--8-8-8-8-8-8---|
d]-8--8--8--8--8--8--8-8-8-8-8-8---|

e]---------------------------------|
b]---------------------------------|
g]-9-9-9-9-9-9-9-9-9-9-9-----------|
d]-7-7-7-7-7-0-0-0-0-0-0-----------|
a]-7-7-7-7-7-0-0-0-0-0-0-----------|
d]-7-7-7-7-7-0-0-0-0-0-0-----------|

e]---------------------------------|
b]---------------------------------|
g]---------------------------------|
d]-1-1-1-1-1-1-1-1-1-1-1-1-1-1-1---|
a]-1-1-1-1-1-1-1-1-1-1-1-1-1-1-1---|
d]-1-1-1-1-1-1-1-1-1-1-1-1-1-1-1---|

Pre Verse

e]------10---------10--------------|
b]---------------------------------|
g]---10----10---10----10-----------|
d]-0----------0--------------------|
a]---------------------------------|
d]---------------------------------|

e]------8----------8---------------|
b]---------------------------------|
g]---10---10----10---10------------|
d]-0---------0---------------------|
a]---------------------------------|
d]---------------------------------|

e]---------------------------------|
b]---------------------------------|
g]---------------------------------|
d]-10-10-10-10-10-10-10-10---------|
a]-8--8--8--8--8--8--8--8----------|
d]-8--8--8--8--8--8--8--8----------|

e]---------------------------------|
b]---------------------------------|
g]-7--5--2-------------------------|
d]-5--3--0----<5>------------------|
a]-5--3--0----<5>------------------|
d]-5--3--0----<5>------------------|

e]------8----------8---------------|
b]---------------------------------|
g]---10---10----10---10------------|
d]-0---------0---------------------|
a]---------------------------------|
d]---------------------------------|

e]-------------------------------|
b]------11----------11-----------|
g]---10----10----10----10--------|
d]-0----------0------------------|
a]-------------------------------|
d]-------------------------------|

e]------8---------8----------------|
b]---------------------------------|
g]---9----9----9-----9-------------|
d]-0---------0---------------------|
a]---------------------------------|
d]---------------------------------|

e]------10---------10--------------|
b]---------------------------------|
g]---10----10---10----10-----------|
d]-0----------0--------------------|
a]---------------------------------|
d]---------------------------------|

e]------8-10-8------8-10-8---------|
b]---------------------------------|
g]---10----------10----------------|
d]-0-----------0-------------------|
a]---------------------------------|
d]---------------------------------|

e]-------------------------------|
b]------11----------11-----------|
g]---10----10----10----10--------|
d]-0----------0------------------|
a]-------------------------------|
d]-------------------------------|

e]------8---------8----------------|
b]---------------------------------|
g]---9----9----9-----9-------------|
d]-0---------0---------------------|
a]---------------------------------|
d]---------------------------------|

e]-------10------------------------|
b]---------------------------------|
g]----10---------------------------|
d]-0-----------rest----------------|
a]---------------------------------|
d]---------------------------------|

Pre-Chorus

e]---------------------------------|
b]---------------------------------|
g]--------5-5-5-5-5-5-5------------|
d]-0-0-0--5-5-5-5-5-5-5------------|
a]-0-0-0--3-3-3-3-3-3-3------------|
d]-0-0-0---------------------------|

e]---------------------------------|
b]---------------------------------|
g]-------9-9-9-9-9-9---------------|
d]-0-0-0---------------------------|
a]-0-0-0-7-7-7-7-7-7---------------|
d]-0-0-0---------------------------|

e]---------------------------------|
b]---------------------------------|
g]--------5-5-5-5-5-5-5------------|
d]-0-0-0--5-5-5-5-5-5-5------------|
a]-0-0-0--3-3-3-3-3-3-3------------|
d]-0-0-0---------------------------|

e]-------x-x-----------------------|
b]-------x-x-----------------------|
g]-------x-x-----------------------|
d]-0-0-0-x-x-----------------------|
a]-0-0-0-x-x-----------------------|
d]-0-0-0-x-x-----------------------|

Chorus

e]---------------------------------|
b]---------------------------------|
g]-10-10-10-10-10-10-9-9-9-9-9-9---|
d]-8--8--8--8--8--8--8-8-8-8-8-8---|
a]-8--8--8--8--8--8--8-8-8-8-8-8---|
d]-8--8--8--8--8--8--8-8-8-8-8-8---|

e]---------------------------------|
b]---------------------------------|
g]-9-9-9-9-9-9-9-9-9-9-9-----------|
d]-7-7-7-7-7-0-0-0-0-0-0-----------|
a]-7-7-7-7-7-0-0-0-0-0-0-----------|
d]-7-7-7-7-7-0-0-0-0-0-0-----------|

e]---------------------------------|
b]---------------------------------|
g]-10-10-10-10-10-10-9-9-9-9-9-9---|
d]-8--8--8--8--8--8--8-8-8-8-8-8---|
a]-8--8--8--8--8--8--8-8-8-8-8-8---|
d]-8--8--8--8--8--8--8-8-8-8-8-8---|

e]-----------------|
b]-----------------|
g]-9-9-9-9---------|
d]-7-7-7-7-0-0-0-0-|
a]-7-7-7-7-0-0-0-0-|
d]-7-7-7-7-0-0-0-0-|

e]---------------------------------|
b]---------------------------------|
g]-10-10-10-10-10-10-9-9-9-9-9-9---|
d]-8--8--8--8--8--8--8-8-8-8-8-8---|
a]-8--8--8--8--8--8--8-8-8-8-8-8---|
d]-8--8--8--8--8--8--8-8-8-8-8-8---|

e]---------------------------------|
b]---------------------------------|
g]-9-9-9-9-9-9-9-9-9-9-9-----------|
d]-7-7-7-7-7-0-0-0-0-0-0-----------|
a]-7-7-7-7-7-0-0-0-0-0-0-----------|
d]-7-7-7-7-7-0-0-0-0-0-0-----------|

e]---------------------------------|
b]---------------------------------|
g]---------------------------------|
d]-1-1-1-1-1-1-1-1-1-1-1-1-1-1-1---|
a]-1-1-1-1-1-1-1-1-1-1-1-1-1-1-1---|
d]-1-1-1-1-1-1-1-1-1-1-1-1-1-1-1---|

e]---------------------------------|
b]---------------------------------|
g]-3-3-3-3-3-3-3-3-3-3-3-3-3-3-3---|
d]-1-1-1-1-1-1-1-1-1-1-1-1-1-1-1---|
a]-1-1-1-1-1-1-1-1-1-1-1-1-1-1-1---|
d]---------------------------------|

e]---------------------------------|
b]---------------------------------|
g]---------------------------------|
d]-1-1-1-1-1-1--0-0-0-<5>----------|
a]-1-1-1-1-1-1--0-0-0-<5>----------|
d]-1-1-1-1-1-1--0-0-0-<5>----------|

Pre-Verse 2

e]------8----------8---------------|
b]---------------------------------|
g]---10---10----10---10------------|
d]-0---------0---------------------|
a]---------------------------------|
d]---------------------------------|

e]-------------------------------|
b]------11----------11-----------|
g]---10----10----10----10--------|
d]-0----------0------------------|
a]-------------------------------|
d]-------------------------------|

e]------8---------8----------------|
b]---------------------------------|
g]---9----9----9-----9-------------|
d]-0---------0---------------------|
a]---------------------------------|
d]---------------------------------|

e]------10---------10--------------|
b]---------------------------------|
g]---10----10---10----10-----------|
d]-0----------0--------------------|
a]---------------------------------|
d]---------------------------------|

e]------8-10-8------8-10-8---------|
b]---------------------------------|
g]---10----------10----------------|
d]-0-----------0-------------------|
a]---------------------------------|
d]---------------------------------|

e]-------------------------------|
b]------11----------11-----------|
g]---10----10----10----10--------|
d]-0----------0------------------|
a]-------------------------------|
d]-------------------------------|

e]------8---------8----------------|
b]---------------------------------|
g]---9----9----9-----9-------------|
d]-0---------0---------------------|
a]---------------------------------|
d]---------------------------------|

e]-------8-------------------------|
b]-------8-------------------------|
g]----10---------------------------|
d]-0-------------------------------|
a]---------------------------------|
d]---------------------------------|

Verse 2

e]-8----------8--------------------|
b]---11-10-11---11-10-11-----------|
g]---------------------------------|
d]---------------------------------|
a]---------------------------------|
d]---------------------------------|

e]-8----------8--------------------|
b]---11-10-11---11-10-11-----------|
g]---------------------------------|
d]---------------------------------|
a]---------------------------------|
d]---------------------------------|

e]-8----------8-----------8--------|
b]---11-10-11---11-10-11--10-------|
g]---------------------------------|
d]---------------------------------|
a]---------------------------------|
d]---------------------------------|

e]-8----------8--------------------|
b]---11-10-11---11-10-11-----------|
g]---------------------------------|
d]---------------------------------|
a]---------------------------------|
d]---------------------------------|

e]-8----------8--------------------|
b]---11-10-11---11-10-11/----------|
g]---------------------------------|
d]---------------------------------|
a]---------------------------------|
d]---------------------------------|

Go Back to Pre-Chorus
                   Chorus

Bridge

e]---------------------------------|
b]---------------------------------|
g]-5-5-5-5-5-5-5-5-5-5-5-5---------|
d]---------------------------------|
a]-3-3-3-3-3-3-3-3-3-3-3-3---------|
d]---------------------------------|

e]---------------------------------|
b]-------------^-------------------|
g]-7-7-7-9-9-9-9-9-----------------|
d]---------------------------------|
a]-5-5-5-7-7-7-7-7-----------------|
d]-0-0-0---------------------------|

e]---------------------------------|
b]---------------------------------|
g]-10-10-10-10-10-10-10-10-10-10---|
d]---------------------------------|
a]-8--8--8--8--8--8--8--8--8--8----|
d]---------------------------------|

e]----------------------------------|
b]----------------------------------|
g]-12-12-12-12-12-12-12-12-12-12-12-|
d]----------------------------------|
a]-10-10-10-10-10-10-10-10-10-10-10-|
d]----------------------------------|

e]---------------------------------|
b]---------------------------------|
g]-14-14-14-14-14-14-14-14-14-14---|
d]---------------------------------|
a]-12-12-12-12-12-12-12-12-12-12---|
d]---------------------------------|

e]---------------------------------|
b]----------------^^---------------|
g]-16-16-16-16-16-16---------------|
d]---------------------------------|
a]-14-14-14-14-14-14---------------|
d]---------------------------------|

e]---------------------------------|
b]---------------------------------|
g]-17-17-17-17---------------------|
d]---------------------------------|
a]-15-15-15-15-14/-----------------|
d]-------------14/-----------------|

Outro

e]---------------------------------|
b]---------------------------------|
g]---------------------------------|
d]-0-0-0-0-0-0-0-0-0-0-0-0---------|
a]-0-0-0-0-0-0-0-0-0-0-0-0---------| x4
d]-0-0-0-0-0-0-0-0-0-0-0-0---------|

e]---------------------------------|
b]---------------------------------|
g]-17-17-17-17---------------------|
d]---------------------------------|
a]-15-15-15-15-14-14-14-14---------| x4
d]-------------14-14-14-14---------|

The Go-Slow
Remember when the insects fed off all our moments
you can't deny, the structures failed us in the go-slow

love with them would kill her now
catch me I'm falling down
love with them would kill her now

decrease movements, would you?
switch transition, switch transition
decrease movement,
love me 'til I die, I don't expect

remember the time we lost ourselves to being lonely
without love we sing and dance and kill together

love with them would kill her now
catch me I'm falling down
love with them would kill her now

decrease movements, would you?
switch transition, switch transition
decrease movement
love me 'til I die, I don't expect

catch me I'm falling down
catch me I'm falling down
catch me I'm falling down
catch me I'm falling

the go-slow
the go-slow
the go-slow

-----------------------------------------------------------------------

Christophers River

Intro

Tuning - Drop D

e]--------|
b]--------|
g]2-2-2-2-|
d]4-4-4-4-|
a]--------|
d]--------|

Verse

e]------------------------------------------|
b]---------0---------0---------0------------|
g]---------------------------------------0--|
d]-5-5-5-5---5-5-5-5---2-2-2-2---4-4-4-4----|
a]------------------------------------------| x6
d]------------------------------------------|

Chorus

e]-----------------------------------------------------------|
b]-----------1-0-------------3------------5------------7-----|
g]-----0---------0--------0----0-------5----7-5------7---7---|
d]---2---2---------2----4---0--------5---5-----7---7--7---7--|
a]-3------------------5-----------7--------------9-----------| x4
d]-----------------------------------------------------------|

Back to Verse x2

Then:

e--------------------------------------------------|
b--------------------------------------------------|
g-----------------------0-0-0-0---2-2-2-2----------|
d---5-5-5-5---5-5-5-5---2-2-2-2---4-4-4-4----------|
a--------------------------------------------------|
d--------------------------------------------------|

Back to Chorus

Bridge

e]--------------------------------------|
b]-8-8-8-8-8-8-8-8-8-8-8-8-8-8-8-8------|
g]-7-7-7-7-7-7-7-7-7-7-7-7-7-7-7-7------|
d]-5-5-5-5-5-5-5-5-5-5-5-5-5-5-5-5------|
a]-5-5-5-5-5-5-5-5-5-5-5-5-5-5-5-5------|
d]-5-5-5-5-5-5-5-5-5-5-5-5-5-5-5-5------|

e]---------------------------------|
b]-8-8-8-8-8-8-8-8-8-8-8-8-8-8-8-8-|
g]-7-7-7-7-7-7-7-7-7-7-7-7-7-7-7-7-|
d]-9-9-9-9-9-9-9-9-9-9-9-9-9-9-9-9-|
a]-7-7-7-7-7-7-7-7-7-7-7-7-7-7-7-7-|
d]---------------------------------|

e]---------------------------------|
b]-13-13-13-13-13-13-13-13-13-13---|
g]-12-12-12-12-12-12-12-12-12-12---|
d]-10-10-10-10-10-10-10-10-10-10---|
a]-10-10-10-10-10-10-10-10-10-10---|
d]-10-10-10-10-10-10-10-10-10-10---|

e]---------------------------------|
b]---------------------------------|
g]-11-11-11-11-11-11-11-11-11-11---|
d]-9--9--9--9--9--9--9--9--9--9----|
a]-9--9--9--9--9--9--9--9--9--9----|
d]-9--9--9--9--9--9--9--9--9--9----|

Repeat x5

Solo

e]--------------------------------|
b]--------------------------------|
g]--12-12-12-12-12-12-12-12-------|
d]---9--9--9--9--9--9--9--9-------|
a]--10-10-10-10-10-10-10-10-------|
d]--------------------------------|

e]--------------------------------|
b]--12-12-12-12-10----------------|
g]-----------------12-------------|
d]---9--9--9--9-----9-------------|
a]--10-10-10-10-10-10-------------|
d]--------------------------------|

Repeat

e]--------------------------------|
b]--------------------------------|
g]--12-12-12-12-12-12-12-12-------|
d]---9--9--9--9--9--9--9--9-------|
a]--------------------------------|
d]--10-10-10-10-10-10-10-10-------|

e]--------------------------------|
b]--12-12-12-12-10----------------|
g]-----------------12-------------|
d]---9--9--9--9-----9-------------|
a]--------------------------------|
d]--10-10-10-10-10-10-------------|

Repeat

e]-----------------------------------------------------|
b]--12-12-12-12-12-12-13-13-13-13-12-10-13-13-13-13-13-|
g]--12-12-12-12-12-12-12-12-12-12-12-12-12-12-12-12-12-|
d]--10-10-10-10-10-10-10-10-10-10-10-10-10-10-10-10-10-|
a]--------------------------10-10-10-10-10-10-10-10-10-|
d]--------------------------10-10-10-10-10-10-10-10-10-|

e]--------------------------------------------|
b]----10-12-10----10-12-10--------------------|
g]-12----------12----------12-----------------|
d]--------------------------------------------|
a]-10-10-10-10-10-10-10-10-10-----------------| x2
d]--------------------------------------------|

e]----------------------------------------------------|
b]-12-12-12-12-12-12-13-13-13-13-12-10-13-13-13-13-13-|
g]-12-12-12-12-12-12-12-12-12-12-12-12-12-12-12-12-12-|
d]-10-10-10-10-10-10-10-10-10-10-10-10-10-10-10-10-10-|
a]-------------------------10-10-10-10-10-10-10-10-10-|
d]-------------------------10-10-10-10-10-10-10-10-10-|

e]------|
b]------|
g]-9----|
d]-9----|
a]-7----|
d]------|

Chistopher's River
You and me, always you held my head above the waves
Paddling around pretending that it was not too cold
It was but not when you were there

Our shadows softly on the grass,
day would break we'd have a laugh
our shirt-tails in the wind,
seems like yesterday my friend
I know that we were scared,
hurt because you were not there
I know I want it all,
wish the sky would fall on me

You and me, always, always

Our shadows softly on the grass,
day would break we'd have our last
our shirt-tails in the wind,
seems like yesterday my friend
I know that we were scared,
hurt because you were not there
I know I want it all,
wish the sky would fall on me

I'm not through, I'm not through, I'm not through, I'm not through
I'm not through, I'm not through, I'm not through, I'm not through

I'm not through, I'm not through, I'm not through, I'm not through
I'm not through, I'm not through, I'm not through, I'm not through

------------------------------------------------------------------------
Convex Concave

Tuning - Drop D

Verse Part 1

e]-----------------------------------|
b]-----------------------------------|
g]-----------------------------------|
d]-----------------------------------|
a]---0---5-5-5---0---5-5-5---0---5-5-| x3
d]-0---0-3-3-3-0---0-3-3-3-0---0-3-3-|

Verse Part 2

e]---------------------------------|
b]---------------------------------|
g]-6-6-6-6-6-6-6-6-6-6-6-6---------|
d]-0-0-0-0-0-0-0-0-0-0-0-0---------|
a]---------------------------------|
d]-5-5-5-5-5-5-7-7-7-7-7-7---------|

e]---------------------------------|
b]---------------------------------|
g]-6-6-6-6-6-6-6-7-7-7-7-7-6-------|
d]-0-0-0-0-0-0-0-----------0-------|
a]---------------5-5-5-5-5---------|
d]-5-5-5-5-5-5-5-----------7-------|

e]---------------------------------|
b]---------------------------------|
g]-6-6-6-6-6-6-6-6-6-6-6-6---------|
d]-0-0-0-0-0-0-0-0-0-0-0-0---------|
a]---------------------------------|
d]-5-5-5-5-5-5-7-7-7-7-7-7---------|

e]-----------------------------------------|
b]-----------------------------------------|
g]-7-7-7-7-7-7-7-7--9--9--9--9--9--9--9--9-|
d]-0-0-0-0-0-0-0-0--0--0--0--0--0--0--0--0-|
a]-----------------------------------------|
d]-9-9-9-9-9-9-9-9-11-11-11-11-11-11-11-11-|

Go back to verse part 1
Then:

e]---------------------------------|
b]---------------------------------|
g]---------------------------------|
d]---------------<12>--------------|
a]---0---5--<12>-------------------|
d]-0---0-3-------------------------|

Go back to verse part 2

Break Part 1

e]---------------------------------|
b]---------------------------------|
g]---------7-7-7-7-7-7-7-7-7-7-----|
d]-7-0-0-0-5-5-5-5-5-5-5-5-5-5-----|
a]-7-0-0-0-5-5-5-5-5-5-5-5-5-5-----|
d]-7-0-0-0-0-0-0-0-0-0-0-0-0-0-----|

e]----------------------------------|
b]----------------------------------|
g]---------7-7-7--6-6-6-6-6-6-------|
d]-7-0-0-0-5-5-5--5-5-5-5-5-5-------|
a]-7-0-0-0-5-5-5--5-5-5-5-5-5-------|
d]-7-0-0-0-0-0-0--5-5-5-5-5-5-------|

Repeat

Break Part 2

e]------------------------------------------|
b]------------------------------------------|
g]--------3-3-3-3---------------------------|
d]-0-0-0--3-3-3-3--(x2)-3-2-0--5-5-5-5------|
a]-0-0-0--1-1-1-1-------3-2-0--3-3-3-3-(x2)-| x4
d]-0-0-0----------------3-2-0--3-3-3-3------|

Break Part 3a

e]---------------------------|
b]---------------------------|
g]-10-10-10-10-10-10-10-10---|
d]---------------------------|
a]-8--8--8--8--8--8--8--8----|
d]---------------------------|

e]---------------------------|
b]---------------------------|
g]-12-12-12-12-12-12-12-12---|
d]---------------------------|
a]-10-10-10-10-10-10-10-10---|
d]---------------------------|

Break Part 3b

e]---------------------------|
b]---------------------------|
g]-7-7-7-7-7-7---------------|
d]---------------------------|
a]-5-5-5-5-5-5---------------|
d]-0-0-0-0-0-0---------------|

Repeat Break Part 3a x4

e]---------------------------------|
b]---------------------------------|
g]-----7---------7-----------------|
d]-------0---------0---------------|
a]---------8---------8-------------|
d]-0-0-------0-0-------------------|

e]---------------------------------|
b]---------------------------------|
g]-----9----------9----------------|
d]-------0----------0--------------|
a]---------10---------10-----------|
d]-0-0--------0-0------------------|

e]---------------------------------|
b]---------------------------------|
g]------5----------5---------------|
d]--------0----------0-------------|
a]----------7----------7-----------|
d]-0-0---------0-0-----------------|

e]--------------------------------|
b]--------------------------------|
g]-----3-----3------3-3-2-2-2-3---|
d]-------0-----0----0-0-0-0-0-0---|
a]---------5-----5--5-5-4-4-4-5---|
d]-0-0----------------------------|

e]---------------------------------|
b]---------------------------------|
g]-----7-7-7-7-------9-9-9-9-------|
d]-----0-0-0-0-------0-0-0-0-------|
a]-----5-5-5-5-------7-7-7-7-------|
d]-0-0---------0-0-0---------------|

e]---------------------------------|
b]---------------------------------|
g]-----5-5-5-5-------5-5-5-5-------|
d]-----0-0-0-0-------0-0-0-0-------|
a]-----3-3-3-3-------3-3-3-3-------|
d]-0-0---------0-0-0---------------|

e]---------------------------------|
b]---------------------------------|
g]---------------------------------|
d]-7-7-7-7-7-7-7-7-7-7-7-7-7-7-7-7-|
a]-7-7-7-7-7-7-7-7-8-8-8-8-8-8-8-8-|
d]-7-7-7-7-7-7-7-7-7-7-7-7-7-7-7-7-|

Heavy Outro Part 1

e]---------------------------------|
b]---------------------------------|
g]-------19-17-14-14-15-15-14-14---|
d]-0-0-0-0--0--0--0--0--0--0--0----|
a]-0-0-0-0--0--0--0--0--0--0--0----|
d]-0-0-0-0--0--0--0--0--0--0--0----|

e]---------------------------------|
b]-10-10-10-10-10-10-10-10-11-10-8-|
g]---------------------------------|
d]-7--7--7--7--7--7--7--7--7--7--7-|
a]-7--7--7--7--7--7--7--7--7--7--7-|
d]-7--7--7--7--7--7--7--7--7--7--7-|

Repeat

Heavy Outro Part 2

e]---------------------------------|
b]---------------------------------|
g]-10-10-10-12-10-9--10------------|
d]-8--8--8--8--8--8--8-------------|
a]-8--8--8--8--8--8--8-------------|
d]-8--8--8--8--8--8--8-------------|

e]----------------------------------|
b]----------------------------------|
g]-12-12-12-12-12-12-12-12-12-12-12-|
d]-10-10-10-10-10-10-10-10-10-10-10-|
a]-10-10-10-10-10-10-10-10-10-10-10-|
d]-10-10-10-10-10-10-10-10-10-10-10-|

Repeat

e]----------------------------------|
b]----------------------------------|
g]-14-14-14-14-14-14-14-14-14-14-14-|
d]-0--0--0--0--0--0--0--0--0--0--0--|
a]-0--0--0--0--0--0--0--0--0--0--0--|
d]-0--0--0--0--0--0--0--0--0--0--0--|

Go back to Heavy Outro Part 1
           Heavy Outro Part 2

End

e]------------------------------------------|
b]------------------------------------------|
g]-10-10-10-10-10--10-10-10-10--10-10-10-10-|
d]-0--0--0--0--0---0--0--0--0---0--0--0--0--|
a]-0--0--0--0--0---0--0--0--0---0--0--0--0--|
d]-0--0--0--0--0---0--0--0--0---0--0--0--0--|


Convex, Concave
Six more times sight in your eye, you think you're innocent, innocent
pull back and assess the skinned sky, to see your innocence, innocence

Use just once and destroy, searching for answers, you'll never employ
complete become your vision now, it's the same as I am

It's just true incest now, deceive your sins again you're innocent
reflect the hate in your eyes,
convex you're down, concave you're in again

Use just once and destroy, searching for answers,
you'll never employ, complete become your vision now,
it's the same as I am, just to see this love plan

Hit reset, reset, time and time again
hit reset, reset, time and time again

Sweat drenched hands, is it blood fuck who cares
I cannot help the joy I'm feeling
Hurting you, you're beautiful when you cry, if you love...
You'd understand the way, clever thoughts withstand
and sway against your pain, I can give a thing your way
To believe in, to believe in, your heart
I'm sorry for this now but I, have to hurt I have to kill you

-------------------------------------------------------------------------

57

Tuning - Drop D

Intro

e]---------------------------|
b]---------------------------|
g]-----0----------0----------|
d]-3-3-3-3--x-x-3-3-3--------|
a]-4-4-4-4--x-x-4-4-4--------|
d]-4-4-4-4--x-x-4-4-4--------|

e]---------------------------------|
b]---------------------------------|
g]---------------------------------|
d]-0--5-4-4-0--4-4-4-4-x-4-4-4-----|
a]-0--5-4-4-0--4-4-4-4-x-4-4-4-----| x4
d]-0--5-4-4-0--4-4-4-4-x-4-4-4-----|

Verse 1 (Part1)

e]---------------------------------|
b]---------------------------------|
g]-6--7--6--7--6--7--6--7----------|
d]-4--7--4--7--4--7--4--7----------|
a]-4--5--4--5--4--5--4--5----------|
d]-4--0--4--0--4--0--4--0----------|

Verse 1 (Part2)

e]-----------------------------------|
b]-----------------------------------|
g]-11--9-7--6-6-6-6--7-9--11-11-11---|
d]----------4-4-4-4------------------|
a]-9---7-5--4-4-4-4--5-7--9--9--9----| x4
d]-0--------4-4-4-4-------0--0--0----|

Pre-Chorus

e]---------------------------------|
b]---------------------------------|
g]---------------------------------|
d]-5-5-5-5-7-7-7-7-9-9-9-9---------|
a]-5-5-5-5-7-7-7-7-9-9-9-9---------|
d]-5-5-5-5-7-7-7-7-9-9-9-9---------|

e]---------------------------------|
b]---------------------------------|
g]---------------------------------|
d]-9-9-9-9-5-5-5-5-7-7-------------|
a]-9-9-9-9-5-5-5-5-7-7-------------|
d]-9-9-9-9-5-5-5-5-7-7-------------|

e]---------------------------------|
b]---------------------------------|
g]-------7-7-7-7-9-9-9-11-11-11----|
d]-------7-7-7-7-9-9-9-11-11-11----|
a]-------5-5-5-5-7-7-7-9--9--9-----|
d]-0-0-0-0-------------------------|

e]---------------------------------|
b]---------------------------------|
g]---------------------------------|
d]-5-5-5-5-7-7-7-7-9-9-9-9---------|
a]-5-5-5-5-7-7-7-7-9-9-9-9---------|
d]-5-5-5-5-7-7-7-7-9-9-9-9---------|

e]---------------------------------|
b]---------------------------------|
g]---------------------------------|
d]-4-4-4-4-5-5-5-5-7-7-7-7-0-------|
a]-4-4-4-4-5-5-5-5-7-7-7-7-0-------|
d]-4-4-4-4-5-5-5-5-7-7-7-7-0-------|

Chorus

e]---------------------------------|
b]---------------------------------|
g]-2-2-2-2-2-2-2-2-9-9-9-9-9-9-9-9-|
d]-0-0-0-0-0-0-0-0-7-7-7-7-7-7-7-7-|
a]-0-0-0-0-0-0-0-0-7-7-7-7-7-7-7-7-|
d]-0-0-0-0-0-0-0-0-7-7-7-7-7-7-7-7-|

e]---------------------------------|
b]---------------------------------|
g]-7-7-7-7-7-7-7-7-7-7-7-7-7-7-7-7-|
d]-5-5-5-5-5-5-5-5-5-5-5-5-5-5-5-5-|
a]-5-5-5-5-5-5-5-5-5-5-5-5-5-5-5-5-|
d]-5-5-5-5-5-5-5-5-5-5-5-5-5-5-5-5-|

Repeat

Verse 2

e]---------------------------------|
b]---------------------------------|
g]-11-11-11-11--9-7--6-6-6-6--7-9--|
d]-11-11-11-11--9-7--6-6-6-6--7-9--|
a]-9--9--9--9---7-5--4-4-4-4--5-7--| x6
d]-0--0--0--0----------------------|

Back to Pre-Chorus

e]-----5-----5-----5-------5-------|
b]-2-3---2-3---2-3---3-2-3---3-----|
g]---------------------------------|
d]---------------------------------|
a]---------------------------------|
d]---------------------------------|

Back to Chorus x4

e]---------------------------------|
b]---------------------------------|
g]-11-11-11-11--9-7--6-6-6---------|
d]-11-11-11-11--9-7--6-6-6---------|
a]-9--9--9--9---7-5--4-4-4---------| x4
d]-0--0--0--0----------------------|

End on

e]------|
b]------|
g]--2---|
d]--0---|
a]--0---|
d]--0---|

57
The sun shone in, the glint in your eye,
your beautiful face, your beautiful face.
I held her tight, close to my heart.
I didn't know it would break.
I didn't know it would break.

I don't believe there's love anymore, it's all in sight.
We always said it's forever in this beautiful life.
And I'll try not to feel this music's for you
and over, (hey), and over, (hey), and over, (hey)
and I'll try not to feel this music's for you
and over, (hey), and over, (hey), and over, (hey)

I held her tight, close to my heart.
I didn't know it would break.
I didn't know it would break.

I don't believe there's love anymore, it's all inside.
We always said it's forever in this beautiful life.
And I'll try not to feel this music's for you
and over, (hey), and over, (hey), and over, (hey)
and I'll try not to feel this music's for you
and over, (hey), and over, (hey), and over, (hey), and over, (hey),
and over, (hey), and over, (hey), and over, (hey), and over, (hey),
and over, (hey), and over, (hey), and over, (hey), and over, (hey),
and over, (hey), and over, (hey), and over, (hey), and over, (hey),
and over, (hey), and over, (hey), and over, (hey),
It's alright, It's alright, It's alright, It's alright.

-----------------------------------------------------------------------

Hero Management

Tuning - Drop D

Intro / Verse 1

e]---------------------------------|
b]---------------------------------|
g]---------------------------------|
d]---9-10-------9-10---------------|
a]-8----------8--------------------|
d]---------------------------------|

e]---------------------------------|
b]---------------------------------|
g]-----0---------------------------|
d]---3-----------------------------|
a]-3-------------------------------|
d]---------------------------------|

Break

e]---------------------------------|
b]---------------------------------|
g]---------------------------------|
d]---9-10---9-10---9-10---9-10-----|
a]-8------8------8------8----------|
d]---------------------------------|

e]---------------------------------------------|
b]---------------------------------------------|
g]---------------------------------------------|
d]----10----10----10----10----10----10----10---|
a]-11----11----11----11----11----11----11---11-|
d]---------------------------------------------|

e]----------------------------------|
b]----------------------------------|
g]----------------------------------|
d]----9----9------7---7---7---7---7-|
a]-10---10---10-9---9---9---9---9---|
d]----------------------------------|

Repeat x3

Verse 2

e]---------------------------------|
b]---------------------------------|
g]-----0-----2-0-----0-----0-------|
d]---3-----0-------0-----0---------|
a]-3-------------2-----3-----------|
d]---------------------------------|

e]---------------------------------|
b]---------0-------0-----0---------|
g]-------------------0-----0---0---|
d]-2-5-4-2---2-5-0-----0-----0-----|
a]---------------------------------|
d]---------------------------------|

e]---------------------------------|
b]---------------------------------|
g]---0-----0-----0-----0-----0-----|
d]-----4-----4-----4-----4-----4---|
a]-3-----3-----3-----3-----3-------|
d]---------------------------------|

Bridge Part 1

e]---------------------------------|
b]-3-3-3-3-3-3---------------------|
g]-------------11-11-11------------|
d]---------------------------------|
a]-3-3-3-3-3-3-9--9--9-------------|
d]---------------------------------|

e]---------------------------------|
b]---------------------------------|
g]-9-11-11-12-12-14-14-14----------|
d]---------------------------------|
a]-7-9--9--10-10-12-12-12----------|
d]---------------------------------|

Repeat

Bridge Part 2

e]-------------------------------------|
b]-0-3-0-----------0-3-0-----------0-3-|
g]-------0---0---0-------0---0---0-----|
d]---------4---4-----------4---4-------|
a]-------------------------------------|
d]-------------------------------------|

e]---------------------------------|
b]---------------------------------|
g]-9-11-11-12-12-14-14-14----------|
d]---------------------------------|
a]-7-9--9--10-10-12-12-12----------|
d]---------------------------------|

Repeat

Bridge Part 3

e]-------------------------------|
b]-12--12--12--12--15------------|
g]---12--12--12--12--12----------|
d]-------------------------------|
a]-------------------------------|
d]-------------------------------|

e]---------------------------------|
b]-12--12--12--13--15--------------|
g]---12--12--12--12--12------------|
d]---------------------------------|
a]---------------------------------|
d]---------------------------------|

e]---------------------------------|
b]-12--12--12--12--13--------------|
g]---12--12--12--12--12------------|
d]---------------------------------|
a]---------------------------------|
d]---------------------------------|

e]---------------------------------|
b]-12--12--12--12--12--------------|
g]---12--12--14--14--14------------|
d]---------------------------------|
a]---------------------------------|
d]---------------------------------|

e]-------------------------------|
b]-12--12--12--12--15------------|
g]---12--12--12--12--12----------|
d]-------------------------------|
a]-------------------------------|
d]-------------------------------|


e]---------------------------------|
b]-12--12--12--13--15--------------|
g]---12--12--12--12--12------------|
d]---------------------------------|
a]---------------------------------|
d]---------------------------------|

e]-------------------------------|
b]-12--12--12--13--15--12--12----|
g]---12--12--12--12--12--12--12--|
d]-------------------------------|
a]-------------------------------|
d]-------------------------------|

Bridge Part 4

e]---------------------------------|
b]-----------12-12-12-12-12-12-----|
g]-----------12-12-12-12-12-12-----|
d]-0-0-0-0-0-0--0--0--0--0--0------|
a]-0-0-0-0-0-0--0--0--0--0--0------|
d]-0-0-0-0-0-0--0--0--0--0--0------|

e]---------------------------------|
b]---------------------------------|
g]-4-4-4-4-4-4-4-4-4-4-4-4-9-7-----|
d]---------------------------------|
a]-2-2-2-2-2-2-2-2-2-2-2-2-7-5-----|
d]---------------------------------|

e]---------------------------------|
b]---------------------------------|
g]-4-4-4-4-4-4-4-4-4-4-4-4-5-7-----|
d]---------------------------------|
a]-2-2-2-2-2-2-2-2-2-2-2-2-3-5-----|
d]---------------------------------|

e]----------------------------------|
b]----------------------------------|
g]-4-4-4-4-4-4-4-4-4-4-4-4-11-11-11-|
d]----------------------------------|
a]-2-2-2-2-2-2-2-2-2-2-2-2--9--9--9-|
d]----------------------------------|

e]--------------------------------------|
b]--------------------------------------|
g]-4-4-4-4-4-4-4-4-4-4-4-4-----------16-|
d]------------------------slow slide----|
a]-2-2-2-2-2-2-2-2-2-2-2-2-----------14-|
d]--------------------------------------|

e]---------------------------------|
b]---------------------------------|
g]-16-16-16-16-16-16-16-16-21-19---|
d]---------------------------------|
a]-14-14-14-14-14-14-14-14-19-17---|
d]---------------------------------|

e]---------------------------------|
b]---------------------------------|
g]-16-16-16-16-16-16-16-16-17-19---|
d]---------------------------------|
a]-14-14-14-14-14-14-14-14-15-17---|
d]---------------------------------|

e]----------------------------------|
b]----------------------------------|
g]-11-11-11-11-11-11-11-11-11-11-11-|
d]----------------------------------|
a]-9--9--9--9--9--9--9--9--9--9--9--|
d]----------------------------------|

e]---------------------------------|
b]---------------------------------|
g]-11-11-11-11-11-11---------------|
d]---------------------------------|
a]-9--9--9--9--9--9--9-9-9-9-9-9-9-|
d]----------0--0-----7-7-7-7-9-9-9-|

e]-----------------------------------|
b]-12-12-12-12-12-12-12-12-12-12-12--|
g]-12-12-12-12-12-12-12-12-12-12-12--|
d]-10-10-10-10-10-10-10-10-10-10-10--|
a]-10-10-10-10-10-10-10-10-10-10-10--| x2
d]-10-10-10-10-10-10-10-10-10-10-10--|

e]---------------------------------|
b]---------------------------------|
g]-17-17-17-17-17-19-19-19---------|
d]---------------------------------|
a]-15-15-15-15-15-17-17-17---------|
d]---------------------------------|

Outro Part 1

e]------------------------------------|
b]---------------------12-12-12-12-12-|
g]-----------7-7-7-7-7-12-12-12-12-12-|
d]-2-2-2-2-2-0-0-0-0-0-10-10-10-10-10-|
a]-2-2-2-2-2-0-0-0-0-0-10-10-10-10-10-| x3
d]-2-2-2-2-2-0-0-0-0-0-10-10-10-10-10-|

e]----------------------------------|
b]----------------------------------|
g]-9-9-9-7-7-7-4-4------------------|
d]-----------------5----------------|
a]-7-7-7-5-5-5-2-2-5----------------|
d]-----------------5----------------|

e]------------------------------------|
b]---------------------12-12-12-12-12-|
g]-----------7-7-7-7-7-12-12-12-12-12-|
d]-2-2-2-2-2-0-0-0-0-0-10-10-10-10-10-|
a]-2-2-2-2-2-0-0-0-0-0-10-10-10-10-10-|
d]-2-2-2-2-2-0-0-0-0-0-10-10-10-10-10-|

e]----------------------------------|
b]----------------------------------|
g]-9-9-9-7-7-7-4-4------------------|
d]-----------------5----------------|
a]-7-7-7-5-5-5-2-2-5----------------|
d]-----------------5----------------|

Outro Part 2

e]---------------------------------|
b]---------------------------------|
g]---------------------------------|
d]-2-2-2-2-2-2-0-2-0-2-------------|
a]-2-2-2-2-2-2-0-2-0-2-------------|
d]-2-2-2-2-2-2-0-2-0-2-------------|

e]---------------------------------|
b]---------------------------------|
g]-------------7-4-4---------------|
d]-2-2-2-2-2-2---------------------|
a]-2-2-2-2-2-2-5-2-2---------------|
d]-2-2-2-2-2-2---------------------|

Repeat x4

Outro Part 3

e]-------------------0-------------|
b]-------------------0-------------|
g]---------------------------------|
d]-2-2-2-2-2-2-0-2-0-2-------------|
a]-2-2-2-2-2-2-0-2-0-2-------------|
d]-2-2-2-2-2-2-0-2-0-2-------------|

e]---------------------------------|
b]---------------------------------|
g]-------------7-4-4---------------|
d]-2-2-2-2-2-2---------------------|
a]-2-2-2-2-2-2-5-2-2---------------|
d]-2-2-2-2-2-2---------------------|


Hero Management
I'm your man, I return to you to be the way you wanted.
But I have no strength or the decency in me to be a hero
But we still fall down, yeah you'll still fall down

I your man, I refuse to be the way that you would want me.
Still I've got no strength but the sense in me to see I'm not a hero
But we still fall down, still fall down,
and we'll still fall down, and we still fall

But we still fall down, and we still fall down,
and you'll still fall down, yeah we still fall down

I love you(TAKE IT AWAY) I love you(TAKE IT AWAY)
I love you(TAKE IT AWAY) I love you(TAKE IT)

---------------------------------------------------------------------

Solution Devices

Tuning - Drop D

Intro

e]-x--x----x-------x----------------|
b]-x--x----x-------x----------------|
g]-x--x-10-x-10-10-x-10-10-10-5-5-5-|
d]-x--x----x-------x----------------|
a]-x--x-8--x-8--8--x-8--8--8--3-3-3-|
d]-x--x----x-------x----------------|

e]---------------------------------|
b]---------------------------------|
g]-7-7-7-7-7-7-7-7-7-7-7-7-7-7-7-7-|
d]---------------------------------|
a]-5-5-5-5-5-5-5-5-5-5-5-5-5-5-5-5-|
d]---------------------------------|

e]---------------------------------|
b]---------------------------------|
g]-4-4-4-4-4-4-4-4-4-4-4-4-4-4-4-4-|
d]---------------------------------|
a]-2-2-2-2-2-2-2-2-2-2-2-2-2-2-2-2-|
d]---------------------------------|

e]---------------------------------|
b]---------------------------------|
g]-7-7-7-7-7-7-7-7-7-7-7-7-7-7-7-7-|
d]---------------------------------|
a]-5-5-5-5-5-5-5-5-5-5-5-5-5-5-5-5-|
d]---------------------------------|

e]---------------------------------|
b]---------------------------------|
g]-4-4-4-4-4-4-4-4-4-4-4-4-4-4-4-4-|
d]---------------------------------|
a]-2-2-2-2-2-2-2-2-3-3-3-3-3-3-3-3-|
d]-----------------3-3-3-3-3-3-3-3-|

Chorus

e]------------------------------------|
b]------------------------------------|
g]------------------------10-10-10-10-|
d]-2-2-2-2-2-2-2-2-2-2-2--------------|
a]-2-2-2-2-2-2-2-2-2-2-2-/8--8--8--8--|
d]-2-2-2-2-2-2-2-2-2-2-2--------------|

e]-------------------------------------|
b]-------------12-12-12-12-12-13-13-13-|
g]-10-10-10-10-12-12-12-12-12-12-12-12-|
d]-------------10-10-10-10-10-10-10-10-|
a]-8--8--8--8--10-10-10-10-10-10-10-10-|
d]-------------10-10-10-10-10-10-10-10-|

e]---------------------------------|
b]-12-12-12-12-12-13-13-13---------|
g]-12-12-12-12-12-12-12-12---------|
d]-10-10-10-10-10-10-10-10---------|
a]-10-10-10-10-10-10-10-10---------|
d]---------------------------------|

e]------------------------------------|
b]------------------------------------|
g]------------------------10-10-10-10-|
d]-2-2-2-2-2-2-2-2-2-2-2--------------|
a]-2-2-2-2-2-2-2-2-2-2-2-/8--8--8--8--|
d]-2-2-2-2-2-2-2-2-2-2-2--------------|

e]-------------------------------------|
b]-------------12-12-12-12-12-13-13-13-|
g]-10-10-10-10-12-12-12-12-12-12-12-12-|
d]-------------10-10-10-10-10-10-10-10-|
a]-8--8--8--8--10-10-10-10-10-10-10-10-|
d]-------------10-10-10-10-10-10-10-10-|

e]---------------------------------|
b]---------------------------------|
g]---------------------------------|
d]-0-0-0-0-0-0-0-0-----------------|
a]-5-5-5-5-5-5-5-5-----------------|
d]-5-5-5-5-5-5-5-5-----------------|

e]---------------------------------|
b]---------------------------------|
g]-7-7-7-7-7-7-7-7-7-7-7-7-7-7-7-7-|
d]---------------------------------|
a]-5-5-5-5-5-5-5-5-5-5-5-5-5-5-5-5-|
d]---------------------------------|

e]---------------------------------|
b]---------------------------------|
g]-4-4-4-4-4-4-4-4-4-4-4-4-4-4-4-4-|
d]---------------------------------|
a]-2-2-2-2-2-2-2-2-2-2-2-2-2-2-2-2-|
d]---------------------------------|

Verse

e]--------------------------------------|
b]-----3-0-------0----------0---------0-|
g]---0-------2-0------0---0---------0---|
d]-2-------0------------0-------2-0-----|
a]------------------3---------0---------| x2
d]--------------------------------------|

e]---------------------------------|
b]----------7-0--------------------|
g]-7-0-7-0-------------------------|
d]---------------------------------|
a]---------------------------------|
d]---------------------------------|

Back to Chorus

Bridge

e]----------------------------------------|
b]----------------------------------------|
g]-------------10-10-10-5-5-5-------------|
d]-2-2-2-0-2-2----------------0-0-0-0-0-0-|
a]-2-2-2-0-2-2-8--8--8--3-3-3-0-0-0-0-0-0-|
d]-2-2-2-0-2-2----------------0-0-0-0-0-0-|

e]---------------------------------|
b]---------------------------------|
g]---------------------------------|
d]-2-2-2-0-2-2-0-5-0-0-------------|
a]-2-2-2-0-2-2-0-5-0-0-------------|
d]-2-2-2-0-2-2-0-5-0-0-------------|

e]---------------------------------|
b]---------------------------------|
g]-11-11-12-11-11-12-11------------|
d]-0--0--0--0--0--0--0-------------|
a]-0--0--0--0--0--0--0-------------|
d]-0--0--0--0--0--0--0-------------|

Repeat

Outro

e]---------------------------------|
b]---------------------------------|
g]---------------4-4-4-4-4-4-4-4---|
d]-5-5-5-5-5-5-5-2-2-2-2-2-2-2-2---|
a]-5-5-5-5-5-5-5-2-2-2-2-2-2-2-2---|
d]-5-5-5-5-5-5-5-2-2-2-2-2-2-2-2---|

e]---------------------------------|
b]---------------------------------|
g]-11-11-11-11-11-11-11-11-11------|
d]-0--0--0--0--0--0--0--0--0-------|
a]-0--0--0--0--0--0--0--0--0-------|
d]-0--0--0--0--0--0--0--0--0-------|

e]---------------------------------|
b]-12-12-12-12-12-12-12-12-12-12---|
g]-12-12-12-12-12-12-12-12-12-12---|
d]-10-10-10-10-10-10-10-10-10-10---|
a]-10-10-10-10-10-10-10-10-10-10---|
d]-10-10-10-10-10-10-10-10-10-10---|

Repeat

e]---------------------------------|
b]---------------------------------|
g]---------------4-4-4-4-4-4-4-4---|
d]-5-5-5-5-5-5-5-2-2-2-2-2-2-2-2---|
a]-5-5-5-5-5-5-5-2-2-2-2-2-2-2-2---|
d]-5-5-5-5-5-5-5-2-2-2-2-2-2-2-2---|

e]---------------------------------|
b]---------------------------------|
g]-11-11-11-11-11-11-11-11-11------|
d]-0--0--0--0--0--0--0--0--0-------|
a]-0--0--0--0--0--0--0--0--0-------|
d]-0--0--0--0--0--0--0--0--0-------|

e]---------------------------------|
b]---------------------------------|
g]-9-7-----------------------------|
d]-----9-7-9-5---------------------|
a]-----------5---------------------|
d]-----------5---------------------|

e]---------------------------------|
b]---------------------------------|
g]---------------4-4-4-4-4-4-4-4---|
d]-5-5-5-5-5-5-5-2-2-2-2-2-2-2-2---|
a]-5-5-5-5-5-5-5-2-2-2-2-2-2-2-2---|
d]-5-5-5-5-5-5-5-2-2-2-2-2-2-2-2---|

e]---------------------------------|
b]---------------------------------|
g]-11-11-11-11-11-11-11-11-11------|
d]-0--0--0--0--0--0--0--0--0-------|
a]-0--0--0--0--0--0--0--0--0-------|
d-]0--0--0--0--0--0--0--0--0-------|

e]---------------------------------|
b]---------------------------------|
g]-9-7-4-12-12-9-7-4-12-12---------|
d]---------------------------------|
a]-7-5-2-10-10-7-5-2-10-10---------|
d]---------------------------------|

e]---------------------------------|
b]---------------------------------|
g]-------4-4-----------4-4---------|
d]-2-0-0-----5-5-2-0-0-----5-5-----|
a]-2-0-0-2-2-5-5-2-0-0-2-2-5-5-----| x2
d]-2-0-0-----5-5-2-0-0-----5-5-----|

e]---------------------------------|
b]---------------------------------|
g]-9-7-4-12-12-9-7-4-12-12---------|
d]-------------------------0-0-----|
a]-7-5-2-10-10-7-5-2-10-10-0-0-----|
d]-------------------------0-0-----|

e]---------------------------------|
b]---------------------------------|
g]---------------------------------|
d]---------------------------------|
a]-0-0-0-0-0-0-0-0-----------------|
d]-0-0-0-0-0-0-0-0-----------------|


Solution Devices
want it feel it, is what you say,
our turn our turn, fuck you and all your games

who'd have ever thought you would beg for death, to take the pain
recently corruption in your mind will shut you down

want it feel it, take what you gave,
my turn my turn, wasn't born to be your slave

tonight, when we ride, it is such a relief to get outside
when we ride, it is such a relief to get outside
when we ride, it is such a, when we ride, it is such a.

---------------------------------------------------------------------

Solution Devices

Tuning - Drop D

Intro

e]-x--x----x-------x----------------|
b]-x--x----x-------x----------------|
g]-x--x-10-x-10-10-x-10-10-10-5-5-5-|
d]-x--x----x-------x----------------|
a]-x--x-8--x-8--8--x-8--8--8--3-3-3-|
d]-x--x----x-------x----------------|

e]---------------------------------|
b]---------------------------------|
g]-7-7-7-7-7-7-7-7-7-7-7-7-7-7-7-7-|
d]---------------------------------|
a]-5-5-5-5-5-5-5-5-5-5-5-5-5-5-5-5-|
d]---------------------------------|

e]---------------------------------|
b]---------------------------------|
g]-4-4-4-4-4-4-4-4-4-4-4-4-4-4-4-4-|
d]---------------------------------|
a]-2-2-2-2-2-2-2-2-2-2-2-2-2-2-2-2-|
d]---------------------------------|

e]---------------------------------|
b]---------------------------------|
g]-7-7-7-7-7-7-7-7-7-7-7-7-7-7-7-7-|
d]---------------------------------|
a]-5-5-5-5-5-5-5-5-5-5-5-5-5-5-5-5-|
d]---------------------------------|

e]---------------------------------|
b]---------------------------------|
g]-4-4-4-4-4-4-4-4-4-4-4-4-4-4-4-4-|
d]---------------------------------|
a]-2-2-2-2-2-2-2-2-3-3-3-3-3-3-3-3-|
d]-----------------3-3-3-3-3-3-3-3-|

Chorus

e]------------------------------------|
b]------------------------------------|
g]------------------------10-10-10-10-|
d]-2-2-2-2-2-2-2-2-2-2-2--------------|
a]-2-2-2-2-2-2-2-2-2-2-2-/8--8--8--8--|
d]-2-2-2-2-2-2-2-2-2-2-2--------------|

e]-------------------------------------|
b]-------------12-12-12-12-12-13-13-13-|
g]-10-10-10-10-12-12-12-12-12-12-12-12-|
d]-------------10-10-10-10-10-10-10-10-|
a]-8--8--8--8--10-10-10-10-10-10-10-10-|
d]-------------10-10-10-10-10-10-10-10-|

e]---------------------------------|
b]-12-12-12-12-12-13-13-13---------|
g]-12-12-12-12-12-12-12-12---------|
d]-10-10-10-10-10-10-10-10---------|
a]-10-10-10-10-10-10-10-10---------|
d]---------------------------------|

e]------------------------------------|
b]------------------------------------|
g]------------------------10-10-10-10-|
d]-2-2-2-2-2-2-2-2-2-2-2--------------|
a]-2-2-2-2-2-2-2-2-2-2-2-/8--8--8--8--|
d]-2-2-2-2-2-2-2-2-2-2-2--------------|

e]-------------------------------------|
b]-------------12-12-12-12-12-13-13-13-|
g]-10-10-10-10-12-12-12-12-12-12-12-12-|
d]-------------10-10-10-10-10-10-10-10-|
a]-8--8--8--8--10-10-10-10-10-10-10-10-|
d]-------------10-10-10-10-10-10-10-10-|

e]---------------------------------|
b]---------------------------------|
g]---------------------------------|
d]-0-0-0-0-0-0-0-0-----------------|
a]-5-5-5-5-5-5-5-5-----------------|
d]-5-5-5-5-5-5-5-5-----------------|

e]---------------------------------|
b]---------------------------------|
g]-7-7-7-7-7-7-7-7-7-7-7-7-7-7-7-7-|
d]---------------------------------|
a]-5-5-5-5-5-5-5-5-5-5-5-5-5-5-5-5-|
d]---------------------------------|

e]---------------------------------|
b]---------------------------------|
g]-4-4-4-4-4-4-4-4-4-4-4-4-4-4-4-4-|
d]---------------------------------|
a]-2-2-2-2-2-2-2-2-2-2-2-2-2-2-2-2-|
d]---------------------------------|

Verse

e]--------------------------------------|
b]-----3-0-------0----------0---------0-|
g]---0-------2-0------0---0---------0---|
d]-2-------0------------0-------2-0-----|
a]------------------3---------0---------| x2
d]--------------------------------------|

e]---------------------------------|
b]----------7-0--------------------|
g]-7-0-7-0-------------------------|
d]---------------------------------|
a]---------------------------------|
d]---------------------------------|

Back to Chorus

Bridge

e]----------------------------------------|
b]----------------------------------------|
g]-------------10-10-10-5-5-5-------------|
d]-2-2-2-0-2-2----------------0-0-0-0-0-0-|
a]-2-2-2-0-2-2-8--8--8--3-3-3-0-0-0-0-0-0-|
d]-2-2-2-0-2-2----------------0-0-0-0-0-0-|

e]---------------------------------|
b]---------------------------------|
g]---------------------------------|
d]-2-2-2-0-2-2-0-5-0-0-------------|
a]-2-2-2-0-2-2-0-5-0-0-------------|
d]-2-2-2-0-2-2-0-5-0-0-------------|

e]---------------------------------|
b]---------------------------------|
g]-11-11-12-11-11-12-11------------|
d]-0--0--0--0--0--0--0-------------|
a]-0--0--0--0--0--0--0-------------|
d]-0--0--0--0--0--0--0-------------|

Repeat

Outro

e]---------------------------------|
b]---------------------------------|
g]---------------4-4-4-4-4-4-4-4---|
d]-5-5-5-5-5-5-5-2-2-2-2-2-2-2-2---|
a]-5-5-5-5-5-5-5-2-2-2-2-2-2-2-2---|
d]-5-5-5-5-5-5-5-2-2-2-2-2-2-2-2---|

e]---------------------------------|
b]---------------------------------|
g]-11-11-11-11-11-11-11-11-11------|
d]-0--0--0--0--0--0--0--0--0-------|
a]-0--0--0--0--0--0--0--0--0-------|
d]-0--0--0--0--0--0--0--0--0-------|

e]---------------------------------|
b]-12-12-12-12-12-12-12-12-12-12---|
g]-12-12-12-12-12-12-12-12-12-12---|
d]-10-10-10-10-10-10-10-10-10-10---|
a]-10-10-10-10-10-10-10-10-10-10---|
d]-10-10-10-10-10-10-10-10-10-10---|

Repeat

e]---------------------------------|
b]---------------------------------|
g]---------------4-4-4-4-4-4-4-4---|
d]-5-5-5-5-5-5-5-2-2-2-2-2-2-2-2---|
a]-5-5-5-5-5-5-5-2-2-2-2-2-2-2-2---|
d]-5-5-5-5-5-5-5-2-2-2-2-2-2-2-2---|

e]---------------------------------|
b]---------------------------------|
g]-11-11-11-11-11-11-11-11-11------|
d]-0--0--0--0--0--0--0--0--0-------|
a]-0--0--0--0--0--0--0--0--0-------|
d]-0--0--0--0--0--0--0--0--0-------|

e]---------------------------------|
b]---------------------------------|
g]-9-7-----------------------------|
d]-----9-7-9-5---------------------|
a]-----------5---------------------|
d]-----------5---------------------|

e]---------------------------------|
b]---------------------------------|
g]---------------4-4-4-4-4-4-4-4---|
d]-5-5-5-5-5-5-5-2-2-2-2-2-2-2-2---|
a]-5-5-5-5-5-5-5-2-2-2-2-2-2-2-2---|
d]-5-5-5-5-5-5-5-2-2-2-2-2-2-2-2---|

e]---------------------------------|
b]---------------------------------|
g]-11-11-11-11-11-11-11-11-11------|
d]-0--0--0--0--0--0--0--0--0-------|
a]-0--0--0--0--0--0--0--0--0-------|
d-]0--0--0--0--0--0--0--0--0-------|

e]---------------------------------|
b]---------------------------------|
g]-9-7-4-12-12-9-7-4-12-12---------|
d]---------------------------------|
a]-7-5-2-10-10-7-5-2-10-10---------|
d]---------------------------------|

e]---------------------------------|
b]---------------------------------|
g]-------4-4-----------4-4---------|
d]-2-0-0-----5-5-2-0-0-----5-5-----|
a]-2-0-0-2-2-5-5-2-0-0-2-2-5-5-----| x2
d]-2-0-0-----5-5-2-0-0-----5-5-----|

e]---------------------------------|
b]---------------------------------|
g]-9-7-4-12-12-9-7-4-12-12---------|
d]-------------------------0-0-----|
a]-7-5-2-10-10-7-5-2-10-10-0-0-----|
d]-------------------------0-0-----|

e]---------------------------------|
b]---------------------------------|
g]---------------------------------|
d]---------------------------------|
a]-0-0-0-0-0-0-0-0-----------------|
d]-0-0-0-0-0-0-0-0-----------------|

Stress on the Sky
you're just dull
I'm not to blame
broke your heart for fun

you're just dull
I'm not to blame for this
you're just a mess, to me

if my hope is gone, the way I feel
until the end is near, below my
stress on the sky

you're just dull
I'm not to blame
broke your heart for fun

you're just dull
I'm not to blame for this
you're just a mess, to me

I'm the one

ahhhhhh, ahhhhhh, ahhhhhh
ahhhhhh, ahhhhhh, ahhhhhh

-----------------------------------------------------------------------
Scary Mary

Tuning - Drop D

*Listen to song from timing
*Tuning - dadgad

Intro / Verse 1

d]---------------------------------|
a]-----------------3-3-3-3-3-3-3-3-|
g]-5-5-5-5-4-4-4-5-5-5-5-5-5-5-5-5-|
d]-5-5-5-5-5-5-5-5-3-3-3-3-3-3-3-3-|
a]-3-3-3-3-3-3-3-3-3-3-3-3-3-3-3-3-|
d]-----------------3-3-3-3-3-3-3-3-|

d]---------------------------------|
a]-7-7-7-7-7-7-7-7-3-3-3-3-3-3-3-3-|
g]-9-9-9-9-9-9-9-9-5-5-5-5-5-5-5-5-|
d]-7-7-7-7-7-7-7-7-3-3-3-3-3-3-3-3-|
a]-7-7-7-7-7-7-7-7-3-3-3-3-3-3-3-3-|
d]-7-7-7-7-7-7-7-7-3-3-3-3-3-3-3-3-|

Repeat x3

Break

d]---------------------------------|
a]-5-5-5-7-7-7-3-3-3-3-3-----------|
g]-7-7-7-9-9-9-5-5-5-5-5-----------|
d]-5-5-5-7-7-7-3-3-3-3-3-----------|
a]-5-5-5-7-7-7-3-3-3-3-3-----------|
d]-5-5-5-7-7-7-3-3-3-3-3-----------|

Verse 2

d]---------------------------------|
a]-----------------3-3-3-3-3-3-3-3-|
g]-5-5-5-5-4-4-4-5-5-5-5-5-5-5-5-5-|
d]-5-5-5-5-5-5-5-5-3-3-3-3-3-3-3-3-|
a]-3-3-3-3-3-3-3-3-3-3-3-3-3-3-3-3-|
d]-----------------3-3-3-3-3-3-3-3-|

d]---------------------------------|
a]-5-5-5-7-7-7-3-3-3-3-3-----------|
g]-7-7-7-9-9-9-5-5-5-5-5-----------|
d]-5-5-5-7-7-7-3-3-3-3-3-----------|
a]-5-5-5-7-7-7-3-3-3-3-3-----------|
d]-5-5-5-7-7-7-3-3-3-3-3-----------|

Repeat

d]---------------------------------|
a]-5-5-5-7-7-7-3-3-3-3-3-----------|
g]-7-7-7-9-9-9-5-5-5-5-5-----------|
d]-5-5-5-7-7-7-3-3-3-3-3-----------|
a]-5-5-5-7-7-7-3-3-3-3-3-----------|
d]-5-5-5-7-7-7-3-3-3-3-3-----------|

Chorus

d]---------------------------------|
a]-0-0-0-0-0-0-0-0-0-0-0-0-0-0-0---|
g]-4-4-4-4-4-4-4-4-4-4-4-4-4-4-4---|
d]-2-2-2-2-2-2-2-2-2-2-2-2-2-2-2---|
a]-2-2-2-2-2-2-2-2-2-2-2-2-2-2-2---|
d]-2-2-2-2-2-2-2-2-2-2-2-2-2-2-2---|

d]---------------------------------|
a]-3-3-3-3-5-2-2-------------------|
g]-5-5-5-5-7-4-4-------------------|
d]-3-3-3-3-5-2-2-------------------|
a]-3-3-3-3-5-2-2-------------------|
d]-3-3-3-3-5-2-2-------------------|

Repeat x3

d]---------------------------------|
a]-0-0-0-0-0-0-0-0-0-0-0-0-0-0-0---|
g]-4-4-4-4-4-4-4-4-4-4-4-4-4-2-4---|
d]-2-2-2-2-2-2-2-2-2-2-2-2-2-2-2---|
a]-2-2-2-2-2-2-2-2-2-2-2-2-2-2-2---|
d]-2-2-2-2-2-2-2-2-2-2-2-2-2-2-2---|

d]---------------------------------|
a]-3-3-3-3-5-7-9-------------------|
g]-5-5-5-5-7-9-11------------------|
d]-3-3-3-3-5-7-9-------------------|
a]-3-3-3-3-5-7-9-------------------|
d]-3-3-3-3-5-7-9-------------------|

Outro
(For the 2nd guitar pick out notes from the chords below)

d]---------------------------------|
a]---------------------------------|
g]-12-12-12-12-12-12-12-12-12------|
d]-10-10-10-10-10-10-10-10-10------|
a]-10-10-10-10-10-10-10-10-10------|
d]-10-10-10-10-10-10-10-10-10------|

d]---------------------------------|
a]---------------------------------|
g]-12-12-12-12-12-12-12-12-12------|
d]-10-10-10-10-10-10-10-10-10------|
a]-10-10-10-10-10-10-10-10-10------|
d]-9--9--9--9--9--9--9--9--9-------|

d]--------------------------------|
a]-3-3-3-3-5-3-3-3-3-3-3-3-7-7-9--|
g]-5-5-5-5-5-5-5-5-5-5-5-5-9-9-11-|
d]-3-3-3-3-3-3-3-3-3-3-3-3-7-7-9--|
a]-3-3-3-3-3-3-3-3-3-3-3-3-7-7-9--|
d]-3-3-3-3-3-3-3-3-3-3-3-3-7-7-9--|

Repeat x3

d]---------------------------------|
a]---------------------------------|
g]-12-12-12-12-12-12-12-12-12------|
d]-10-10-10-10-10-10-10-10-10------|
a]-10-10-10-10-10-10-10-10-10------|
d]-10-10-10-10-10-10-10-10-10------|

d]---------------------------------|
a]---------------------------------|
g]-12-12-12-12-12-12-12-12-12------|
d]-10-10-10-10-10-10-10-10-10------|
a]-10-10-10-10-10-10-10-10-10------|
d]-9--9--9--9--9--9--9--9--9-------|

d]---------------------------------|
a]-3-3-3-3-5-3-3-3-3-3-3-3-7-7-7---|
g]-5-5-5-5-5-5-5-5-5-5-5-5-9-9-9-5-|
d]-3-3-3-3-3-3-3-3-3-3-3-3-7-7-7-5-|
a]-3-3-3-3-3-3-3-3-3-3-3-3-7-7-7-3-|
d]-3-3-3-3-3-3-3-3-3-3-3-3-7-7-7---|

Scary Mary
What must I have become,
to deserve all the shit that you gave me,
The rocks look like a body on the river,
now I just wish that I could sleep,
to keep me from thinking but the thoughts keep me up,
it's been two months since you, taught me not to trust,
but you kept you promise, you made patterns in my face,
you painted pictures with my tears and you did it again,
I knew that you would, thank you for showing me there's more.

Wash off your hands, it's time to let go, release them,
give time to your heart, give time to your soul, release them all


Taken From www.biffytabs.tk
comments
print report bad tab
2 comments total.
+2 reply
Rodders wrote on November 25 2007, 08:12 am

Would be brilliant if you hadn't posted solution devices twice and no stress on the sky.

0 reply
Lord-Hypnos wrote on October 26 2008, 02:30 pm

Kill the Old is wrong, the notes on the 4th fret b string should be 5th fret

I want to post or [tab]
guest
You may want to rate the tab now too:
select rating
Please do not post tabs as comments. Select "correction" instead!