Oops, an error
Loading. Please wait.

Infinity Land Tab

8,206 views 3 this week
no commentswrite comment
1 2 3 4 5
excellent!
x 1
add to favorites launch autoscroll
font size
0
reset
Autoscroll
+/-
esc
set tempo
stop
Contributor
Difficulty
intermediate
WARNING: You are trying to view
                                    content from Ultimate-Guitar.com
                                    in an unauthorized application,
                                    which is prohibited.

                                    Please use an official Ultimate
                                    Guitar Tabs application for iPhone,
                                    iPad or Android to access legitimate
                                    chords, guitar, bass, and drum tabs
                                    from Ultimate-Guitar.com database.

                                    Type "ultimate guitar tabs" in Apple
                                    App Store's or Android Market's
                                    search to find the application.
Hello again, I did not make these tabs the great people at biffytabs.tk did.
I am putting them in one place for all biffy fans.
'MON THE BIFFY!

Glitter and Trauma
Biffy Tab Team

 *  Harmonic
(#) Bend note inside brackets

Intro

e]---------12-14--Repeat Over--|
b]-0-14-15---------------------|
g]-----------------------------|
d]-----------------------------|
a]-----------------------------|
d]-----------------------------|

e]------------------------------------------------------*12-|
b]------------------------------------------------------*12-|
g]----------------------------------------------------------|
d]--12--0--------12--0--------12--0--------12--0------------|
a]--12--0--(x8)--13--0--(x8)--15--0--(x8)--12--0--(x8)------|
d]--12--0--------12--0--------12--0--------12--0------------|

Verse

e]-------------------------|
b]----------------2--------|
g]----------------0--------|
d]--4--4----------3--(x10)-|
a]--2--2-2h3p2p0--4--------|
d]-------------------------|

e]----0--------0------------0-------/-14----0--------0------------0-|
b]----0--------3----------0-------2-/-15----0--------3----------0---|
g]----6--------4--------0---------3-/-------6--------4--------0-----|
d]----7------4--------4--------0------------7------4--------4-------|
a]--0-5--2-2-2-2----5----------0----------0-5--2-2-2-2----5---------|
d]--0-0-----------5------------0----------0-0-----------5-----------|

Chorus

e]--------------------------------------------0-0-0------------|
b]--------------------------------------------3-3-3------2-2-0-|
g]--------------------------------------------0-0-0------0-0-0-|
d]--0-12-0-12-0-12-0-12-0-12-0-12---------0-5-------(x2)-3-3-0-|
a]---------------------------------(x6)---0-5------------------|
d]--0-12-0-12-0-12-0-12-0-12-0-12---------0-5------------------|

Verse

e]-------------------------|
b]----------------2--------|
g]----------------0--------|
d]--4--4----------3--(x10)-|
a]--2--2-2h3p2p0--4--------|
d]-------------------------|

e]----0--------0------------0----14-/-------0--------0------------0-|
b]----0--------3----------0------15-/-2-----0--------3----------0---|
g]----6--------4--------0-----------/-3-----6--------4--------0-----|
d]----7------4--------4--------0------------7------4--------4-------|
a]--0-5--2-2-2-2----5----------0----------0-5--2-2-2-2----5---------|
d]--0-0-----------5------------0----------0-0-----------5-----------|

(hit each chord/octave 8 times)

e]--------------------------|
b]--------------------------|
g]-------9-----------12--15-|
d]-2--4-----9--(x3)---------|
a]-2--4--7--9--------10--13-|
d]-2--4-----9---------------|

e]--------------------------------------------0-0-0-------|
b]--------------------------------------------3-3-3-------|
g]--------------------------------------------0-0-0-------|
d]--0-12-0-12-0-12-0-12-0-12-0-12---------0-5-------(x2)--|
a]--0-12-0-12-0-12-0-12-0-12-0-12--(x6)---0-5-------------|
d]--0-12-0-12-0-12-0-12-0-12-0-12---------0-5-------------|

e]-----------------------------------|
b]-----------------------------------|
g]-----------------------------------|
d]--3-0-7-0-3-0----7-0-3-0-7-0----2--|
a]--3-0-7-0-3-0----7-0-3-0-7-0----2--|
d]--3-0-7-0-3-0----7-0-3-0-7-0----2--|

(hit each chord/octave 8 times)

e]--------------------------------|
b]--------------------------------|
g]--11--9-----------12--15-(15)---|
d]---------9----------------------|
a]--9---7--9--------10--13-(13)---|
d]---------9----------------------|

e]------------------------0-0-0--|
b]---------10-/-17--------3-3-3--|
g]------|_Feedback_|------0-0-0--|
d]--0------------------5---------|
a]--0------------------5---------|
d]--0------------------5---------|

e]--------------------------------------------0-0-0-------|
b]--------------------------------------------3-3-3-------|
g]--------------------------------------------0-0-0-------|
d]--0-12-0-12-0-12-0-12-0-12-0-12---------0-5-------(x2)--|
a]--0-12-0-12-0-12-0-12-0-12-0-12--(x6)---0-5-------------|
d]--0-12-0-12-0-12-0-12-0-12-0-12---------0-5-------------|

Outro

e]-------------------------------------------|
b]-------------------------------------------|
g]-------------------------------------------|
d]--3-0-7-0-3-0-7-0-3-0-7-0-------6-5-4-3-2--|
a]--3-0-7-0-3-0-7-0-3-0-7-0--(x4)-6-5-4-3-2--|
d]--3-0-7-0-3-0-7-0-3-0-7-0-------6-5-4-3-2--|


-----------------------------------------------------------------------------


Strung to your Ribcage
Biffy Tab Team

Intro

e]--------------------|
b]--------------------|
g]--------------------|
d]--5-5--4--3--3------|
a]--3-2--2--1--0------|
d]--------------------|

e]-----------------------|
b]--Palm Mute------------|
g]-----------------------|
d]-----------------------|
a]-----------------------|
d]-6-6-6-6-11-11-11-11---|

e]--------------------------------------|
b]--------------------------------------|
g]-----15-14-15-17b------15-14-15-17b---|
d]-0-0-0--0--0--0----0-0-0--0--0--0-----|
a]-0-0---------------0-0----------------|
d]-0-0---------------0-0----------------|

Then

e]--------------------|
b]--------------------|
g]--------------------|
d]--5-5--4--3--3------|
a]--3-3--2--1--0------|
d]--------------------|

e]-----------------------|
b]--Palm Mute------------|
g]-----------------------|
d]-----------------------|
a]-----------------------|
d]-6-6-6-6-11-11-11-11---|

e]--------------------------------------|
b]--------------------------------------|
g]-----15-14-15-17b------15-14-15-17b---|
d]--------------------------------------|
a]-----13-12-13-15b------13-12-13-15b---| x2
d]-0-0-0--0--0--0----0-0-0--0--0--0-----|

*

e]---------------------------------|
b]---------------------------------|
g]---------------------------------|
d]-6-6-6-6-6-6/11-11-11-11-11-11---|
a]-6-6-6-6-6-6/11-11-11-11-11-11---|
d]-6-6-6-6-6-6/11-11-11-11-11-11---|

e]--------------------------------------|
b]--------------------------------------|
g]-----15-14-15-17b------15-14-15-17b---|
d]--------------------------------------|
a]-----13-12-13-15b------13-12-13-15b---| x2
d]-0-0-0--0--0--0----0-0-0--0--0--0-----|

Repeat from *
Verse 1

e]---------------------------------|
b]----------------------5p4p0-0----|
g]----------------------------4^---|
d]-2-2-2-2-222-222-222-------------|
a]-2-2-2-2-222-222-222-------------|
d]-2-2-2-2-222-222-222-------------|

Pre Chorus 1

e]-----------------------|
b]-7-7-7-7-7-7-7-7-7-7---|
g]-7-7-7-7-7-7-7-7-7-7---|
d]-0-0-0-0-0-0-0-0-0-0---|
a]-0-0-0-0-0-0-0-0-0-0---|
d]-0-0-0-0-0-0-0-0-0-0---|

e]-----------------------|
b]-----------------------|
g]-4-4-4-4-4-4-4-4-4-4---|
d]-2-2-2-2-2-2-2-2-2-2---|
a]-2-2-2-2-2-2-2-2-2-2---|
d]-2-2-2-2-2-2-2-2-2-2---|
e]-----------------------|
b]-7-7-7-7-7-7-7-7-7-7---|
g]-7-7-7-7-7-7-7-7-7-7---|
d]-0-0-0-0-0-0-0-0-0-0---|
a]-0-0-0-0-0-0-0-0-0-0---|
d]-0-0-0-0-0-0-0-0-0-0---|

Chorus 1

e]---------------------------|
b]---------------------------|
g]---------------------------|
d]-11-11-11-11-12-12-12-12---|
a]-11-11-11-11-12-12-12-12---|
d]-11-11-11-11-12-12-12-12---|

e]-------------------------------------------|
b]-9-9-9-9-10-10-10-10-9-9-9-9-10-10-10-10---|
g]-9-9-9-9-9--9--9--9--9-9-9-9-9--9--9--9----|
d]-0-0-0-0-0--0--0--0--0-0-0-0-0--0--0--0----|
a]-0-0-0-0-0--0--0--0--0-0-0-0-0--0--0--0----|
d]-0-0-0-0-0--0--0--0--0-0-0-0-0--0--0--0----|

Repeat
Verse 2

e]-------------------------------|
b]----------------------7p6p0-0--|
g]----------------------------6^-|
d]-4-4-4-4-444-444-444-----------|
a]-4-4-4-4-444-444-444-----------|
d]-4-4-4-4-444-444-444-----------|

e]------------------------------------|
b]------------------------------------|
g]-6-6-6-6-6-6-6-6-6-6-6-6-6-6-6-6----|
d]-7-7-7-7-7-7-7-7-7-7-7-7-7-7-7-7----|
a]------------------------------------|
d]------------------------------------|

Pre Chorus 2

e]-----------------------------------|
b]-----------------------------------|
g]-6-6-6-6-6-6-6-6-6-6-6--2-2-2-2----|
d]-4-4-4-4-4-4-4-4-4-4-4--0-0-0-0----|
a]-4-4-4-4-4-4-4-4-4-4-4--0-0-0-0----|
d]-4-4-4-4-4-4-4-4-4-4-4--0-0-0-0----|

e]-------------------------------------------------|
b]-10-10-10-10-10-10-10-10-10-10-10-10-10-10-10-10-|
g]-9--9--9--9--9--9--9--9--9--9--9--9--9--9--9--9--|
d]-0--0--0--0--0--0--0--0--0--0--0--0--0--0--0--0--|
a]-0--0--0--0--0--0--0--0--0--0--0--0--0--0--0--0--|
d]-0--0--0--0--0--0--0--0--0--0--0--0--0--0--0--0--|

Chorus 2

e]---------------------------|
b]---------------------------|
g]---------------------------|
d]-11-11-11-11-12-12-12-12---|
a]-11-11-11-11-12-12-12-12---|
d]-11-11-11-11-12-12-12-12---|

e]-------------------------------------------|
b]-9-9-9-9-10-10-10-10-9-9-9-9-10-10-10-10---|
g]-9-9-9-9-9--9--9--9--9-9-9-9-9--9--9--9----|
d]-0-0-0-0-0--0--0--0--0-0-0-0-0--0--0--0----|
a]-0-0-0-0-0--0--0--0--0-0-0-0-0--0--0--0----| x3
d]-0-0-0-0-0--0--0--0--0-0-0-0-0--0--0--0----|

Then

e]------------------------------------|
b]-9-9-9-9-9-9-9-9-9-9-9-9-9-9-9-9----|
g]-7-7-7-7-7-7-7-7-7-7-7-7-7-7-7-7----|
d]------------------------------------|
a]------------------------------------|
d]------------------------------------|

Outro Part 1

e]---------------------------|
b]---------------------------|
g]---------------------------|
d]-7-7-7-7-7-7-2-2-2-2-2-2---|
a]-7-7-7-7-7-7-2-2-2-2-2-2---|
d]-7-7-7-7-7-7-2-2-2-2-2-2---|

e]------------------------------------|
b]------------------------------------|
g]-9-9-9-9/11-11-11/12-12-12/11-11-11-|
d]------------------------------------|
a]-7-7-7-7/9--9--9-/10-10-10/9--9--9--|
d]-0-0-0-0-0--0--0--0--0--0--0--0--0--| x2

Outro Part 2

e]---------------------------|
b]---------------------------|
g]---------------------------|
d]-0-0-0-0-0-0-2-2-2-2-2-2---|
a]-0-0-0-0-0-0-2-2-2-2-2-2---|
d]-0-0-0-0-0-0-2-2-2-2-2-2---|

e]------------------------------------|
b]------------------------------------|
g]-9-9-9-9/11-11-11/12-12-12/11-11-11-|
d]------------------------------------|
a]-7-7-7-7/9--9--9-/10-10-10/9--9--9--|
d]-0-0-0-0-0--0--0--0--0--0--0--0--0--| x2

Repeat

e]-----------------------|
b]-----------------------|
g]-9-9-9-9/11-11-11/12---|
d]-x-x-x-x-x--x--x--x----|
a]-7-7-7-7/9--9--9-/10---|
d]-0-0-0-0-0--0--0--0----|

e]---------------------------|
b]---------------------------|
g]---------------------------|
d]-3-5-6-0-0-0-0-0-0-0-0-0---|
a]-3-5-6-0-0-0-0-0-0-0-0-0---|
d]-3-5-6-0-0-0-0-0-0-0-0-0---| x3

e]---------------------------------|
b]---------------------------------|
g]---------------------------------|
d]-3-5-6-0-3-5-6-0-7-7-7-7-7-7-7---|
a]-3-5-6-0-3-5-6-0-7-7-7-7-7-7-7---|
d]-3-5-6-0-3-5-6-0-7-7-7-7-7-7-7---|

e]-0---
b]-0---
g]-0---
d]-----
a]-----
d]-----

Ending

e]-------------------|
b]-------------------|
g]-------------------|
d]-7-7-7-7-7-7-7-7---|
a]-7-7-7-7-7-7-7-7---|
d]-7-7-7-7-7-7-7-7---|


-----------------------------------------------------------------------------


My Recovery Injection
Biffy Tab Team

[#b] Quarter Bend Number Inside

--[bass intro]--

e]----------------|
b]----------------|
g]----------------|
d]-x-x--x-x--x-x--|
a]-x-x--x-x--x-x--|
d]-x-x--x-x--x-x--|

e]-----------------------------------------------------------------|
b]-----------------------------------------------------------------|
g]-12-12-x-x-12-12-x-x-12-12-x-x-12-12-x-x-12-12-x-x-12-12-x-x-----|
d]-----------------------------------------------------------------|
a]-10-10-x-x-10-10-x-x-10-10-x-x-10-10-x-x-10-10-x-x-10-10-x-x-----|
d]-----------------------------------------------------------------|

e]-----------------------------------------------------------------------|
b]-----------------------------------------------------------------------|
g]-12-12-x-x-12-12-x-x-10-10-x-x-10-10-x-x-10-10-x-x-10-10-x-x-10-10-x-x-|
d]-----------------------------------------------------------------------|
a]-10-10-x-x-10-10-x-x-8--8--x-x-8--8--x-x-8--8--x-x-8--8--x-x-8--8--x-x-|
d]-----------------------------------------------------------------------|

e]---------------------------|
b]---------------------------|
g]-10--10/-12---10-10--12----|
d]---------------------------|
a]-8---8-/-10---8--8-/-10\---|
d]---------------------------|

e]-10----------------------10------------------------|
b]----8-----------------------8----------------------|
g]------10----------------------10-------------------|
d]---------[9b]--5-7-3\------------[9b]---9-10-12\---|
a]---------------------------------------------------|
d]---------------------------------------------------| x2

[don't slide at end of second time]

e]-14-13-14--14-13-14----[12]-|
b]----------------------[12]--|
g]---------------------[12]---|
d]----------------------------|
a]----------------------------|
d]----------------------------| [12] = muted at octave

e]-14-13-14-----14-13-14---------14-13-14-|
b]-12-12-12-----12-12-12---------12-12-12-|
g]----------------------------------------|
d]----------------------------------------|
a]----------------------------------------|
d]----------------------------------------| x3

e]-14-13-14-------------------------------|
b]-12-12-12------------14-14---12-12-12---|
g]---------------------12-12---12-12-12---|
d]----------------------------------------|
a]----------------------------------------|
d]----------------------------------------|


e]-14-13-14-x-x-14-13-14-x-x-x-x-14-13-14-|
b]-12-12-12-x-x-12-12-12-x-x-x-x-12-12-12-|
g]----------------------------------------|
d]----[slight tremolo picking on [x]]-----|
a]----------------------------------------|
d]----------------------------------------| x3

e]-14-13-14-x-x-x--------------|
b]-12-12-12-x-x-x--------------|
g]----------------------7-7-7--|
d]-----------------5-5--7-7-7--|
a]-----------------5-5--5-5-5--|
d]-----------------5-5---------|

-----------------------------------------------
     Beginning of song from single version
-----------------------------------------------

e]-------------------------------------------|
b]-------------------------------------------|
g]-4p0-4p0--4p0-4p0--4p0-4p0-4p0--4p0-4p0-5\-|
d]-------------------------------------------|
a]-------------------------------------------|
d]-------------------------------------------|

e]------------|
b]------------|
g]-4p0-4p0-5\-|
d]------------|
a]------------|
d]------------|

e]------------|
b]------------|
g]-4p0-4p0-5\-|
d]------------|
a]------------|
d]------------|

e]-8----|
b]------|
g]-7~~~~
d]-8~~~~
a]-6~~~~
d]------

e]------------|
b]------------|
g]-4p0-4p0-5\-|
d]------------|
a]------------|
d]------------|

e]------------|
b]------------|
g]-4p0-4p0-5\-|
d]------------|
a]------------|
d]------------|

e]--------------------------------|
b]--------------------------------|
g]-3-3-3-3-3-3--12-12-12-12-12-12-|
d]-1-1-1-1-1-1--10-10-10-10-10-10-|
a]-1-1-1-1-1-1--10-10-10-10-10-10-|
d]-1-1-1-1-1-1--10-10-10-10-10-10-|

e]---------------------------------------------------------------------------------------|
b]---------------------------------------------------------------------------------------|
g]-4p0-4p0--4p0-4p0--4p0-4p0-4p0-4p0-4p0-5---4p0-4p0--4p0-4p0--4p0-4p0-4p0-4p0-4p0-5-4-\-|
d]---------------------------------------------------------------------------------------|
a]---------------------------------------------------------------------------------------|
d]---------------------------------------------------------------------------------------|

e]--------------------------------|
b]--------------------------------|
g]-3-3-3-3-3-3--12-12-12-12-12-12-|
d]-1-1-1-1-1-1--10-10-10-10-10-10-|
a]-1-1-1-1-1-1--10-10-10-10-10-10-|
d]-1-1-1-1-1-1--10-10-10-10-10-10-|

e]--------------------------------------------------------------------|
b]---------------------------------------0-0-0------------------------|
g]-5-4--5-4--5-4--5/7-7---5-4--5-4--5-4--0-0-0---5-4--5-4--5-4--5/7-7-|
d]-0-0--0-0--0-0--0-0-0---0-0--0-0--0-0--0-0-0---0-0--0-0--0-0--0-0-0-|
a]---------------------------------------0-0-0------------------------|
d]-5-5--5-5--5-5--5/7-7---5-5--5-5--5-5----------5-5--5-5--5-5--5/7-7-|

e]-8--8--8--8--8--8--8--8--8--8--8--8--8--8--8--8--|
b]-------------------------------------------------|
g]-10-10-10-10-10-10-10-10-9--9--9--9--9--9--9--9--|
d]-8--8--8--8--8--8--8--8--8--8--8--8--10-10-10-10-|
a]-8--8--8--8--8--8--8--8--8--8--8--8--8--8--8--8--|
d]-8--8--8--8--8--8--8--8--8--8--8--8--8--8--8--8--| x2

e]-7-7-7-7-7-7-7-7-8-8-8-8-8-8-8-8-7-7-7-7-7-7-7-7-8-8-8-8-8-8-8-8-|
b]-6-6-6-6-6-6-6-6-6-6-6-6-6-6-6-6-6-6-6-6-6-6-6-6-6-6-6-6-6-6-6-6-|
g]-5-5-5-5-5-5-5-5-5-5-5-5-5-5-5-5-5-5-5-5-5-5-5-5-5-5-5-5-5-5-5-5-|
d]-----------------------------------------------------------------|
a]-----------------------------------------------------------------|
d]-----------------------------------------------------------------| x2

e]-8-8-8-8-8-8-8-8-6-6-6-6-6-6-6-6-|
b]-6-6-6-6-6-6-6-6-6-6-6-6-6-6-6-6-|
g]-5-5-5-5-5-5-5-5-5-5-5-5-5-5-5-5-|
d]---------------------------------|
a]---------------------------------|
d]---------------------------------|

e]--------------------------------------------------------------------|
b]---------------------------------------0-0-0------------------------|
g]-5-4--5-4--5-4--5/7-7---5-4--5-4--5-4--0-0-0---5-4--5-4--5-4--5/7-7-|
d]-0-0--0-0--0-0--0-0-0---0-0--0-0--0-0--0-0-0---0-0--0-0--0-0--0-0-0-|
a]-5-5--5-5--5-5--5/7-7---5-5--5-5--5-5--0-0-0---5-5--5-5--5-5--5/7-7-|
d]--------------------------------------------------------------------|

e]-8--8--8--8--8--8--8--8--8--8--8--8--8--8--8--8--|
b]-------------------------------------------------|
g]-10-10-10-10-10-10-10-10-9--9--9--9--9--9--9--9--|
d]-8--8--8--8--8--8--8--8--8--8--8--8--10-10-10-10-|
a]-8--8--8--8--8--8--8--8--8--8--8--8--8--8--8--8--|
d]-8--8--8--8--8--8--8--8--8--8--8--8--8--8--8--8--| x2

Final chrous build up

e]-----------------------------------------|
b]-------10--------------------------11-10-|
g]----------10----12-9--------9-12-9-------|
d]-----0-------10------10-7-8--------------|
a]---0-------------------------------------|
d]-0---------------------------------------|

e]-----------------------------------------|
b]-------10--------------------------------|
g]----------10----12-9--------9-12-9----9--|
d]-----0-------10------10-7-8--------10----|
a]---0-------------------------------------|
d]-0---------------------------------------|

e]-----------------------------------------|
b]-------10--------------------------11-10-|
g]----------10----12-9--------9-12-9-------|
d]-----0-------10------10-7-8--------------|
a]---0-------------------------------------|
d]-0---------------------------------------|

e]-----------------------------------------|
b]-------10--------------------------------|
g]----------10----12-9--------9-12-9--9----|
d]-----0-------10------10-7-8---------10---|
a]---0-------------------------------------|
d]-0---------------------------------------|

e]------------------------------------|
b]------------------------------------|
g]-12-14-14-14-12-14------(-1)--------|
d]-12-12-12-12-12-12------------------|
a]--------------------Play-Above-Nut--|
d]------------------------------------|

e]---------------------------------------------|
b]--------------------15----15----17-----------|
g]-12-14-14-14-12-14-----14----14----14--------|
d]-12-12-12-12-12-12---------------------------|
a]---------------------------------------------|
d]---------------------------------------------|

e]---------------------15-----------------17\-|
b]------------------------13--18-17-15-14-----|
g]-12-14-14-14-12-14--------------------------|
d]-12-12-12-12-12-12--------------------------|
a]--------------------------------------------|
d]--------------------------------------------|

e]--------------------------------------------|
b]--------------------------15-14-15----15-17-|
g]-12-14-14-14-12-14-----14----------14-------|
d]-12-12-12-12-12-12--15----------------------|
a]--------------------------------------------|
d]--------------------------------------------|

e]---------------------------------|
b]---------------------------------|
g]---------------------------------|
d]-10-12-12-12-10-12\--0-[3]-0-[3]-|
a]-10-12-12-12-10-12\--0-[3]-0-[3]-|
d]-10-12-12-12-10-12\--0-[3]-0-[3]-| [[3] = hammer on harmonics]

e]---------------------------------------|
b]---------------------------------------|
g]---------------------------------------|
d]-10-12-12-12-10-12\--0-[3]-0-[3]-0-[3]-|
a]-10-12-12-12-10-12\--0-[3]-0-[3]-0-[3]-|
d]-10-12-12-12-10-12\--0-[3]-0-[3]-0-[3]-|

Final chorus

e]--------------------------------|
b]--------------------------------|
g]-7----------5-------------------|
d]-8--(x16)---5--(x16)--3---------|
a]-6----------3---------3--(x16)--|
d]----------------------3---------|

e]--------------------------------|
b]--------------------------------|
g]-7----------5-------------------|
d]-8--(x16)---5--(x16)--5---------|
a]-6----------3---------5--(x16)--|
d]----------------------5---------|

Repeat

e]---------------|
b]---------------|
g]---------------|
d]-3-5-5-5-3-5-\-|
a]-3-5-5-5-3-5-\-|
d]-3-5-5-5-3-5-\-|


-----------------------------------------------------------------------------


The Atrocity
Biffy Tab Team

*Standard Tuning
*Guitar comes in after 1 min

Intro

Main Line (optional piano part)

e]-----------1-----------1-----|
b]-----------------------------|
g]-----2---2-------2---2-------|
d]---3---0-------3---0---------|
a]-1-----------1---------------|
e]-----------------------------|

Verse 1

e]------------------------------------------|
b]--3--3-3-3-3-3-3-3-3--3--3-3-3-3-3-3-3-3--|
g]--3--2-2-2-2-2-2-2-2--3--2-2-2-2-2-2-2-2--|
d]--2--0-0-0-0-0-0-0-0--2--0-0-0-0-0-0-0-0--|
a]------------------------------------------|
e]------------------------------------------|

e]-------------------------------------------|
b]-------------------------------------------|
g]--2--0-0-0-0-0-0-0-0--2--0-0-0-0-0-0-0-0---|
d]--3--2-2-2-2-2-2-2-2--3--2-2-2-2-2-2-2-2---|
a]-----3-3-3-3-3-3-3-3-----3-3-3-3-3-3-3-3---|
e]-------------------------------------------|

e]--0-0-0-0-0-0-0-0----0-0-0-0-0-0-0-0---|
b]--3-3-3-3-3-3-3-3----3-3-3-3-3-3-3-3---|
g]--2-2-2-2-2-2-2-2----2-2-2-2-2-2-2-2---|
d]--3-3-3-3-3-3-3-3----3-3-3-3-3-3-3-3---|
a]---------------------------------------|
e]---------------------------------------|

Repeat

Bridge

e]--------------------------|
b]-3-3--3-3----------3------|
g]-3-2--3-2--2--0----2---5--|
d]-2-0--2-0--3--2--3-0---5--|
a]--------------3--1-----3--|
e]--------------------------|

Verse 2

e]--0-0-0-0-0-0-0-0-------0-0-0-0-0-0-0-0-------|
b]--0-0-0-0-0-0-0-0-------0-0-0-0-0-0-0-0-------|
g]--0-0-0-0-0-0-0-0--7-7--0-0-0-0-0-0-0-0--5-5--|
d]--2-2-2-2-2-2-2-2--7-7--2-2-2-2-2-2-2-2--5-5--|
a]--2-2-2-2-2-2-2-2--5-5--2-2-2-2-2-2-2-2--3-3--|
e]--0-0-0-0-0-0-0-0-------0-0-0-0-0-0-0-0-------|

e]--0-0-0-0-0-0-0-0-0-0-0-0--2-2-2-2-2-2-2-3-3-2--------|
b]--0-0-0-0-0-0-0-0-0-0-0-0--3-3-3-3-3-3-3-3-3-3--------|
g]--0-0-0-0-0-0-0-0-0-0-0-0--2-2-2-2-2-2-2-2-2-2--5-5---|
d]--2-2-2-2-2-2-2-2-2-2-2-2--0-0-0-0-0-0-0-0-0-0--5-5---|
a]--2-2-2-2-2-2-2-2-2-2-2-2-----------------------3-3---|
e]--0-0-0-0-0-0-0-0-0-0-0-0-----------------------------|

Repeat Verse 2

Outro

e]--0-0-0-0-0-0-0-0-------0-0-0-0-0-0-0-0-------|
b]--0-0-0-0-0-0-0-0-------0-0-0-0-0-0-0-0-------|
g]--0-0-0-0-0-0-0-0--7-7--0-0-0-0-0-0-0-0--5-5--|
d]--2-2-2-2-2-2-2-2--7-7--2-2-2-2-2-2-2-2--5-5--|
a]--2-2-2-2-2-2-2-2--5-5--2-2-2-2-2-2-2-2--3-3--|
e]--0-0-0-0-0-0-0-0-------0-0-0-0-0-0-0-0-------|

e]--0-0-0-0-0-0-0-0-0-0-0-0--2-2-2-2-2-2-2-3-3-2-2-2-2-2-2-3-3-2-2-2-2-2-3-3-2-----|
b]--0-0-0-0-0-0-0-0-0-0-0-0--3-3-3-3-3-3-3-3-3-3-3-3-3-3-3-3-3-3-3-3-3-3-3-3-3-----|
g]--0-0-0-0-0-0-0-0-0-0-0-0--2-2-2-2-2-2-2-2-2-2-3-3-3-3-3-3-3-3-3-3-3-3-3-3-3-5-5-|
d]--2-2-2-2-2-2-2-2-2-2-2-2--0-0-0-0-0-0-0-0-0-0-0-0-0-0-0-0-0-0-0-0-0-0-0-0-0-5-5-|
a]--2-2-2-2-2-2-2-2-2-2-2-2----------------------------------------------------3-3-|
e]--0-0-0-0-0-0-0-0-0-0-0-0--------------------------------------------------------|

Outro Solo

e]--8-8-7-----7-----5---7-----7-----8---7-----7-----7---5-----5-----8----|
b]--------8-----8-----7---8-----8-----8---8-----8-----8---7-----7-----8--|
g]----------9-----9---------9-----9---------9-----9---------7-----7------|
d]-----------------------------------------------------------------------|
a]-----------------------------------------------------------------------|
d]-----------------------------------------------------------------------|

e]--7-----7-----5---7-----7-----8---7-----7-----7---5-----5-----5-----5-----|
b]----8-----8-----7---8-----8-----8---8-----8-----8---7-----7-----7-----7---|
g]------9-----9---------9-----9---------9-----9---------7-----7-----7-----7-|
d]--------------------------------------------------------------------------|
a]--------------------------------------------------------------------------|
d]--------------------------------------------------------------------------|

Repeat Outro (or solo)

e]--5---|
b]--5---|
g]--6---|
d]------|
a]------|
e]------|


----------------------------------------------------------------------------


Some Kind of Wizard
Biffy Tab Team

*UPDATED 6th Jan 2005

*Harmonic
[#] Quarter bend up

Intro

e]----------------------------------------|
b]----------------------------------------|
g]-----------5-----------------4----------|
d]-----5-----------4-----5-----------7----|
a]-0h3---0h3---0h5---0h3---0h3---0h5------|
d]----------------------------------------|

e]----------------------------------|
b]----------------------------------|
g]-----------5----------------------|
d]-----5-----------4-------0h2h4----|
a]-0h3---0h3---0h5---0h2h3----------|
d]----------------------------------|

e]-----------------------------------------|
b]-----------------------------------------|
g]-----------------------------------------|
d]------4-4------4-4------4-4------4-4--4--|
a]--0-1-2-2--0-1-2-2--0-1-2-2--0-1-2-2-----|
d]--0-1-2-2--0-1-2-2--0-1-2-2--0-1-2-2-----|

e]-----------------------------------------|
b]-----------------------------------------|
g]-----------------------------------------|
d]------4-4------4-4------4-4------4-4--0--|
a]--0-1-2-2--0-1-2-2--0-1-2-2--0-1-2-2--0--|
d]--0-1-2-2--0-1-2-2--0-1-2-2--0-1-2-2--0--|

Verse

e]--------------------------|
b]--------------------------|
g]--5-/-12---4-/-11---------|
d]--5-/-12---4-/-11---------|
a]--3-/-10---2-/-9----------|
d]--------------------------|

e]-----------------------------------------|
b]-----------------------------------------|
g]-----------------------------------------|
d]------4-4------4-4------4-4------4-4--0--|
a]--0-0-2-2--0-0-2-2--0-0-2-2--0-0-2-2--0--|
d]--0-0-2-2--0-0-2-2--0-0-2-2--0-0-2-2--0--|

Repeat Verse (2nd time "don't" play last D)

e]-----------------|
b]------4-5-4------|
g]--5-6-------6----|
d]-----------------|
a]-----------------|
d]-----------------|

Pre Chorus

e]-----------------------------------------|
b]-----------------------------------------|
g]--11--9-11-11--9-11-11--9-11-11----------|
d]-----------------------------------------|
a]--9---7-9--9---7-9--9---7-9--9-----------|
d]--0---0-0--0---0-0--0---0-0--0-----------|

e]---------------|
b]---------------|
g]--6-6-6--4-4-4-|
d]--6-6-6--4-4-4-|
a]--4-4-4--2-2-2-|
d]---------------|

e]-----------------------------------------|
b]-----------------------------------------|
g]--11--9-11-11--9-11-11--9-11-11----------|
d]-----------------------------------------|
a]--9---7-9--9---7-9--9---7-9--9-----------|
d]--0---0-0--0---0-0--0---0-0--0-----------|

e]---------------------|
b]---------------------|
g]--------14----13-----|
d]-----11-----9--------|
a]--12-----11----------|
d]---------------------|

e]-----------------------------------------|
b]-----------------------------------------|
g]--11--9-11-11--9-11-11--9-11-11----------|
d]-----------------------------------------|
a]--9---7-9--9---7-9--9---7-9--9-----------|
d]--0---0-0--0---0-0--0---0-0--0-----------|

e]---------------|
b]---------------|
g]--6-6-6--4-4-4-|
d]--6-6-6--4-4-4-|
a]--4-4-4--2-2-2-|
d]---------------|

e]---------------|
b]---------------|
g]--11--9-11-11--|
d]---------------|
a]--9---7-9--9---|
d]--0---0-0--0---|

Chorus

e]-----------------------------------0---|
b]-----------------------------------0---|
g]---------------------11--9-11-11---0---|
d]--11--------4--------------------------|
a]--11-(x16)--4-(x16)--9---7-9--9--------|
d]--11--------4--------0---0-0--0--------|

e]-----------------------------|
b]-----------------------------|
g]-----------------------------|
d]--7-------11-------4---------|
a]--7-(x16)-11-(x16)-4-(x16)---|
d]--7-------11-------4---------|

e]-----------------------------------------|
b]-----------------------------------------|
g]--11--9-11-11--9-11-11--9-11-11----------|
d]-----------------------------------------|
a]--9---7-9--9---7-9--9---7-9--9-----------|
d]--0---0-0--0---0-0--0---0-0--0-----------|

e]----------------------------------------|
b]----------------------------------------|
g]-----------5-----------------4----------|
d]-----5-----------4-----5-----------7----|
a]-0h3---0h3---0h5---0h3---0h3---0h5------|
d]----------------------------------------|

e]----------------------------------|
b]----------------------------------|
g]-----------5----------------------|
d]-----5-----------4-------0h2h4----|
a]-0h3---0h3---0h5---0h2h3----------|
d]----------------------------------|

e]-----------------------------------------|
b]-----------------------------------------|
g]-----------------------------------------|
d]------4-4------4-4------4-4------4-4--4--|
a]--0-1-2-2--0-1-2-2--0-1-2-2--0-1-2-2-----|
d]--0-1-2-2--0-1-2-2--0-1-2-2--0-1-2-2-----|

e]-----------------------------------------|
b]-----------------------------------------|
g]-----------------------------------------|
d]------4-4------4-4------4-4------4-4--0--|
a]--0-1-2-2--0-1-2-2--0-1-2-2--0-1-2-2--0--|
d]--0-1-2-2--0-1-2-2--0-1-2-2--0-1-2-2--0--|

e]---------------------------|
b]-----------------------*---|
g]-----------------------4---|
d]--2-2-2--2-2-2--2-2-2------|
a]--2-2-2--2-2-2--2-2-2------|
d]--2-2-2--2-2-2--2-2-2------|

Back to Verse

Pre Bridge

e]-----------------------------------------------|
b]-----------------------------------------------|
g]-11--12--12-12--12-12--12-12--14---------------|
d]-10--12--12-12--12-12--12-12--12---------------|
a]-9---10--10-10--10-10--10-10--12---------------|
d]-----------------------------------------------|

e]-----------------------------------------------|
b]-----------------------------------------------|
g]--11--11-11--11-11--11-11--12------------------|
d]--10--10-10--10-10--10-10--10------------------|
a]--9---9--9---9--9---9--9---10------------------|
d]-----------------------------------------------|

e]-----------------------------------------------|
b]-----------------------------------------------|
g]--9--9-9--9-9--9-9--7--9--9-9--9-9--9-9--------|
d]--7--7-7--7-7--7-7-----9--9-9--9-9--9-9--------|
a]--7--7-7--7-7--7-7--5--7--7-7--7-7--7-7--------|
d]--------------------0--------------------------|

e]-----------------------------------------------|
b]-----------------------------------------------|
g]-11--12--12-12--12-12--12-12--14---------------|
d]-10--12--12-12--12-12--12-12--12---------------|
a]-9---10--10-10--10-10--10-10--12---------------|
d]-----------------------------------------------|

e]-----------------------------------------------|
b]-----------------------------------------------|
g]--11--11-11--11-11--11-11----------------------|
d]--10--10-10--10-10--10-10----------------------|
a]--9---9--9---9--9---9--9-----------------------|
d]---------------------------/9------------------|

Bridge

e]------6-------6----------0---0-------|
b]--------0-------0--0h2/4---4---------|
g]-------------------------------------|
d]--2-2-----2-2-----------------(*2)---|
a]--2-2-----2-2------------------------|
d]--2-2-----2-2------------------------|

e]------3-2-----3-2--------0---0-------|
b]------0-0-----0-0--0h2/4---4---------|
g]-------------------------------------|
d]--2-2-----2-2------------------------|
a]--3-3-----3-3------------------------|
d]--2-2-----2-2------------------------|

Repeat Bridge

e]------------------|
b]------------------|
g]------------------|
d]--2-2--2-2--2-----|
a]--2-2--2-2--2-----|
d]--2-2--2-2--2-----|

Back to Pre chorus
Then Chorus

Solo

e]------------------------------------------------|
b]------------------------------------------------|
g]------------------------------------------------|
d]--13-13-13-13-13-13-13-13-13-13-13-13-13-13-13b-| (*4)
a]------------------------------------------------|
d]------------------------------------------------|

e]---------------------------------------------------|
b]---------------------------------------------------|
g]--------------------------------------13-----------|
d]--13-14-16-13-14-16-13-14-16-13-14-16----16-14-13--|
a]---------------------------------------------------|
d]---------------------------------------------------|

e]---------------------------------------------------|
b]---------------------------------------------------|
g]-----------------------------13--------------------|
d]--13-14-16-13-14-16-13-14-16----16-14-13-13-14-16--|
a]---------------------------------------------------|
d]---------------------------------------------------|

e]---------------------------------|
b]---------------------------------|
g]---------------------16-16-16b---|
d]--13-11----(*12)-----------------|
a]--------14--------14-14-14-14b---|
d]---------------------------------|

Listen to song for timing

e]------------------------------------|
b]------------------------------------|
g]--1-------8---------4-------1-------|
d]--0-(*6)--9--(*16)--6-(*6)--0-(*6)--|
a]--0-------6---------3-------0-------|
d]--0-------6---------3-------0-------|

e]-------------2-----2-----------|
b]-------------3-----3-----------|
g]-------------2-----2-----------|
d]--6-7-12--0--0--0--0--6-7-12---|
a]--6-7-12--0-----0-----6-7-12---|
d]--6-7-12--0-----0-----6-7-12---|

e]-----------------------------------------|
b]------12------12-------------8/7-----8---|
g]------12------12-------------7-------7---|
d]--10--10--10--10--6-7-12--5--5----5--5---|
a]--10--10--10--10--6-7-12--5-------5------|
d]--10------10------6-7-12--5-------5------|

      1st time                      2nd time

e]--------------2-----2--   e]------------------------|
b]--------------3-----3--   b]------------------------|
g]--------------2-----2--   g]-----------------[1]-~--|
d]--6-7-12---0--0--0--0--   d]--6-7-12--0---0---0--~--|
a]--6-7-12---0-----0-----   a]--6-7-12--0---0---0--~--|
d]--6-7-12---0-----0-----   d]--6-7-12--0---0---0--~--|

Repeat


----------------------------------------------------------------------------


Wave Upon Wave Upon Wave
Biffy Tab Team

1st verse

e]-----------------------------------------------------------------------|
b]-----------------------------------------------------------------------|
g]-----------------------------------------------------------------------|
d]-----------------------------------------------------------------------|
a]-3-3-3-3-3-3------3-3-3-3-3-3------5-5-5-5-5-5--3-3-3--7-7-7-7-7-7---7-|
d]-0-0-0-0-0-0------0-0-0-0-0-0------3-3-3-3-3-3--2-2-2--5-5-5-5-5-5---5-|

e]-----------------------------------------------------------------------|
b]-----------------------------------------------------------------------|
g]-----------------------------------------------------------------------|
d]-----------------------------------------------------------------------|
a]-3-3-3-3-3-3-3-3--3-3-3-3-3-3-3-3--5-5-5-5-5-5--3-3-3--7-7-7-7-7-8-8-8-|
d]-0-0-0-0-0-0-0-0--0-0-0-0-0-0-0-0--3-3-3-3-3-3--2-2-2--5-5-5-5-5-5-5-5-| x3

Bridge

e]-------------------------|
b]-------------------------|
g]-10-10-10-10-10-10-10-10-|
d]-8--8--8--8--8--9--9--9--|
a]-8--8--8--8--8--9--9--9--|
d]-8--8--8--8--8--9--9--9--|

Chorus Part 1 (tremelo picking)

e]--------Repeat-as-necessary----------|---------|
b]-------------------------------------|---------|
g]-5-5-5-5-5-5-5-5-5-5-5-5-5-5-5-5-5-5-|---------|
d]-------------------------------------|-6-6-5---|
a]-3-3-3-3-3-3-3-3-3-3-3-3-3-3-3-3-3-3-|-6-6-5---|
d]-------------------------------------|-6-6-5---|

Repeat

Chorus Part 2

e]-----------------------|
b]-----------------------|
g]-----------------------|
d]-2-2-0-3-3-0-2-2-0-5-5-|
a]-2-2-0-3-3-0-2-2-0-5-5-|
d]-2-2-0-3-3-0-2-2-0-5-5-|

Post chorus

e]-----------------------|
b]-----------------------|
g]----9/11\9-----11-9-11-|
d]--------------0--0-0---|
a]-----------------------|
d]-0----------9----------| x2

e]-------------------------------------------|
b]-------------------------------------------|
g]----9/11\9-----11-9-----6-x-x--7----6----9-|
d]--------------0--0--11--4-x-x--5----4----7-|
a]------------------------4-x-x--5----4----7-|
d]-0----------9-----------4-x-x--5----4----7-|

2nd verse

e]-----------------------------------------------------------------------|
b]-----------------------------------------------------------------------|
g]-----------------------------------------------------------------------|
d]-----------------------------------------------------------------------|
a]-3-3-3-3-3-3-3-3--3-3-3-3-3-3-3-3--5-5-5-5-5-5--3-3-3--7-7-7-7-7-8-8-8-|
d]-0-0-0-0-0-0-0-0--0-0-0-0-0-0-0-0--3-3-3-3-3-3--2-2-2--5-5-5-5-5-5-5-5-| x3

Bridge

e]-------------------------|
b]-------------------------|
g]-10-10-10-10-10-10-10-10-|
d]-8--8--8--8--8--9--9--9--|
a]-8--8--8--8--8--9--9--9--|
d]-8--8--8--8--8--9--9--9--|

Chorus Part 1 (tremelo picking)

e]--------Repeat-as-nessecary----------|---------|
b]-------------------------------------|---------|
g]-5-5-5-5-5-5-5-5-5-5-5-5-5-5-5-5-5-5-|---------|
d]-------------------------------------|-6-6-5---|
a]-3-3-3-3-3-3-3-3-3-3-3-3-3-3-3-3-3-3-|-6-6-5---|
d]-------------------------------------|-6-6-5---|

Repeat

Chorus Part 2

e]-----------------------|
b]-----------------------|
g]-----------------------|
d]-2-2-0-3-3-0-2-2-0-2-2-|
a]-2-2-0-3-3-0-2-2-0-2-2-|
d]-2-2-0-3-3-0-2-2-0-2-2-|

e]-9----------12-13--18\-|
b]---10------------------|
g]------12-10------------|
d]-----------------------|
a]-----------------------|
d]-----------------------|

e]---------------------------------------------|
b]---------------------------------------------|
g]---------------------------------------------|
d]-2-2-0-3-3-0-2-2-0-2-2-2-2-0-3-3-0-2-2-0-5-5-|
a]-2-2-0-3-3-0-2-2-0-2-2-2-2-0-3-3-0-2-2-0-5-5-|
d]-2-2-0-3-3-0-2-2-0-2-2-2-2-0-3-3-0-2-2-0-5-5-|

3rd verse

e]-0------------------0------------------0----------------------0--0--0--0--\-|
b]-1------------------3------------------12--------------13-12--15-15-15-15-\-|
g]-2------------------4------------------12--------------12-12--12-12-12-12-\-|
d]----------------------------------------------------------------------------|
a]----------------------------------------------------------------------------|
d]----------------------------------------------------------------------------|

Repeat

Solo

e]---0---0---0---0---0---0---0---0---0---0---0---0---0---0---0---0-|
b]-5---5--\3---3--\1---1--/3---3--/6---6--\5---5--\3---3--/5---5---|
g]-----------------------------------------------------------------|
d]-----------------------------------------------------------------|
a]-----------------------------------------------------------------|
d]-----------------------------------------------------------------|

e]-----0----0----0----0----0----0----0----0--0--0------------------\-|
b]-/12---12--\10---10--\8----8---/10---10----13-12-12---12-12-12-12\-|
g]-------------------------------------------12-12-12---12-12-12-12\-|
d]-------------------------------------------------12---12-12-12-12\-|
a]-------------------------------------------------------------------|
d]-------------------------------------------------------------------|

Repeat

Build up
[play gently]

e]--------------------------10---------------------------|
b]-12--12-------12----12-13----13-12----12--12-----12----|
g]-12---12------12----------------------12---12----12----|
d]-12-----------10----------------------12---------10----|
a]-------------------------------------------------------|
d]--------0------------------------------------0---------|

e]---------------------------------------|
b]---------------------------------------|
g]---------9--11-------------------------|
d]-4-4--7--9-----------------------------|
a]-4-4--7--7--9--------------------------|
d]-4-4--7-----0--------------------------| x2

e]---------------------------------------|
b]---------------------------------------|
g]---------9--11-11-11-11-11-11-11-11-11-|
d]-4-4--7--9-----------------------------|
a]-4-4--7--7--9--9--9--9--9--9--9--9--9--|
d]-4-4--7-----0--0--0--0--0--0--0--0--0--| x2


3rd chorus

e]-------------------------------------|
b]-------------------------------------|
g]-11--------7--------6--------7-------|
d]-9---------5--------4--------5-------|
a]-9--(x16)--5-(x16)--5-(x16)--5-(x16)-|
d]-9---------5--------4--------5-------|  x2

e]----------------------------------------|
b]-15-------17-17-15-------17-17-14-------|
g]----------------------------------------|
d]-12-(x14)-14-14-12-(x14)-14-14-11-(x14)-|
a]----------------------------------------|
d]----------------------------------------|

e]-------------------------------------------------|
b]-17-17-15-17-19-15-15-15-15-15-15-14-15-17-15-14-|
g]-------------------------------------------------|
d]-14-14-12-14-16-12-12-12-12-12-12-11-12-14-12-11-|
a]-------------------------------------------------|
d]-------------------------------------------------|

e]----------------------------------------|
b]-15-------17-17-15-------17-17-14-------|
g]----------------------------------------|
d]-12-(x14)-14-14-12-(x14)-14-14-11-(x14)-|
a]----------------------------------------|
d]----------------------------------------|

e]-----------------------------------------|
b]-17-17-15-17-19-15-15-15-15-15-15-15-15\-|
g]-----------------------------------------|
d]-14-14-12-14-16-12-12-12-12-12-12-12-12\-|
a]-----------------------------------------|
d]-----------------------------------------|

Ending

e]-----------------------|
b]-----------------------|
g]----9/11\9-----11-9-11-|
d]--------------0--0-0---|
a]-----------------------|
d]-0----------9----------| (x2)

e]-------------------------------------------|
b]-------------------------------------------|
g]----9/11\9-----11-9-----6-x-x--7----6---/9-|
d]--------------0--0--11--4-x-x--5----4---/7-|
a]------------------------4-x-x--5----4---/7-|
d]-0----------9-----------4-x-x--5----4---/7-|

Outro

e]---------------------------------------------------------------------|
b]---------------------------------------------------------------------|
g]---------------------------------------------------------------------|
d]---------------------------------------------------------------------|
a]-3-3-3-3-3-3-3-3--3-3-3-3-3-3-3-3--3-3-3-3-3-3-3-3--3-3-3-3-3-3-3-3--|
d]-0-0-0-0-0-0-0-0--0-0-0-0-0-0-0-0--0-0-0-0-0-0-0-0--0-0-0-0-0-0-0-0--|

(Fade out)


----------------------------------------------------------------------------


Only One Word Comes To Mind
Biffy Tab Team

*=harmonics

Intro

e]-----------------------------Repeat-Over----|
b]--*7--------*7--------*7--------------------|
g]--------------------------------------------|
d]-----*7--------*7--------*7-----*7----------|
a]-----------------------------------*7-------|
d]--------*5--------*5--------*4--------*7----|

  e]------------------------------|
  b]------------------------------|
  g]--7-7-7--7-7-7--6-6-6--2-2-2--|
  d]------------------------------|
  a]------------------------------|
  d]------------------------------|

  e]---------------------------------------------|
  b]---------------------------------------------|
  g]--7-7-7--7-7-7-7/9/11\--6-6-6-6/7/9\--2-2-2--|
  d]---------------------------------------------|
  a]---------------------------------------------|
  d]---------------------------------------------|

e]-----------------------------|
b]-----------------------------|
g]----*7-------*7----*12-------|
d]----------*7----*7-----*12---|
a]-------*7--------------------|
d]-----------------------------|

Pre Verse

e]-----------------------------------------------------|
b]-----------------------------------------------------|
g]-7-7-7-7-7-7-7-7-7-7---7-\-6-6-6-6-\-5-\-4-\-3-\-2---|
d]-0-0-0-0-0-0-0-0-0-0---0---0-0-0-0---0---0---0---0---|
a]-----------------------------------------------------|
d]-5-5-5-5-5-5-5-5-5-5---5-\-4-4-4-4-\-3-\-2-\-1-\-0---|
Verse 1

e]--------------------------------------------------------|
b]--------------------------------------------------------|
g]--11-11-11-11-11-11-11-11-------7-7-7-7-7-7-7-7---------|
d]--0--0--0--0--0--0--0--0--(x4)--0-0-0-0-0-0-0-0--(x4)---|
a]--------------------9--9--------------------5-5---------| x4
d]--9--9--9--9--9--9--0--0--------5-5-5-5-5-5-0-0---------|

Pre Chorus

e]-----------------------------------------------------|
b]-----------------------------------------------------|
g]-7-7-7-7-7-7-7-7-7-7---7-\-6-6-6-6-\-5-\-4-\-3-\-2---|
d]-0-0-0-0-0-0-0-0-0-0---0---0-0-0-0---0---0---0---0---|
a]-----------------------------------------------------|
d]-5-5-5-5-5-5-5-5-5-5---5-\-4-4-4-4-\-3-\-2-\-1-\-0---|

Chorus

e]-------------------------|
b]-------------------------|
g]------------9--9-9-9-----|
d]--0--0-0----0--0-0-0-----|
a]--0--0-0-----------------| x2
d]--0--0-0----7--7-7-7-----|

e]-----------------------------------------------------|
b]-----------------------------------------------------|
g]-7-7-7-7-7-7-7-7-7-7---7-\-6-6-6-6-\-5-\-4-\-3-\-2---|
d]-0-0-0-0-0-0-0-0-0-0---0---0-0-0-0---0---0---0---0---|
a]-----------------------------------------------------|
d]-5-5-5-5-5-5-5-5-5-5---5-\-4-4-4-4-\-3-\-2-\-1-\-0---|

Repeat Chorus

Verse 2

e]-----------------------------------------------------------|
b]-----------------------------------------------------------|
g]--11-11-11-11-11-11-11-11-------11-11-11-11-11-11-14-14----|
d]--0--0--0--0--0--0--0--0--(x3)--0--0--0--0--0--0-----------|
a]--------------------9--9--------------------------12-12----|
d]--9--9--9--9--9--9--0--0--------9--9--9--9--9--9--0--0-----|

e]--------------------------|
b]--------------------------|
g]--7-7-7-7-7-7-7-7---------|
d]--0-0-0-0-0-0-0-0--(x4)---|
a]--------------5-5---------| x4
d]--5-5-5-5-5-5-0-0---------|

Interlude

e]----------------------------|
b]----------------------------|
g]--9--11--12-----9--11--7----|
d]--0--0---0------0--0---0----|
a]----------------------------|
d]--7--9---10-----7--9---5----|

e]-----------------------------------------------------|
b]-----------------------------------------------------|
g]-7-7-7-7-7-7-7-7-7-7---7-\-6-6-6-6-\-5-\-4-\-3-\-2---|
d]-0-0-0-0-0-0-0-0-0-0---0---0-0-0-0---0---0---0---0---|
a]-----------------------------------------------------|
d]-5-5-5-5-5-5-5-5-5-5---5-\-4-4-4-4-\-3-\-2-\-1-\-0---|

Chorus

e]-------------------------|
b]-------------------------|
g]------------9--9-9-9-----|
d]--0--0-0----0--0-0-0-----|
a]--0--0-0-----------------| x2
d]--0--0-0----7--7-7-7-----|

e]-----------------------------------------------------|
b]-----------------------------------------------------|
g]-7-7-7-7-7-7-7-7-7-7---7-\-6-6-6-6-\-5-\-4-\-3-\-2---|
d]-0-0-0-0-0-0-0-0-0-0---0---0-0-0-0---0---0---0---0---|
a]-----------------------------------------------------|
d]-5-5-5-5-5-5-5-5-5-5---5-\-4-4-4-4-\-3-\-2-\-1-\-0---|
Repeat Chorus

Interlude 2

e]----10-------|
b]-------10----|
g]-------------|
d]----------6--|
a]----------7--| x2
d]--0-------7--|

e]-----------------------------------------------------|
b]-----------------------------------------------------|
g]-7-7-7-7-7-7-7-7-7-7---7-\-6-6-6-6-\-5-\-4-\-3-\-2---|
d]-0-0-0-0-0-0-0-0-0-0---0---0-0-0-0---0---0---0---0---|
a]-----------------------------------------------------|
d]-5-5-5-5-5-5-5-5-5-5---5-\-4-4-4-4-\-3-\-2-\-1-\-0---|

e]----10-------|
b]-------10----|
g]-------------|
d]----------6--|
a]----------7--| x2
d]--0-------7--|

e]----------------------------------------------|
b]----------------------------------------------|
g]-7-7-7-7-7-7-7-7-7-7---7-\-6-6-6-6-/-9-9-9-9--|
d]-0-0-0-0-0-0-0-0-0-0---0---0-0-0-0---0-0-0-0--|
a]----------------------------------------------|
d]-5-5-5-5-5-5-5-5-5-5---5-\-4-4-4-4-/-7-7-7-7--|

e]-----------------------------------------------------------------|
b]-----------------------------------------------------------------|
g]-----11-11h12-11-----11-11h12-11----11-11h12-11----11-11h12-11---|
d]--12--------------12--------------0--------------0---------------|
a]-----------------------------------------------------------------|
d]-----------------------------------------------------------------|

e]-----------------------------------------------------------------|
b]-----------------------------------------------------------------|
g]-----11-11h14-11-----11-11h14-11----11-11h12-11----11-11h12-11---|
d]--12--------------12--------------0--------------0---------------|
a]-----------------------------------------------------------------|
d]-----------------------------------------------------------------|

e]-----------------------------------------------------------------|
b]-----------------------------------------------------------------|
g]-----11-11h12-11-----11-11h12-11----11-11h12-11----11-11h12-11---|
d]--12--------------12--------------0--------------0---------------|
a]-----------------------------------------------------------------|
d]-----------------------------------------------------------------|

Pre Outro

e]--------------------------------------------------------------------------|
b]--------------------------------------------------------------------------|
g]--------------------------11-11-11-11-11-11-11-11-11-11-11/-12-12-/-14-14-|
d]--7-7-7-7-7-7-7-7--5-4-0--9--9--9--9--9--9--9-----------------------------|
a]--7-7-7-7-7-7-7-7--5-4-0--9--9--9--9--9--9--9--9--9--9--9-/-10-10-/-12-12-|
d]--7-7-7-7-7-7-7-7--5-4-0--9--9--9--9--9--9--9--0--0--0--0---0--0----0--0--|

e]------------------------------------|
b]------------------------------------|
g]--------------------------8b--------|
d]--7-7-7-7-7-7-7-7--5-4-0------0--7--|
a]--7-7-7-7-7-7-7-7--5-4-0--6b--0--7--|
d]--7-7-7-7-7-7-7-7--5-4-0------0--7--|

e]--------------------------------------------------------------------------|
b]--------------------------------------------------------------------------|
g]--------------------------11-11-11-11-11-11-11-11-11-11-11/-12-12-/-14-14-|
d]--7-7-7-7-7-7-7-7--5-4-0--9--9--9--9--9--9--9-----------------------------|
a]--7-7-7-7-7-7-7-7--5-4-0--9--9--9--9--9--9--9--9--9--9--9-/-10-10-/-12-12-|
d]--7-7-7-7-7-7-7-7--5-4-0--9--9--9--9--9--9--9--0--0--0--0---0--0----0--0--|

e]--------------------------|
b]--------------------------|
g]--------------------------|
d]--7-7-7-7-7-7-7-7--5-4-0--|
a]--7-7-7-7-7-7-7-7--5-4-0--|
d]--7-7-7-7-7-7-7-7--5-4-0--|

Outro

e]-------------------------|
b]-------------------------|
g]--8b---------------------|
d]--------0-6-0-33-0-10-0--|
a]--6b----0-6-0-33-0-10-0--| x4
d]--------0-6-0-33-0-10-0--|

e]-Tremelo-Picking-|--------------------------------|
b]-----------------|--------------------------------|
g]--8-/-14---------|--------------------------------|
d]----------(x3)---|-1-0--0-1-0--0-1-0--0-1-3-1--0--|
a]--6-/-12---------|-1-0--0-1-0--0-1-0--0-1-3-1--0--|
d]-----------------|-1-0--0-1-0--0-1-0--0-1-3-1--0--|


-----------------------------------------------------------------------------


There Is No Such Thing As A Jaggy Snake
Biffy Tab Team

Intro Part 1

e]---------------------------------------------------|
b]------10-11-10---------------------4---------------|
g]-10-11--------11-10-8-5-5-5--3-5-6---6-5-3p0-2-2-2-|
d]---------------------------------------------------|
a]---------------------------------------------------|
d]---------------------------------------------------|

e]---------------------------------------------------|
b]------10-11-10---------------------4---------------|
g]-10-11--------11-10-8-5-5-5--3-5-6---6-5-3p0-------|
d]---------------------------------------------------|
a]---------------------------------------------------|
D]---------------------------------------------------|

Intro Part 2

e]---------------------------------------------------|
b]---------------------5-----------------------------|
g]-----------------3-4-------------------4-4-4-------|
d]--0-0--5-5-5-5-5-------5-5--5-5-5-5-5--3-3-3-------|
a]--0-0--3-3-3-3-3-------3-3--3-3-3-3-3--4-4-4-------|
D]--0-0--3-3-3-3-3-------3-3--3-3-3-3-3--------------|

e]---------------------------------------------------|
b]---------------------5-----------------------------|
g]-----------------3-4-------------------4-4-4-------|
d]--5-5--5-5-5-5-5-------5-5--5-5-5-5-5--3-3-3-------|
a]--3-3--3-3-3-3-3-------3-3--3-3-3-3-3--4-4-4-------|
D]--3-3--3-3-3-3-3-------3-3--3-3-3-3-3--------------|

Verse 1

e]----------------------------------------------------------------|
b]----------------------------------------------------------------|
g]-7-7---7-5-5--5-5--------------5-5-5-5-5-5-5-5--6-6-6-6-6-6-6-6-|
d]-5-5-------0--3-3----2-3-4-4---5-5-5-5-5-5-5-5--6-6-6-6-6-6-6-6-|
a]-5-5---5-3-0--3-3----2-3-4-4---3-3-3-3-3-3-3-3--4-4-4-4-4-4-4-4-| x2
d]-0-0---0-0-0--3-3----2-3-4-4------------------------------------|

Back to Intro Part 2
        Verse

Last time on the second time playing verse 1

e]-------------------------------------|
b]-------------------------------------|
g]-5-5-5-5-5-5-5-5-5-------------------|
d]-5-5-5-5-5-5-5-5-5--5-5-5-5-5-5-5-5--|
a]-3-3-3-3-3-3-3-3-3--5-5-5-5-5-5-5-5--|
d]--------------------5-5-5-5-5-5-5-5--|

e]------------------|
b]------------------|
g]-5-5-5---7-7-7----|
d]-5-5-5---7-7-7----|
a]-3-3-3---5-5-5----|
d]------------------|

e]---------------------------------------------------|
b]------10-11-10---------------------4---------------|
g]-10-11--------11-10-8-5-5-5--3-5-6---6-5-3p0-------|
d]---------------------------------------------7-7-7-|
a]----------------------3-3-3------------------5-5-5-|
d]---------------------------------------------------|

e]---------------------------------------------------|
b]------10-11-10---------------------4---------------|
g]-10-11--------11-10-8-5-5-5--3-5-6---6-5-3p0-------|
d]---------------------------------------------------|
a]----------------------3-3-3------------------------|
d]---------------------------------------------------|

e]---------------------------------------------------|
b]---------------------------------------------------|
g]---------------------------------------------------|
d]-7-7-7-7---7-7-7-7------7-7-7-7------7-7-7-7-------|
a]-5-5-5-5---5-5-5-5-(x4)-5-5-5-5-(x4)-5-5-5-5-(x4)--|
d]-0-0-0-0---5-5-5-5------0-0-0-0------5-5-5-5-------|

Verse 3

e]------------|
b]--11-10-----|
g]-------12---|
d]------------|
a]------------| x8
d]------------|

e]------------|
b]------------|
g]------------|
d]------------|
a]------------| x4
d]--20/19--0--|

Repeat x3

e]--------------------------------------------------------|
b]--------------------------------------------------------|
g]--7-------6-6-10-12--10-10-10-10------10-10-10-10-------|
d]--5-(x12)-5-5--------10-10-10-10-(x2)-10-10-10-10-(x2)--|
a]--5-------5-5-8--10--8--8--8--8-------8--8--8--8--------|
d]--5-------5-5-------------------------8--8--8--8--------|

Repeat Verse 3 Once

Verse 4

e]------------------------|
b]------------------------|
g]3-2-0-(x8)-3-2---(x4)---|
d]---------------0--------|
a]------------------------|
d]------------------------|

Back to Verse 3
        Chorus

Bridge Part 1

e]----------------------------------------|
b]----------------------------------------|
g]------9-9------9/10------9-9------9/10--|
d]-0-0-------00-------0-0-------00--------|
a]-0-0--7-7--00--7/8--0-0--7-7--00--7/8---|
d]-0-0-------00-------0-0-------00--------|

e]----------------------------------------|
b]------8-8------8-10------8-8------8-10--|
g]------0-0------0/0-------0-0------0/0---|
d]-0-0-------00-------0-0-------00--------|
a]-0-0--7-7--00--7/8--0-0--7-7--00--7/8---|
d]-0-0-------00-------0-0-------00--------|

Bridge Part 2

e]------------------------------------|
b]-----5------5/6-----5------5/6------|
g]-----5------5-------5------5--------|
d]------------------------------------|
a]-----5------5-------5------5--------| x2
d]-000---0000-----000---0000----------|

e]-----------------------------------|
b]-----5------5---5-555-----5--------|
g]-----0------0---0-000-----0--------|
d]-----3------3---3-333-----3--------|
a]-----------------------------------| x2
d]-000---0-0------------000----------|

e]-0--0-0--0-0-0-0-0-0--------------------------------------|
b]-5--5-5--5-5-5-5-6-5------5--5-5--5-5-5-5-5-5-------------|
g]-5--5-5--5-5-5-5-5-5------0--0-0--0-0-0-0-0-0-------------|
d]---------------------(x4)-3--3-3--3-3-3-3-3-3--(x4)-------|
a]-5--5-5--5-5-5-5-5-5------0--0-0--0-0-0-0-0-0-------------|
d]----------------------------------------------------------|

Outro Part

e]-0--0-0--0-0--0------------------------|
b]-5--5-5--5-5--5------------------------|
g]-5--5-5--5-5--5--5-5-5-5-5-5-5-5-------|
d]-0--0-0--0-0--0--3-3-3-3-3-3-3-3-------|
a]-0--0-0--0-0--0--3-3-3-3-3-3-3-3-------|
d]-0--0-0--0-0--0--3-3-3-3-3-3-3-3-------|

e]----------------------------------------|
b]-5-5-5-5-5-5-5-5------------------------|
g]-0-0-0-0-0-0-0-0--7-7-7-7-7-7-7-7-------|
d]-3-3-3-3-3-3-3-3--5-5-5-5-5-5-5-5-------|
a]-0-0-0-0-0-0-0-0--5-5-5-5-5-5-5-5-------|
d]------------------5-5-5-5-5-5-5-5-------|

e]------20b----|
b]-------------|
g]-------------|
d]-------------|
a]-------------|
d]--15b--------|

e]--------------------------------------------------------|
b]--------------------------------------------------------|
g]----------------9------9-9-------9-9---------9-9--------|
d]--------------------------------------------------------|
a]--0---0-0---0-0-7--0-0-7-7---0-0-7-7-0---0-0-7-7-0-0----|
d]--0---0-0---0-0----0-0-------0-0-----0---0-0-----0-0----|

e]-----------------------------------|
b]-----------------------------------|
g]------9-9-----9-------9-9-----10---|
d]-----------------------------------|
a]--0-0-7-7-0-0-7---0-0-7-7-0-0-8----|
d]--0-0-----0-0-----0-0-----0-0------|

-----------------------------------------------------------------------------


The Kids From Kibble And The Fist Of Light
Biffy Tab Team

Intro

e]-----------------------------------------------------------------------------------------|
b]-----------------------------------------------------------------------------------------|
g]-1-1---1-1---1-1--------1-1---1-1---1-1----13p0-14p0-16p0-14-p0----1-1---1-1---1-1-------|
d]-0-0---0-0---0-0--------0-0---0-0---0-0----------------------------0-0---0-0---0-0-------|
a]-0-0---0-0---0-0--------0-0---0-0---0-0----------------------------0-0---0-0---0-0-------|
d]-0-0---0-0---0-0--------0-0---0-0---0-0----------------------------0-0---0-0---0-0-------|

e]------------------------------|
b]-------4---------5---------6--|
g]-3---------4---------5--------|
d]---2-0-------3-0-------4-0----|
a]------------------------------|
d]------------------------------|

e]-12--------12/14\12---|
b]----------------------|
g]----------------------|
d]-12-------------------|
a]-12-------------------|
d]-12-------------------|


Chorus
[Tricky Time Changes]

e]--------------------------------------------|
b]--------------------------------------------|
g]-6-6-6-6-6-6-6-6-6-6-6-6--6-6-6-6-6-6--6-6--|
d]-7-7-7-7-7-7-7-7-7-7-7-7--7-7-7-7-7-7--7-7--|
a]-7-7-7-7-7-7-7-7-7-7-7-7--7-7-7-7-7-7--7-7--|
d]-7-7-7-7-7-7-7-7-7-7-7-7--7-7-7-7-7-7--7-7--|

e]-0-0-0-0-0-0-0-0-0-0-0-0-0-0-0-0-0-0-0-0--0-0-0-0-0-0-0-0-0-|
b]-3-3-3-3-3-3-3-3-3-3-3-3-3-3-3-3-3-3-3-3--3-3-3-3-3-3-3-3-3-|
g]-2-2-2-2-2-2-2-2-2-2-2-2-2-2-2-2-2-2-2-2--2-2-2-2-2-2-2-2-2-|
d]-0-0-0-0-0-0-0-0-0-0-0-0-0-0-0-0-0-0-0-0--0-0-0-0-0-0-0-0-0-|
a]-0-0-0-0-0-0-0-0-0-0-0-0-0-0-0-0-0-0-0-0--0-0-0-0-0-0-0-0-0-|
d]-0-0-0-0-0-0-0-0-0-0-0-0-0-0-0-0-0-0-0-0--0-0-0-0-0-0-0-0-0-| x2

e]------------------------------------------------------------|
b]------------------------------------------------------------|
g]------------------------------------------------------------|
d]-2-2-2-2--4-4--0-0----2-2-2-2--4-4--0-0----2-2-2-2--9-9-9-9-|
a]-2-2-2-2--4-4--0-0----2-2-2-2--4-4--0-0----2-2-2-2--9-9-9-9-|
d]-2-2-2-2--4-4--0-0----2-2-2-2--4-4--0-0----2-2-2-2--9-9-9-9-|


Verse
[Played Softly]

e]-------------------------------------------------------------------------|
b]---3-/-10------------------------------3-/-10----------------------------|
g]---2-/-9--6--------6--------6----------2-/-9--6--------6--------6--------|
d]-0--------7--------4--------5--------0--------7--------4--------5--0-2-2-|
a]-0--------7--------4--------5--------0--------7--------4--------5--0-2-2-|
d]-0--------7--------4--------5--------0--------7--------4--------5--0-2-2-| x2

e]----------|
b]----------|
g]-9-/11\-9-|
d]----------|
a]-7-/9-\-7-|
d]----------|

Chrous x1

Verse
[Not Played Softly]


Build
[Tricky Palm Muting]

e]--------------------------------------------------------------|
b]------------------7p0-3-0--------14p0-10-0----------14p0-10-0-|
g]----7----7----------------------------------------------------|
d]----7----7----------------------------------------------------|
a]-5-----5----7-7-7---------/14-14-----------14-14-14-----------| x2
d]--------------------------------------------------------------|

e]------------------|
b]----------------7-|
g]----7----7------7-|
d]----7----7--------|
a]-5-----5----7-7---|
d]------------------|

Instrumental Part

e]----------------------------------------------------------------------------------|
b]-----14-----14---------14--------14------15----15---------12-----12------------7--|
g]-----14-----14---------14--------14------16----16---------12-----12------------7--|
d]--------------------------------------0------0------------------------------------|
a]-14------14-----12-12------12-12-------------------10-10------10----------7-7-----|
d]----------------------------------------------------------------------------------| x2


Outro Verse
[Guitar 1]

e]-------------------------------------------------------------|
b]-7------------------------7---------------8------------------|
g]---7-----------6------------7-------------7------------------|
d]-----9---------7--------------7-----------5------------------|
a]---------------7--------------------------5------------------|
d]---------------7--------------------------5------------------| x6

[Guitar 2]

e]-------------------------------------------------------------|
b]-------------------------------------------------------------|
g]-7-7-7-7-7-7-6-6-6-6-6-6-6-6-6-7-7-7-7-7-6-7-7-7-7-7-7-7-7-7-|
d]-------------------------------------------------------------|
a]-5-5-5-5-5-5-4-4-4-4-4-4-4-4-4-5-5-5-5-5-4-5-5-5-5-5-5-5-5-5-|
d]-------------------------------------------------------------| x2

e]-------------------------------------------------------------------|
b]-------------------------------------------------------------------|
g]-11-11-11-11-11-11-6-6-6-6-6-6-6-6-6-7-7-7-7-7-4-5-5-5-5-5-5-5-5-5-|
d]-------------------------------------------------------------------|
a]-9--9--9--9--9--9--4-4-4-4-4-4-4-4-4-5-5-5-5-5-4-5-5-5-5-5-5-5-5-5-|
d]-------------------------------------------------------------------|

e]-------------------------------------------------------------------|
b]-------------------------------------------------------------------|
g]-11-11-11-11-11-11-6-6-6-6-6-6-6-6-6-14-14-14-14-14-14-14-14-------|
d]-------------------------------------------------------------------|
a]-9--9--9--9--9--9--4-4-4-4-4-4-4-4-4-12-12-12-12-12-12-12-12-------|
d]-------------------------------------------------------------------|

e]-------------------------|
b]-------------------------|
g]-15\14-15\14-15\14-15\14-|
d]-------------------------|
a]-13\12-13\12-13\12-13\12-|
d]-------------------------|


Ending

e]-------------------------------------------------|
b]-------------------------------------------------|
g]-1-1---1-1---1-1---1-1---1-1---1-1---1-1---1-1---|
d]-0-0---0-0---0-0---0-0---0-0---0-0---0-0---0-0---|
a]-0-0---0-0---0-0---0-0---0-0---0-0---0-0---0-0---|
d]-0-0---0-0---0-0---0-0---0-0---0-0---0-0---0-0---|

[Heavier]

e]-------------------------------------------------|
b]-------------------------------------------------|
g]---------------------------------------6-----8-\-|
d]-0-0---0-0---0-0---0-0---0-0---0-0-----6--4--8-\-|
a]-0-0---0-0---0-0---0-0---0-0---0-0-----4--4--6-\-|
d]-0-0---0-0---0-0---0-0---0-0---0-0--------4------|


-----------------------------------------------------------------------------


The Weapons Are Concealed
Biffy Tab Team

Intro

e]--------------------|
b]--------------------|
g]--5--3-8-9-10--6----|
d]--5--3-8-9-10--6----|
a]--3--1-6-7-8---4----| x2
d]--------------------|

e]-----------------|
b]-----------------|
g]--5--3-8-9-------|
d]--5--3-8-9-------|
a]--3--1-6-7--21b--|
d]-----------------|

e]----------------|
b]----------------|
g]--5--3-8-9------|
d]--5--3-8-9------|
a]--3--1-6-7--9b--|
d]----------------|

Verse

e]--------------|
b]--------------|
g]--5-8-4-8-----|
d]--------------|
a]--------------| x4
d]--------------|

e]--------------|
b]--------------|
g]--7-8-5-7-----|
d]--------------|
a]--------------| x2
d]--------------|

e]--------------|
b]--------------|
g]--5-8-4-8-----|
d]--------------|
a]--------------| x2
d]--------------|

e]--------------|
b]--------------|
g]--7-8-5-7-----|
d]--------------|
a]--------------| x2
d]--------------|

e]-----------------------------------------|
b]-----------------------------------------|
g]--5---5---5---5---6---6---5/6/8\6\5------|
d]----6---6---5---5---8---8----------------|
a]-----------------------------------------| x2
d]-----------------------------------------|

e]-------------------------------------------------|
b]-------------------------------------------------|
g]--5/6/8\6\5---5/6/8\6\5---5-6-8-6-5---5-6-8-6-5--|
d]-------------------------------------------------|
a]-------------------------------------------------|
d]-------------------------------------------------|

e]----------------------------------------|
b]----------------------------------------|
g]--9-9-9-9-9-9-9-9--5-5-5-5--7-7-7-7-----|
d]----------------------------------------|
a]--7-7-7-7-7-7-7-7--3-3-3-3--5-5-5-5-----|
d]----------------------------------------|

e]---------------------|
b]---------------------|
g]---------------------|
d]--0-0-0-x-x-x-x-x----|
a]--0-0-0-x-x-x-x-x----| x4
d]--0-0-0-x-x-x-x-x----|

Bridge

e]----------------------------------------------------------------------|
b]----------------------------------------------------------------------|
g]--12-12-12-12-12-12-12-12-9-9-9-9-11-11-11-11-11-11-11-11-11-11-11-11-|
d]----------------------------------------------------------------------|
a]--10-10-10-10-10-10-10-10-7-7-7-7-9--9--9--9--9--9--9--9--9--9--9--9--|
d]----------------------------------------------0--0--0--0--0--0--0--0--|

  e]----------------------------------------------------|
  b]----------------------------------------------------|
  g]--14-14-14-14-14-14-14-14-14-14-14-14-14-14-14-14---|
  d]----------------------------------------------------|
  a]--12-12-12-12-12-12-12-12-12-12-12-12-12-12-12-12---|
  d]----------------------------------------------------|

  e]----------------------------------------------------|
  b]----------------------------------------------------|
  g]----------------------------------------------------|
  d]--2--2--2--2--4--4--4--4---10-10-10-10-10-10-10-10--|
  a]--2--2--2--2--4--4--4--4---10-10-10-10-10-10-10-10--|
  d]--2--2--2--2--4--4--4--4---10-10-10-10-10-10-10-10--|

e]-----------------------------------|
b]-----------------------------------|
g]--4-4-4-4-7-7-7-7-5-5-5-5-5-5-5-5--|
d]--4-4-4-4-7-7-7-7-5-5-5-5-5-5-5-5--|
a]--2-2-2-2-5-5-5-5-3-3-3-3-3-3-3-3--|
d]-----------------------------------|

Repeat Bridge

e]---------------------------------------------|
b]---------------------------------------------|
g]--5--------11--------7--------12--------9----|
d]-----(x8)------(x8)-----(x8)------(x8)-------|
a]--3--------9---------5--------10--------7----|
d]---------------------------------------------|

e]-----------|
b]-----------|
g]--5--------|
d]-----(x8)--|
a]--3--------|
d]-----------|

Outro

e]---------------------|
b]---------------------|
g]---------------------|
d]--2-x-x-x-2-x-x-x----|
a]--2-x-x-x-2-x-x-x----|
d]--2-x-x-x-2-x-x-x----|

e]------------------------------------------|
b]------------------------------------------|
g]--1--2--4-4---1--2--4-4---1--2--4-4---1---|
d]--2--2--2-2---2--2--2-2---2--2--2-2---2---|
a]--2--2--2-2---2--2--2-2---2--2--2-2---2---|
d]--2--2--2-2---2--2--2-2---2--2--2-2---2---|


----------------------------------------------------------------------------


Pause It And Turn It Up
Biffy Tab Team

*[Alternate Tuning - Dropped B]*

Verse

e]------------------|
b]------------12--7-|
g]----------7-----7-|
d]----------------9-|
a]--------9-------9-|
b]-0-8-10---------0-| x2

[Guitar 1]
e]------------------|
b]------------12--7-|
g]----------7-----7-|
d]----------------9-|
a]--------9-------9-|
b]-0-8-10---------0-|

[Guitar 2]
e]------------------------|
b]-0--0-0-0-0-0-0-0-0-0-0-|
g]-11\9-9\7-7\6-6\4-4/6-6-|
d]------------------------|
a]------------------------|
d]------------------------|

[Guitar 1]
e]------------------|
b]------------12--7-|
g]----------7-----7-|
d]----------------9-|
a]--------9-------9-|
b]-0-8-10---------0-|

[Guitar 2]
e]---------------------------|
b]---7-8-10-8-7---7-8-10-8-7-|
g]-9------------9------------|
d]---------------------------|
a]---------------------------|
b]---------------------------|

Bridge

e]-----------|
b]-5-5-/7-7--|
g]-7-7-/9-9--|
d]-----------|
a]-7-7-/9-9--|
b]-----------|

e]-----------------------------------------|
b]---------12-----------12--------------12-|
g]---------11-----------11--------------11-|
d]---------9------------9---------------9--|
a]-----------------------------------------|
b]-0--------------0-0----------0-0--0------| Bridge x2

Repeat Verse

Repeat Bridge x4

Chorus

Played Softly
e]---------------------------------|
b]---------------------------------|
g]-14------11------12------9-------|
d]-14-[x8]-9--[x8]-12-[x8]-9--[x8]-|
a]-12------9-------10------7-------|
b]---------0-----------------------| x2

[Guitar 1] - Played Softly
e]---------------------------------|
b]---------------------------------|
g]-14------11------12------9-------|
d]-14-[x8]-9--[x8]-12-[x8]-9--[x8]-|
a]-12------9-------10------7-------|
b]---------0-----------------------| x2

[Guitar 2]
e]---------------------------------|
b]---------------------------------|
g]-14---16\11------12---14\9---7---|
d]--------------12-----------------|
a]---------------------------------|
b]---------------------------------| x2

[Guitar 1] - Played Normally
e]---------------------------------|
b]---------------------------------|
g]-14------11------12------9-------|
d]-14-[x8]-9--[x8]-12-[x8]-9--[x8]-|
a]-12------9-------10------7-------|
b]---------0-----------------------| x2

[Guitar 2]
e]---------------------------------|
b]---------------------------------|
g]-14---16\11------12---14\9---7---|
d]--------------12-----------------|
a]---------------------------------|
b]---------------------------------| x2

[Guitar 1] - Played Heavily
e]---------------------------------|
b]---------------------------------|
g]-14------11------12------9-------|
d]-14-[x8]-9--[x8]-12-[x8]-9--[x8]-|
a]-12------9-------10------7-------|
b]---------0-----------------------| x4

[Guitar 2]
e]---------------------------------|
b]---------------------------------|
g]-14---16\11------12---14\9---7---|
d]--------------12-----------------|
a]---------------------------------|
b]---------------------------------| x4

End

e]------------------|
b]------------12--7-|
g]----------7-----7-|
d]----------------9-|
a]--------9-------9-|
b]-0-8-10---------0-|

THAT'S ALL! THANKS TO BIFFYTABS.TK AGAIN!
'MON THE BIFFY!
comments
We did not receive enough feedback on this tab! Please rate:
1 2 3 4 5
I want to post or [tab]
guest
You may want to rate the tab now too:
select rating
Please do not post tabs as comments. Select "correction" instead!