Oops, an error
Loading. Please wait.

Liberate The Illiterate Tab

ver3
ver3

Whole song

Interactive

More versions @911Tabs.com
1,180 views 9 this week
no commentswrite comment
1 2 3 4 5
excellent!
x 1
Autoscroll
+/-
esc
set tempo
stop
Difficulty
Tuning
intermediate
D A D G B E
Hey! There's an official Ultimate Guitar app which is ideal
for learning songs when you're away from computer. Get the app
WARNING: You are trying to view
                                    content from Ultimate-Guitar.com
                                    in an unauthorized application,
                                    which is prohibited.

                                    Please use an official Ultimate
                                    Guitar Tabs application for iPhone,
                                    iPad or Android to access legitimate
                                    chords, guitar, bass, and drum tabs
                                    from Ultimate-Guitar.com database.

                                    Type "ultimate guitar tabs" in Apple
                                    App Store's or Android Market's
                                    search to find the application.
Title: Liberate The Illiterate / A Mong Among Mingers
Artist: Biffy Clyro
Album: Vertigo of Bliss
Music: Tabbed by Adam Robertson
Tabber: Adam Robertson
Tempo = 147
Simon

Legend
L - tied note
x - dead note
h - hammer on/pull off
b - bend
s - slide
~ - vibrato
g - ghost note
> - accentuated note
t - trill
M - palm mute
. - staccato
P - popping (bass)
S - slapping (bass)
+ - tapping
W - wide vibrato
< - fade in
w - whammy bar
= - tremolo picking
v - brush up
^ - brush down
V - pick stroke up
n - pick stroke down

                       ^  v                         ^  v                      
E |----------------------------|----------------------------|--------0L------|
B |--7-----------7-----7--7L---|--7-----------7-----7--0----|--------8L------|
G |--5L----5-----5-----5--5L---|--5-----------5-----5--5----|--------0L------|
D |----------------------------|----------------------------|----------------|
A |--5L----5-----5-----5--5----|--6-----6-----6-----6--6----|--7--7--7L------|
D |----------------------------|----------------------------|----------------|

                                                                  
--0----|--------------0-------------|--------------0-------------|
--8----|-----------------7-----7L---|--7--------------7-----0----|
--0----|--------------------5-------|--------------------5-------|
-------|----------------------------|----------------------------|
--7----|--5L----------5L-5L-5-------|--6-----6L----6L-6L-6-------|
-------|----------------------------|----------------------------|

                                                                           
--------0L------|--0-------------------------|--------------0-------------|
--------8L------|--8-------------------------|-----------------7-----7L---|
--------0L------|--0-------------------------|--------------------5-------|
----------------|----------------------------|----------------------------|
--7--7--7L------|--7-------------------------|----------------------------|
----------------|--5s-7-----9-----10---------|--0L----------0L-0L-0L-0----|

                                                      
--------------0-------------|--------0L------|--0----|
--7--------------7-----0----|--------8L------|--8----|
--------------------5-------|--------0L------|--0----|
----------------------------|----------------|-------|
--6-----6L----6L-6L-6-------|--7--7--7L------|--7----|
----------------------------|----------------|-------|

                                                                           
----------------------------|--------------0-------------|--------0-------|
--------------7--------7----|-----------------7-----0----|--------8-------|
-----------------5----------|--5-----------------5-------|--0-----0-------|
--------------------0-------|----------------------------|----------------|
--5L----------5L-5L-5-------|--6-----6L----6L-6L-6-------|--7L-7--7-------|
----------------------------|----------------------------|----------------|

                                                     
--7-----7-----x--x--7-----7-------------------------|
--------------x--x--------------------8s------------|
--0-----0-----x--x--0-----0-----------0-------------|
----------------------------------------------------|
----------------------------------------------------|
----------------------------------------------------|

                                                     
--------------x--x----------------------------------|
--12----12----x--x--12----12------------------------|
--------------x--x--------------------12------------|
--10----10----------10----10----------10------------|
--10----10----------10----10----------10------------|
--10----10----------10----10----------10------------|

                                                     
--------------x--x----------------------------------|
--------------x--x----------------------------------|
--11----11----x--x--11----11----------12------------|
--0-----0-----------0-----0-----------0-------------|
--9-----9-----------9-----9-----------10------------|
--0-----0-----------0-----0-----------0-------------|

                                                     
--------------x--x----------------------------------|
--8-----8-----x--x--8-----8-----------10------------|
--0-----0-----x--x--0-----0-----------0-------------|
----------------------------------------------------|
--7-----7-----------7-----7-----------9-------------|
----------------------------------------------------|

                                                     
--------------x--x----------------------------------|
--12----12----x--x--12----12-------10-------8-------|
--0-----0-----x--x--0-----0--------0--------0-------|
----------------------------------------------------|
--10----10----------10----10-------9--------7-------|
----------------------------------------------------|

                                                     
--------------x--x----------------------------------|
--12----12----x--x--12----12------------------------|
--------------x--x--------------------12------------|
--10----10----------10----10----------10------------|
--10----10----------10----10----------10------------|
--10----10----------10----10----------10------------|

                                                     
--------------x--x----------------------------------|
--------------x--x----------------------------------|
--11----11----x--x--11----11----------12------------|
--0-----0-----------0-----0-----------0-------------|
--9-----9-----------9-----9-----------10------------|
--0-----0-----------0-----0-----------0-------------|

                                                     
--------------x--x----------------------------------|
--8-----8-----x--x--8-----8-----------10------------|
--0-----0-----x--x--0-----0-----------0-------------|
----------------------------------------------------|
--7-----7-----------7-----7-----------9-------------|
----------------------------------------------------|

                                                     
--------------x--x----------------------------------|
--12----12----x--x--12----12-------10-------8-------|
--0-----0-----x--x--0-----0--------0--------0-------|
----------------------------------------------------|
--10----10----------10----10-------9--------7-------|
----------------------------------------------------|

                                                     
--------------x--x----------------------------------|
--12----12----x--x--12----12------------------------|
--------------x--x--------------------12------------|
--10----10----------10----10----------10------------|
--10----10----------10----10----------10------------|
--10----10----------10----10----------10------------|

                                                     
--------------x--x----------------------------------|
--------------x--x----------------------------------|
--11----11----x--x--11----11----------12------------|
--0-----0-----------0-----0-----------0-------------|
--9-----9-----------9-----9-----------10------------|
--0-----0-----------0-----0-----------0-------------|

                                                     
--------------x--x----------------------------------|
--8-----8-----x--x--8-----8-----------10------------|
--0-----0-----x--x--0-----0-----------0-------------|
----------------------------------------------------|
--7-----7-----------7-----7-----------9-------------|
----------------------------------------------------|

                                                     
--------------x--x----------------------------------|
--12----12----x--x--12----12-------10-------8-------|
--0-----0-----x--x--0-----0--------0--------0-------|
----------------------------------------------------|
--10----10----------10----10-------9--------7-------|
----------------------------------------------------|

                                                     
--------------x--x----------------------------------|
--12----12----x--x--12----12------------------------|
--------------x--x--------------------12------------|
--10----10----------10----10----------10------------|
--10----10----------10----10----------10------------|
--10----10----------10----10----------10------------|

                                                     
--------------x--x----------------------------------|
--------------x--x----------------------------------|
--11----11----x--x--11----11----------12------------|
--0-----0-----------0-----0-----------0-------------|
--9-----9-----------9-----9-----------10------------|
--0-----0-----------0-----0-----------0-------------|

                                                     
--------------x--x----------------------------------|
--8-----8-----x--x--8-----8-----------10------------|
--0-----0-----x--x--0-----0-----------0-------------|
----------------------------------------------------|
--7-----7-----------7-----7-----------9-------------|
----------------------------------------------------|

                                                     
--------------x--x----------------------------------|
--12----12----x--x--12----12-------10-------8-------|
--0-----0-----x--x--0-----0--------0--------0-------|
----------------------------------------------------|
--10----10----------10----10-------9--------7-------|
----------------------------------------------------|

                               ^                    ^     
----------------------------|----------------------------|
--7--------5--------3-------|--5--------------------3L---|
--0--------0--------0-------|--0L----------0L----0--0L---|
----------------------------|----------------------------|
--5--------3--------2-------|--3L----------3L----3--2L---|
----------------------------|----------------------------|

                    v                                     
--------------------0L-0L---|--0L----------0-------------|
--3L----------3-----3-------|----------------------------|
--0L----------0-----2--2L---|--2L----------2L----2-------|
-----------------------0L---|--0L----------0L----0--2L---|
--2--------------------0L---|--0L----------0L----0--2L---|
-----------------------0L---|--0L----------0L----0--2L---|

                               ^                    ^     
----------------------------|----------------------------|
----------------------------|--5--------------------3L---|
----------------------------|--0L----------0L----0--0L---|
--2--2--2--2--2--0.---------|----------------------------|
--2--2--2--2--2--0.---------|--3L----------3L----3--2L---|
--2--2--2--2--2--0.---------|----------------------------|

                    v                                     
--------------------0L-0L---|--0L----------0-------------|
--3L----------3-----3-------|----------------------------|
--0L----------0-----2--2L---|--2L----------2L----2-------|
-----------------------0L---|--0L----------0L----0-------|
--2--------------------0L---|--0L----------0L----0-------|
-----------------------0L---|--0L----------0L----0-------|

                                                              
----------------------------|----------------|-------|-------|
----------------------------|----------------|-------|-------|
----------------------------|----------------|-------|-------|
--2--0--2--------2--0--2----|-----2--0-------|-------|-------|
--2--0--2--------2--0--2----|-----2--0-------|-------|-------|
--2--0--2--------2--0--2----|-----2--0-------|-------|-------|

                                                              
----------------------------|----------------|-------|-------|
----------------------------|----------------|-------|-------|
--9-----9--------9-----9----|-----9L-9-------|-------|-------|
--9-----9--------9-----9----|-----9L-9-------|-------|-------|
--7-----7--------7-----7----|-----7L-7-------|-------|-------|
----------------------------|----------------|-------|-------|

                                                                     
----------------------------|----------|----------------------------|
----------------------------|----------|----------------------------|
----------------------------|----------|----------------------------|
----------------------------|----------|----------------------------|
----------------------------|----------|----------------------------|
--2s-0--2--------2--0--2s---|--6b-0----|--2--0--2--------2--0--2s---|

                                                               
----------------|----------------------------|----------------|
----------------|----------------------------|----------------|
----------------|----------------------------|----------------|
----------------|----------------------------|----------------|
----------------|----------------------------|----------------|
--6--7--0-------|--2--0--2--------2--0--2----|--6--7--9-------|

                                                          
----------------------------|----------------------------|
--9L-------9--9--9--9--9----|--9--9--9--9--10-9-----9L---|
--9L-------9--9--9--9--9----|--9--9--9--9--9--9-----9L---|
--0L-------0--0--0--0--0----|--0--0--0--0--0--0----------|
--0L-------0L-0L-0----------|-----------------------9L---|
--0L-------0L-0L-0----------|----------------------------|

                                                          
----------------------------|----------------------------|
--9--9--9--9--9--9--9--9----|--9--9--9--9--9--10----12L--|
--9--9--9--9--9--9--9--9----|--9--9--9--9--9--9----------|
----------------------------|-----------------------9L---|
--9--9--9--9--9--9--9--9----|--9--9--9--9--9--9-----0L---|
----------------------------|----------------------------|

                                                          
----------------------------|----------------------------|
--12s14-14-14-14s12-12-12---|--12s14-14-14-14-12----9L---|
----------------------------|-----------------------9L---|
--9s-11-11-11-11s9--9--9----|--9s-11-11-11-11-9----------|
--0s-0--0--0--0s-0--0--0----|--0s-0--0--0--0--0-----9L---|
----------------------------|----------------------------|

                                                          
----------------------------|----------------------------|
--9--9--9--9--9--9--9--9----|--9--9--9--9--9--10----3L---|
--9--9--9--9--9--9--9--9----|--9--9--9--9--9--9-----2L---|
----------------------------|-----------------------0L---|
--9--9--9--9--9--9--9--9----|--9--9--9--9--9--9-----0L---|
----------------------------|-----------------------0L---|

                                                          
----------------------------|----------------------------|
--3--3--3-----3-------------|----------------------------|
--2--2--2-----2-------------|----------------------------|
--0--0--0-----0--------2L---|--2--2--2-----2L-------2----|
--0--0--0-----0--------2L---|--2--2--2-----2L-------2----|
--0--0--0-----0--------2L---|--2--2--2-----2L-------2----|

                                                                           
----------------------------|----------------|----------------------------|
----------------------------|----------------|--3-----3--3-----3----------|
----------------------------|----------------|--2-----2--2-----2----------|
--4--2--4--------4--2--4----|-----4--2L-2----|--0-----0--0-----0----------|
--4--2--4--------4--2--4----|-----4--2L-2----|--0-----0--0-----0----------|
--4--2--4--------4--2--4----|-----4--2L-2----|--0-----0--0-----0----------|

                                                                           
----------------------------|----------------------------|----------------|
----------------------------|----------------------------|----------------|
----------------------------|----------------------------|----------------|
--2-----2--2-----2----------|--4--2--4--------4--2--4----|-----4--2L-2----|
--2-----2--2-----2----------|--4--2--4--------4--2--4----|-----4--2L-2----|
--2-----2--2-----2----------|--4--2--4--------4--2--4----|-----4--2L-2----|

                                                           
-------|-------|-------|-------|-------|----------|-------|
--3----|--5----|--3----|--5----|--3----|----------|--3L---|
--2----|--6----|--2----|--6----|--2----|--6--4----|--2L---|
--0----|--4----|--0----|--4----|--0----|--4--2----|--0L---|
--0----|--4----|--0----|--4----|--0----|--4--2----|--0L---|
--0----|--4----|--0----|--4----|--0----|--4--2----|--0L---|

                                                                           
--------------0-------------|--------------0-------------|--------0-------|
--3--------------7-----7L---|--7--------------7-----0----|--------8-------|
--2-----------------5-------|--------------------5-------|--------0L------|
--0L----------0-------------|----------------------------|----------------|
--0L----------0L-0L-0-------|--6-----6L----6L-6L-6-------|--7--7--7L------|
--0L----------0-------------|----------------------------|----------------|

                                                          
----------------------------|--------------0-------------|
--8s-10----12s---10---------|-----------------7-----7L---|
--0-------------------------|--------------------5-------|
--5s-7-----9s----7----------|----------------------------|
--7-------------------------|----------------------------|
----------------------------|--0L----------0L-0L-0L-0----|

                                     
--------------0-------------|--0----|
--7--------------7-----0----|--8----|
--------------------5-------|--0----|
----------------------------|-------|
--6-----6L----6L-6L-6-------|--7----|
----------------------------|-------|

                                                     
--7-----7-----x--x--7-----7-------------------------|
--------------x--x--------------------8s------------|
--0-----0-----x--x--0-----0-----------0-------------|
----------------------------------------------------|
----------------------------------------------------|
----------------------------------------------------|

                                                     
--------------x--x----------------------------------|
--12----12----x--x--12----12------------------------|
--------------x--x--------------------12------------|
--10----10----------10----10----------10------------|
--10----10----------10----10----------10------------|
--10----10----------10----10----------10------------|

                                                     
--------------x--x----------------------------------|
--------------x--x----------------------------------|
--11----11----x--x--11----11----------12------------|
--0-----0-----------0-----0-----------0-------------|
--9-----9-----------9-----9-----------10------------|
--0-----0-----------0-----0-----------0-------------|

                                                     
--------------x--x----------------------------------|
--8-----8-----x--x--8-----8-----------10------------|
--0-----0-----x--x--0-----0-----------0-------------|
----------------------------------------------------|
--7-----7-----------7-----7-----------9-------------|
----------------------------------------------------|

                                                     
--------------x--x----------------------------------|
--12----12----x--x--12----12-------10-------8-------|
--0-----0-----x--x--0-----0--------0--------0-------|
----------------------------------------------------|
--10----10----------10----10-------9--------7-------|
----------------------------------------------------|

                                                     
--------------x--x----------------------------------|
--12----12----x--x--12----12------------------------|
--------------x--x--------------------12------------|
--10----10----------10----10----------10------------|
--10----10----------10----10----------10------------|
--10----10----------10----10----------10------------|

                                                     
--------------x--x----------------------------------|
--------------x--x----------------------------------|
--11----11----x--x--11----11----------12------------|
--0-----0-----------0-----0-----------0-------------|
--9-----9-----------9-----9-----------10------------|
--0-----0-----------0-----0-----------0-------------|

                                                     
--------------x--x----------------------------------|
--8-----8-----x--x--8-----8-----------10------------|
--0-----0-----x--x--0-----0-----------0-------------|
----------------------------------------------------|
--7-----7-----------7-----7-----------9-------------|
----------------------------------------------------|

                                                     
--------------x--x----------------------------------|
--12----12----x--x--12----12-------10-------8-------|
--0-----0-----x--x--0-----0--------0--------0-------|
----------------------------------------------------|
--10----10----------10----10-------9--------7-------|
----------------------------------------------------|

                               ^                    ^     
----------------------------|----------------------------|
--7--------5--------3-------|--5--------------------3L---|
----------------------------|--0L----------0L----0--0L---|
--4--------2--------0-------|----------------------------|
----------------------------|--3L----------3L----3--2L---|
----------------------------|----------------------------|

                    v                                     
--------------------0L-0L---|--0L----------0-------------|
--3L----------3-----3-------|----------------------------|
--0L----------0-----2--2L---|--2L----------2L----2-------|
-----------------------0L---|--0L----------0L----0--2L---|
--2--------------------0L---|--0L----------0L----0--2L---|
-----------------------0L---|--0L----------0L----0--2L---|

                                                     
----------------------------------------------------|
----------------------------------------------------|
----------------------------------------------------|
--2-----2-----2-----2-----2--0-----0--2-------------|
--2-----2-----2-----2-----2--0-----0--2-------------|
--2-----2-----2-----2-----2--0-----0--2-------------|

  ^                    ^                         v
----------------------------|--------------------0L-0L---|
--5--------------------3L---|--3L----------3-----3-------|
--0L----------0L----0--0L---|--0L----------0-----2--2L---|
----------------------------|-----------------------0L---|
--3L----------3L----3--2L---|--2--------------------0L---|
----------------------------|-----------------------0L---|


--0L----------0-------------|----------------------------|
----------------------------|----------------------------|
--2L----------2L----2-------|----------------------------|
--0L----------0L----0--2----|-----------------0----------|
--0L----------0L----0--2----|--2--2--2--2--2--0----------|
--0L----------0L----0--2----|--2--2--2--2--2--0----------|


--2--0--2--------2--0--2----|-----2--0-------|-------|-------|
--3--3--3--------3--3--3----|-----3--3-------|-------|-------|
--4--0--4--------4--0--4----|-----4--0-------|-------|-------|
--2--0--2--------2--0--2----|-----2--0-------|-------|-------|
--2--0--2--------2--0--2----|-----2--0-------|-------|-------|
--2--0--2--------2--0--2----|-----2--0-------|-------|-------|


--14-12-14-------14-12-14---|-----12---------|-------|-------|
--0--0--0--------0--0--0----|-----12---------|-------|-------|
--0--0--0--------0--0--0----|-----12---------|-------|-------|
--14-12-14-------14-12-14---|-----12---------|-------|-------|
--14-12-14-------14-12-14---|----------------|-------|-------|
--14-12-14-------14-12-14---|----------------|-------|-------|


-----0-----0----------------|----------------|-----0-----0----------------|
-----------------0-----7L---|--7--0-----7----|-----------------0-----7L---|
--9s----9-----9-----9-------|--------9-------|--9s----9-----9-----9-------|
----------------------------|----------------|----------------------------|
----------------------------|----------------|----------------------------|
----------------------------|----------------|----------------------------|


----------------|-----0-----0----------------|----------------|
--7--0-----7----|-----------------0-----7L---|--7--0-----7----|
--------9-------|--9s----9-----9-----9-------|--------9-------|
----------------|----------------------------|----------------|
----------------|----------------------------|----------------|
----------------|----------------------------|----------------|


----------------------------|----------------------------|
--9--9--9--9--9--9--9--9----|--9--9--9--9--9--10----9----|
--9--9--9--9--9--9--9--9----|--9--9--9--9--9--9-----9----|
--0--0--0--0--0--0--0--0----|--0--0--0--0--0--0----------|
----------------------------|-----------------------9L---|
----------------------------|----------------------------|


----------------------------|----------------------------|
--9--9--9--9--9--9--9-------|--9--9--9-----9--9----------|
--9--9--9--9--9--9--9-------|--9--9--9-----9--9----------|
----------------------------|-----------------------0L---|
--9--9--9--9--9--9--9-------|--9--9--9-----9--9-----0L---|
----------------------------|-----------------------0L---|


----------------------------|----------------------------|
----------------------------|----------------------------|
----------------------------|----------------------------|
--0--0--0-----0--------2L---|--2--2--2-----2L-------2----|
--0--0--0-----0--------2L---|--2--2--2-----2L-------2----|
--0--0--0-----0--------2L---|--2--2--2-----2L-------2----|


----------------------------|----------------|----------------------------|
----------------------------|----------------|----------------------------|
----------------------------|----------------|----------------------------|
--4--2--4--------4--2--4----|-----4--2L-2----|--0-----0--0-----0----------|
--4--2--4--------4--2--4----|-----4--2L-2----|--0-----0--0-----0----------|
--4--2--4--------4--2--4----|-----4--2L-2----|--0-----0--0-----0----------|


----------------------------|----------------------------|----------------|
----------------------------|----------------------------|----------------|
----------------------------|----------------------------|----------------|
--2-----2--2-----2----------|--4--2--4--------4--2--4----|-----4--2L-2----|
--2-----2--2-----2----------|--4--2--4--------4--2--4----|-----4--2L-2----|
--2-----2--2-----2----------|--4--2--4--------4--2--4----|-----4--2L-2----|


-------|--4----|-------|--4----|-------|--4-------|-------|-------|
--3----|--5----|--3----|--5----|--3----|--5-------|-------|-------|
--2----|--6----|--2----|--6----|--2----|--6--4----|-------|-------|
--0----|--4----|--0----|--4----|--0----|--4--2----|--0L---|--0----|
--0----|--4----|--0----|--4----|--0----|--4--2----|--0L---|--0----|
--0----|--4----|--0----|--4----|--0----|--4--2----|--0L---|--0----|


----------------------------|----------------------------|
----------------------------|----------------------------|
--2-----------2--------2----|----------------------------|
--2-----------2--------2----|--3--3--3-----------3-------|
--0-----------0--------0----|--4--4--4-----------4-------|
----------------------------|--3--3--3-----------3-------|


----------------------------|----------------------------|
----------------------------|----------------------------|
----------------------------|----------------------------|
--4-----------4--------4----|--3--3--3-----------3-------|
--4-----------4--------4----|--5--5--5-----------5-------|
--4-----------4--------4----|--3--3--3-----------3-------|


----------------------------|----------------|--------------17L------17L--|
----------------------------|----------------|----------------------------|
----------------------------|----------------|--------------14-------14L--|
--6-----------6--------6----|--7--7--11------|--0-----------0--------0L---|
--7-----------7--------7----|--7--7--12------|--12----------12-------12L--|
--6-----------6--------6----|--7--7--11------|--0-----------0--------0L---|


--17---|----------------------------|----------------------------|
-------|----------------------------|----------------------------|
--14---|--2-----------2--------2----|----------------------------|
--0----|--2-----------2--------2----|--3--3--3-----------3-------|
--12---|--0-----------0--------0----|--4--4--4-----------4-------|
--0----|----------------------------|--3--3--3-----------3-------|


----------------------------|----------------------------|
----------------------------|----------------------------|
----------------------------|----------------------------|
--4-----------4--------4----|--3--3--3-----------3-------|
--4-----------4--------4----|--5--5--5-----------5-------|
--4-----------4--------4----|--3--3--3-----------3-------|


----------------------------|----------------|--------------17-------17L--|
----------------------------|----------------|--------------5L-------5----|
----------------------------|----------------|--------------14-------14L--|
--6-----------6--------6----|--7--7--11------|--0-----------0--------0L---|
--7-----------7--------7----|--7--7--12------|--12----------12-------12L--|
--6-----------6--------6----|--7--7--11------|--0-----------0--------0L---|


--17---|----------------------------|----------------------------|
-------|----------------------------|----------------------------|
--14---|--2--2--2--2--2--2--2--2----|----------------------------|
--0----|--2--2--2--2--2--2--2--2----|--3--3--3--3--3--3--3--3----|
--12---|--0--0--0--0--0--0--0--0----|--4--4--4--4--4--4--4--4----|
--0----|----------------------------|--3--3--3--3--3--3--3--3----|


----------------------------|----------------------------|
----------------------------|----------------------------|
----------------------------|----------------------------|
--4--4--4--4--4--4--4--4----|--3--3--3--3--3--3--3--3----|
--4--4--4--4--4--4--4--4----|--5--5--5--5--5--5--5--5----|
--4--4--4--4--4--4--4--4----|--3--3--3--3--3--3--3--3----|


----------------------------|----------------------------|
----------------------------|----------------------------|
----------------------------|----------------------------|
--6--6--6--6--6--6--6--6----|--7--7--7--7--11-11-11-11---|
--7--7--7--7--7--7--7--7----|--7--7--7--7--12-12-12-12---|
--6--6--6--6--6--6--6--6----|--7--7--7--7--11-11-11-11---|


----------------------------|----------------------------|
----------------------------|----------------------------|
--13L13-13-13-13s14----16L--|--16-16-16L16-16L16-16-16---|
--0L-0--0--0--0s-0-----0L---|--0--0--0L-0--0L-0--0--0----|
--11L11-11-11-11s12----14L--|--14-14-14L14-14L14-14-14---|
--0L-0--0--0--0s-0-----0L---|--0--0--0L-0--0L-0--0--0----|


----------------------------|----------------------------|
----------------------------|----------------------------|
--13L13-13-13-13s14----18L--|--18-18-18L18-18L18-18-18---|
--0L-0--0--0--0s-0-----0L---|--0--0--0L-0--0L-0--0--0----|
--11L11-11-11-11s12----16L--|--16-16-16L16-16L16-16-16---|
--0L-0--0--0--0s-0-----0L---|--0--0--0L-0--0L-0--0--0----|


----------------------------|----------------------------|
----------------------------|----------------------------|
--13L13-13-13-13s14----19L--|--19-19-19L19-19L19-19-19---|
--0L-0--0--0--0s-0-----0L---|--0--0--0L-0--0L-0--0--0----|
--11L11-11-11-11s12----17L--|--17-17-17L17-17L17-17-17---|
--0L-0--0--0--0s-0-----0L---|--0--0--0L-0--0L-0--0--0----|


----------------------------|----------------------------|-------|-------|
----------------------------|----------------------------|-------|-------|
--13L13-13-13-13s14----18L--|--18L18L18L18L18L18L18------|-------|-------|
--0L-0--0--0--0s-0-----0L---|--0L-0L-0L-0L-0L-0L-0-------|--9L---|--9----|
--11L11-11-11-11s12----16L--|--16L16L16L16L16L16L16------|--7L---|--7----|
--0L-0--0--0--0s-0-----0L---|--0L-0L-0L-0L-0L-0L-0-------|--7L---|--7----|


-------|-------|-------|-------|-------|-------|-------|-------|-------|-------|
-------|-------|-------|-------|-------|-------|-------|-------|-------|-------|
-------|-------|-------|-------|-------|-------|-------|-------|-------|-------|
--7L---|--7----|--9L---|--9----|--7L---|--7----|--9L---|--9----|--7L---|--7----|
--0L---|--0----|--7L---|--7----|--0L---|--0----|--7L---|--7----|--0L---|--0----|
--0L---|--0----|--7L---|--7----|--0L---|--0----|--7L---|--7----|--0L---|--0----|


-------|-------|-------|-------|----------------------------|-------|
-------|-------|-------|-------|----------------------------|-------|
-------|-------|-------|-------|----------------------------|-------|
--9L---|--9----|--7L---|--7----|--9L-------9-----7-----9L---|--9----|
--7L---|--7----|--0L---|--0----|--7L-------7-----7-----7L---|--7----|
--7L---|--7----|--0L---|--0----|--7L-------7-----7-----7L---|--7----|


----------------------------|-------|----------------------------|-------|
----------------------------|-------|----------------------------|-------|
----------------------------|-------|----------------------------|-------|
--7L-------7-----7-----7L---|--7----|--9L-------9-----7--7--9L---|--9----|
--0L-------0-----0-----0L---|--0----|--7L-------7-----7--7--7L---|--7----|
--0L-------0-----0-----0L---|--0----|--7L-------7-----7--7--7L---|--7----|


----------------------------|-------|----------------------------|-------|
----------------------------|-------|----------------------------|-------|
----------------------------|-------|----------------------------|-------|
--7L-------7-----7--7--7L---|--7----|--9--------9-----7-----9L---|--9----|
--0L-------0-----0--0--0L---|--0----|--7--------7-----7-----7L---|--7----|
--0L-------0-----0--0--0L---|--0----|--7--------7-----7-----7L---|--7----|


----------------------------|-------|----------------------------|-------|
--7--------7-----7-----9L---|--9----|----------------------------|-------|
--7--------7-----7-----9L---|--9----|----------------------------|-------|
--0--------0-----0-----0L---|--0----|--9--------9-----7-----9L---|--9----|
--0--------0-----0-----0L---|--0----|--7--------7-----7-----7L---|--7----|
--0--------0-----0-----0----|--0----|--7--------7-----7-----7L---|--7----|


----------------------------|-------|----------------------------|-------|
--7--------7-----7-----9L---|--9----|--10-------10----9-----10L--|--10---|
--7--------7-----7-----9L---|--9----|----------------------------|-------|
--0--------0-----0-----0L---|--0----|--9--------9-----7-----9L---|--9----|
--0--------0-----0-----0L---|--0----|--7--------7-----7-----7L---|--7----|
--0--------0-----0-----0L---|--0----|--7--------7-----7-----7L---|--7----|


----------------------------|-------|----------------------------|-------|
--10-------9-----10----7L---|--7----|--10-------10----9-----10L--|--10---|
--9--------9-----9-----7L---|--7----|----------------------------|-------|
--0--------0-----0-----0L---|--0----|--9--------9-----7-----9L---|--9----|
--0--------0-----0-----0L---|--0----|--7--------7-----7-----7L---|--7----|
--0--------0-----0-----0L---|--0----|--7--------7-----7-----7L---|--7----|


----------------|----------------|-------|-------|-------||
--9--------9----|--10-7L---------|--7L---|--7L---|--7----||
--9--------9----|--9--7L---------|--7L---|--7L---|--7----||
--0--------0----|--0--0L---------|--0L---|--0L---|--0----||
--0--------0----|--0--0L---------|--0L---|--0L---|--0----||
--0--------0----|--0--0L---------|--0L---|--0L---|--0----||
comments
We did not receive enough feedback on this tab! Please rate:
print report bad tab
1 2 3 4 5
I want to post or [tab]
guest
You may want to rate the tab now too:
select rating
Please do not post tabs as comments. Select "correction" instead!