Oops, an error
Loading. Please wait.

Vertigo Of Bliss Tab

8,690 views 18 this week
1 commentread comment
1 2 3 4 5
excellent!
x 5
Autoscroll
+/-
esc
set tempo
stop
Contributor
Difficulty
intermediate
WARNING: You are trying to view
                                    content from Ultimate-Guitar.com
                                    in an unauthorized application,
                                    which is prohibited.

                                    Please use an official Ultimate
                                    Guitar Tabs application for iPhone,
                                    iPad or Android to access legitimate
                                    chords, guitar, bass, and drum tabs
                                    from Ultimate-Guitar.com database.

                                    Type "ultimate guitar tabs" in Apple
                                    App Store's or Android Market's
                                    search to find the application.
Hey, I didn't make these tabs I am just submitting them in one place for all Biffy fans.
www.biffytabs.tk
'MON THE BIFFY!

Bodies in Flight
Biffy Tab Team

Intro

e]-----------------------------------------|
b]-----------------------------------------|
g]-----------------------------------------|
d]-----------------------------------------|
a]-----------------------------------------|
d]--0-0-0----0-0-0----0-0-0----0-0-0-------|

Part 1

e]---------------------------|
b]---------------------------|
g]--6-6-6-/-----6-6-6-/-9----|
a]--4-4-4-/-0---4-4-4-/-7----|
d]--2-2-2-/-0---2-2-2-/-5----|
d]----------0----------------|

e]-----------------------------------------|
b]-----------------------------------5-----|
g]------6-3------6-0------6-7------6-------|
d]----4--------4--------4--------4---------|
a]--5--------5--------5--------5-----------|
d]-----------------------------------------|

e]---------------------------|
b]---------------------------|
g]--6-6-6-/-----6-6-6-/-9----|
a]--4-4-4-/-0---4-4-4-/-7----|
d]--2-2-2-/-0---2-2-2-/-5----|
d]----------0----------------|

e]-----------------------------------------|
b]-----------------------------------------|
g]------6-3------6-3------6-3------6-3-----|
d]----4--------4--------4--------4---------|
a]--5--------5--------5--------5-----------|
d]-----------------------------------------|

Part 2

!!First Time!!

e]-----------------------------------------|
b]-----------------------------------------|
g]--8-8-8-8---8-8-8-8---8-8-8-8---8-8-8-8--|
d]--8-8-8-8---8-8-8-8---8-8-8-8---8-8-8-8--|
a]--6-6-6-6---6-6-6-6---6-6-6-6---6-6-6-6--|
d]--6-6-6-6---6-6-6-6---6-6-6-6---6-6-6-6--|

!!Second Time!!

e]---------------------------------------------|
b]---------------------------------------------|
g]--3-3-3-3-3^-3-3-3-3^-3-3-3-3^-3-3-3---------|
d]---------------------------------------------|
a]---------------------------------------------|
d]---------------------------------------------|

Part 3

e]-----------------------------------------|
b]-----------------------------------------|
g]--9-9-9-9---9-9-9-9---4-4-4-4---4-4-4-4--|
d]--9-9-9-9---9-9-9-9---4-4-4-4---4-4-4-4--|
a]--7-7-7-7---7-7-7-7---2-2-2-2---2-2-2-2--|
d]--7-7-7-7---7-7-7-7---2-2-2-2---2-2-2-2--|

e]-----------------------------------------|
b]-----------------------------------------|
g]--8-8-8-8---8-8-8-8---6-6-6-6---6-6-6-6--|
d]--6-6-6-6---6-6-6-6---4-4-4-4---4-4-4-4--|
a]--4-4-4-4---4-4-4-4---2-2-2-2---2-2-2-2--|
d]-----------------------------------------|

e]-----------------------------------------|
b]--0-0-0-0---0-0-0-0----------------------|
g]--2-2-2-2---2-2-2-2---4-4-4-4---4-4-4-4--|
d]--2-2-2-2---2-2-2-2---4-4-4-4---4-4-4-4--|
a]--0-0-0-0---0-0-0-0---2-2-2-2---2-2-2-2--|
d]----------------------2-2-2-2---2-2-2-2--|

e]------------------------------------------|
b]------------------------------------------|
g]--8-8-8-8---8-8-8-8---------11~--------9~-|
d]--6-6-6-6---6-6-6-6---0-0-0------0-0-0----|
a]--4-4-4-4---4-4-4-4-----------------------|
d]------------------------------------------|

Part 4

e]---------------------------------------------|
b]------10-7-------10-7-------10-7-------10-7--|
g]----7----------7----------7----------7-------|
d]--9----------9----------0----------0---------|
a]---------------------------------------------|
d]---------------------------------------------|

e]---------------------------------------------|
b]------10-7-------10-7-------10-7-------10-7--|
g]----7----------7----------7----------7-------|
d]--5----------5----------9----------7---------|
a]---------------------------------------------|
d]---------------------------------------------|

Repeat x 4

e]---------------------------------------------------|
b]-------12----------12------------------------------|
g]-----9----12-----9----12--------12-11--------12-11-|
d]--10----------10-------------12-----------12-------|
a]--------------------------10-----------10----------| x2
d]---------------------------------------------------|

e]---------------------------------------------------|
b]----------12----------12-------12-----------12-----|
g]--------9-----------9--------9----12------9----12--|
d]-----10----------10-------10-----------10----------|
a]--12----------12-----------------------------------| x2
d]---------------------------------------------------|

Go back to Intro
           Part 1
           Part 2
           Part 4

Part 5

e]---------10----------10---------10---------10-|
b]-------8-----------8----------8----------8----|
g]----11----------11---------11---------11------|
d]--0-----------0----------0----------0---------|
a]----------------------------------------------|
d]----------------------------------------------|

e]---------10----------10---------10---10-------|
b]-------9-----------9----------9-------9-------|
g]----11----------11---------11--------11-------|
d]--0-----------0----------0------------0-------|
a]----------------------------------------------|
d]----------------------------------------------|

e]-10-10-10-10--10-10-10-10--10-10-10-10--10-10-10-10-|
b]--8--8--8--8---8--8--8--8---8--8--8--8---8--8--8--8-|
g]-11-11-11-11--11-11-11-11--11-11-11-11--11-11-11-11-|
d]--0--0--0--0---0--0--0--0---0--0--0--0---0--0--0--0-|
a]----------------------------------------------------|
d]----------------------------------------------------|

e]-10-10-10-10--10-10-10-10--10-10-10-10--10-10-10-10-|
b]--9--9--9--9---9--9--9--9---9--9--9--9---9--9--9--9-|
g]-11-11-11-11--11-11-11-11--11-11-11-11--11-11-11-11-|
d]--0--0--0--0---0--0--0--0---0--0--0--0---0--0--0--0-|
a]----------------------------------------------------|
d]----------------------------------------------------|

e]----------------------------------------------------|
b]----------------------------------------------------|
g]--7-7-7-7---7-6-6-6---6-4-4-4---4-6-6-6-------------|
d]--5-5-5-5---5-5-5-5---5-5-5-5---5-5-5-5-------------|
a]----------------------------------------------------|
d]----------------------------------------------------|

e]------------------------------------------------------|
b]------------------------------------------------------|
g]-6-6-6-6-6-6-6-6-6-6-6-6-6-6-6-6\-4-/-11-11-\-2-/-9-9-|
d]------------------------------------------------------|
a]------------------------------------------------------|
d]------------------------------------------------------|

e]--0-0-0-0---0-0-0-0---0-0-0-0---0-0-0-0-------------|
b]--7-7-7-7---7-7-7-7---7-7-7-7---7-7-7-7-------------|
g]--7-7-7-7---7-7-7-7---7-7-7-7---7-7-7-7-------------|
d]----------------------------------------------------|
a]----------------------------------------------------|
d]----------------------------------------------------|

e]---0-0-0-0---0-0-0-0---0-0-0-0---0-0-0-0------------|
b]---9-9-9-9---9-9-9-9---9-9-9-9---9-9-9-9------------|
g]---7-7-7-7---7-7-7-7---7-7-7-7---7-7-7-7------------|
d]----------------------------------------------------|
a]----------------------------------------------------|
d]----------------------------------------------------|

e]----------------------------------------------------|
b]----------------------------------------------------|
g]--7-7-7-7---7-6-6-6---6-4-4-4---4-6-6-6-------------|
d]--5-5-5-5---5-5-5-5---5-5-5-5---5-5-5-5-------------|
a]----------------------------------------------------|
d]----------------------------------------------------|

e]------------------------------------------------------|
b]------------------------------------------------------|
g]-6-6-6-6-6-6-6-6-6-6-6-6-6-6-6-6\-4-/-11-11-\-2-/-9-9-|
d]------------------------------------------------------|
a]------------------------------------------------------|
d]------------------------------------------------------|

e]----------------------------------------------------|
b]----------------------------------------------------|
g]--7-7-7-7---7-7-7-7---7-7-7-7---7-7-7-7---0---------|
d]--5-5-5-5---5-5-5-5---5-5-5-5---5-5-5-5---0---------|
a]--5-5-5-5---5-5-5-5---5-5-5-5---5-5-5-5---0---------|
d]--5-5-5-5---5-5-5-5---5-5-5-5---5-5-5-5---0---------|

e]----------------------------------------------------|
b]----------------------------------------------------|
g]--7-7-7-7---7-7-7-7---7-7-7-7---6-------------------|
d]--5-5-5-5---5-5-5-5---5-5-5-5---5-------------------|
a]--5-5-5-5---5-5-5-5---5-5-5-5---5-------------------|
d]--5-5-5-5---5-5-5-5---5-5-5-5---5-------------------|

Part 6

e]----------------------------------------------------|
b]----------------------------------------------------|
g]--14-14-14-14-\-11----14-14-14-14-\-11--------------|
d]----------------------------------------------------| x2
a]--12-12-12-12-\--9----12-12-12-12-\--9--------------|
d]----------------------------------------------------|

e]----------------------------------------------------|
b]----------------------------------------------------|
g]--13-13-13-13-\-10----14-14-14-14-\-7---------------|
d]----------------------------------------------------|
a]--11-11-11-11-\--8----12-12-12-12-\-5---------------|
d]----------------------------------------------------|

e]----------------------------------------------------|
b]----------------------------------------------------|
g]--14-14-14-14-\-11----14-14-14-14-\-11--------------|
d]----------------------------------------------------| x2
a]--12-12-12-12-\--9----12-12-12-12-\--9--------------|
d]----------------------------------------------------|

[slow slides]

e]----------------------------------------------------|
b]----------------------------------------------------|
g]--13-\---13-\----14-\---14-\------------------------|
d]----------------------------------0-----------------|
a]--11-\---11-\----12-\---12-\------0-----------------|
d]----------------------------------0-----------------|


-----------------------------------------------------------------------------


The Ideal Height
Biffy Tab Team

Intro

e]--7p0-7---7p0-7---7p0-7---7p0-10-7----|
b]--------------------------------------|
g]--------------------------------------|
d]--------------------------------------|
a]--------------------------------------|
d]--------------------------------------|

e]---8p0--8----8p0--8----8p0--8----8p0-12--8--|
b]--10p0-10---10p0-10---10p0-10---10p0-13-10--|
g]--------------------------------------------|
d]--------------------------------------------|
a]--------------------------------------------| x2
d]--------------------------------------------|

e]--7p0-7---7p0-7---7p0-7---7p0-10-7----|
b]--8---8---8---8---8---8---8---12-8----|
g]--------------------------------------|
d]--------------------------------------|
a]--------------------------------------|
d]--------------------------------------|

e]--7p0-7---7p0-7---7p0-7---7p0-10---8--|
b]--8---8---8---8---8---8---8---12--10--|
g]--------------------------------------|
d]--------------------------------------|
a]--------------------------------------|
d]--------------------------------------|

e]-----------------------------|
b]-10------12\--10------12/----|
g]-9------------9--------------|
d]-7-(X16)------7-(X16)--------|
a]-7------------7--------------|
d]-7------------7--------------|

Verse

e]--------------------------------------------------------|
b]-10------12---10------12\---10------12---10------12-----|
g]-9------------9-------------9------------9--------------|
d]-7-(X16)------7-(X16)-------7-(X16)------7-(X16)--------|
a]-7------------7-------------7------------7--------------|
d]-7------------7-------------7------------7--------------|

Pre-Chorus

e]-------------------------------------|
b]-5-5-5-5-5-5-----------8-8-8-8-8-8-8-|
g]-5-5-5-5-5-5--7p5-7-7--5-5-5-5-5-5-5-|
d]-3-3-3-3-3-3--5-5-5-5--7-7-7-7-7-7-7-|
a]-------------------------------------|
d]-------------------------------------|

Chorus

e]-----------------------------------------------------|
b]--10---------------------5-5-----5-------5-5-----5---|
g]--9----------------------5-5-----5-------5-5-----5---|
d]--7---(x16)----------3-3-----3-3-----3-3-----3-3-----|
a]--7------------------3-3-----3-3-----3-3-----3-3-----|
d]--7------------------3-3-----3-3-----3-3-----3-3-----|

Post Chorus

e]-----------3-3-3-3-3-3-3-3-|
b]-8-8-13-8--5-5-5-5-5-5-5-5-|
g]-7-7-x--7--5-5-5-5-5-5-5-5-|
d]-5-5-10-5--3-3-3-3-3-3-3-3-|
a]---------------------------|
d]---------------------------| x2

Back to Verse

Pre-Chorus

e]----------------------------------------------|
b]----------5-5-5-5-5-5-----------8-8-8-8-8-8-8-|
g]-7p5-7-7--5-5-5-5-5-5--7p5-7-7--5-5-5-5-5-5-5-|
d]-5-5-5-5--3-3-3-3-3-3--5-5-5-5--7-7-7-7-7-7-7-|
a]----------------------------------------------|
d]----------------------------------------------|

Chorus

e]-----------------------------------------------------|
b]--10---------------------5-------5-------5-------5---|
g]--9------------------------5-------5-------5-------5-|
d]--7---(x16)----------3-3-----3-3-----3-3-----3-3-----|
a]--7------------------3-3-----3-3-----3-3-----3-3-----|
d]--7------------------3-3-----3-3-----3-3-----3-3-----|

Post Chorus

e]-----------3-3-3-3-3-3-3-3-|
b]-8-8-13-8--5-5-5-5-5-5-5-5-|
g]-7-7-x--7--5-5-5-5-5-5-5-5-|
d]-5-5-10-5--3-3-3-3-3-3-3-3-|
a]---------------------------|
d]---------------------------| x2

e]-----------------------|
b]--10-9-----------------|
g]-------7h9-------------|
d]-----------7h9---------|
a]---------------5h7p0---|
d]-----------------------|

Heavy Verse

e]-----------------------------------------------------|
b]------5-------5-------5-------5------10--------------|
g]--------5-------5-------5-------5----9---------------|
d]--3-3-----3-3-----3-3-----3-3--------7---(x16)-------|
a]--3-3-----3-3-----3-3-----3-3--------7---------------| x2
d]--3-3-----3-3-----3-3-----3-3--------7---------------|

e]-------------------------------------------|
b]-------------5--5---------------5--5-------|
g]-------------5----5-------------5----5-----|
d]-5-5---7--2--3-------5-5--7--2--3----------|
a]-5-5---7--2--3-------5-5--7--2--3----------|
d]-5-5---7--2--3-------5-5--7--2--3----------|

Bridge

e]--------------------------------------------------------------|
b]--------------------------------------------------------------|
g]---4/6---6/4---4/6---6/4---4/9--6/4---4/6---6/4---4/6---6/2---|
d]--------------------------------------------------------------|
a]-0-----0-----0-----0-----0----------0-----0-----0-----0-----0-|
d]--------------------------------------------------------------|

e]--------------------------------------------------------------|
b]--------------------------------------------------------------|
g]--------------------------------------------------------------|
d]--4/6---6/4---4/6---6/4---4/11--6/4---4/6---6/4---4/6---6/2---|
a]--------------------------------------------------------------|
d]-0----0-----0-----0-----0-----------0-----0-----0-----0-----0-|

e]---------------------------------------------------------------|
b]-------------------------5-------------------------------------|
g]---4/5---4/5---4/5---4/5---5/4---4/5---5/7---7/9---9/10/9------|
d]----------------------------------------------------------10---|
a]--0----0-----0-----0-----------0-----0-----0-----0-------------|
d]---------------------------------------------------------------|

e]----------------------------------------------------|
b]----------------------------------------------------|
g]-9-9---9--9--9---9--9--9---9--9--9--10--9--9--------|
d]10-10-10-10-10--10-10-10--10-10-10--10-10-10--------|
a]-8-8---8--8--8---8--8--8---8--8--8---8--0--0--------|
d]----------------------------------------------------|

e]-----------------------------------------------------|
b]----------------------------------------5-5-5-5------|
g]-9--9--9----9--4--4---4--4--4---4-------5-5-5-5------|
d]10-10-10---10--5--5---5--5--5---5--3--3-3-3-3-3------|
a]-0--0--0----0--3--3---3--3--3---3--3--3-3-3-3-3------|
d]-----------------------------------3--3-3-3-3-3-3/11-|

e]----------------------------------------------------|
b]------------------5-5----5-------5-5-----5----------|
g]-12---------------5-5----5-------5-5-----5----------|
d]-12-(x12)-----3-3-----3-3--3-3-3-----3-3------------|
a]-10-----------3-3-----3-3--3-3-3-----3-3------------|
d]-10-----------3-3-----3-3--3-3-3-----3-3------------|

Go Back To Chorus

Outro

e]----------------------------------------------------|
b]-------------5------------------5----------5--------|
g]-------------5------------------5----------5--------|
d]-5-5---7--2--3-------5-5--7--2--3--(x4)----0--------|
a]-5-5---7--2--3-------5-5--7--2--3----------0--------|
d]-5-5---7--2--3-------5-5--7--2--3----------0--------|


----------------------------------------------------------------------------


With Aplomb
Biffy Tab Team

Intro / Verse

e]--9--12--10--7--10----9-|
b]-10--14--12--8--12---10-|
g]------------------------|
d]------------------------|
a]------------------------|
d]------------------------|

e]--9--12--10--9--7-/-14---9--|
b]-10--14--12-10--8-/-15--10--|
g]----------------------------|
d]----------------------------|
a]----------------------------|
d]----------------------------|

Solo 1

e]------------------------|
b]------------------------|
g]--6-6h7-7-6-7-6-2-2h4-2-|
d]------------------------|
a]------------------------|
d]------------------------|

e]----------------------------------------|
b]----------------------------------------|
g]--6-7-6-\-2-4-2-/-6-7-6-\-2-4-2-/-6-7-6-|
d]----------------------------------------|
a]----------------------------------------|
d]----------------------------------------|

Chorus

e]-----------------------|
b]-----------------------|
g]--7--7-----------------|
d]--7--7--5---7-7--5-----|
a]--5--4--5---5-4--5-----|
d]--------5--------5-----|

Back to Verse

Solo 2

e]----------------------------------------------------------------------------|
b]----------------------------------------------------------------------------|
g]-6-6-6h7-7-6-7-6-\-2-4-2-/-6-7-6-\-2-4-2-/-6-7-6-/-14-16-14-\-6-7-6-\-2-4-2-|
d]----------------------------------------------------------------------------|
a]----------------------------------------------------------------------------|
d]----------------------------------------------------------------------------|

Back to Chorus

Bridge

e]--5------5-----------------------------------------------------------------|
b]--5--6---5------------------6----------------------------------------------|
g]-----7------10---9-------5--5--------5-5-5-5-------------------------------|
d]-----7------10-------5---5--5--(x2)--5-5-5-5-------------------------------|
a]-----5------8----10--7---3--3--------3-3-3-3-------------------------------|
d]---------------------------------------------------------------------------|

Repeat

Outro Part 1

e]---------------------|
b]----10---------8-8---|
g]-------10-7/9--9-9---|
d]--0------------------|
a]---------------------|
d]---------------------|

e]---------|
b]-8-------|
g]--9------|
d]---10----|
a]-----0---|
d]---------|

e]-------------|
b]-8h10-8------|
g]--------9h10-|
d]-------------|
a]-------------|
d]-------------|

e]----------------------|
b]-----10---------8-8---|
g]--------10-7/9--9-9---|
d]---0------------------|
a]----------------------|
d]----------------------|

e]---------|
b]-8-------|
g]--9------|
d]---10----|
a]-----0---|
d]---------|

Outro Part 2

e]--------------------------------|
b]----------------------6-6-6-6---|
g]-10-10-10-12-10-9-10--7-7-7-7---|
d]-10-10-10-------------7-7-7-7---|
a]-8--8--8--------------5-5-5-5---|
d]--------------------------------|

e]-------------------------------------------------|
b]-------------------------------------------------|
g]-12-12-12-12-12-12-12-12-14-14-14-14-14-14-14-14-|
d]-12-12-12-12-12-12-12-12-14-14-14-14-14-14-14-14-|
a]-10-10-10-10-10-10-10-10-12-12-12-12-12-12-12-12-|
d]-------------------------------------------------|

e]-----------------------|
b]------------------6----|
g]-10-10-10-10-10---7----|
d]-10-10-10-10-10---7----|
a]-8--8--8--8--8----5----|
d]-----------------------|

Repeat

Outro Part 3

e]---------------------------|
b]---------------------------|
g]-12-10-9-10-10-10-10-10-10-|
d]------------10-10-10-10-10-|
a]------------8--8--8--8--8--|
d]---------------------------|

e]------------------|
b]--6-6-6-6-6-------|
g]--7-7-7-7-7-------|
d]--7-7-7-7-7-------|
a]--5-5-5-5-5-------|
d]------------------|

e]-------------------------------------------------|
b]-------------------------------------------------|
g]-12-12-12-12-12-12-12-12-14-14-14-14-14-14-14-14-|
d]-------------------------------------------------|
a]-10-10-10-10-10-10-10-10-12-12-12-12-12-12-12-12-|
d]-------------------------------------------------|

e]-----------------------|
b]------------------6----|
g]-10-10-10-10-10---7----|
d]-10-10-10-10-10---7----|
a]-8--8--8--8--8----5----|
d]-----------------------|

Repeat x4

e]-----------------------|
b]-----------------------|
g]-15-15-15-15-15-17--10-|
d]-15-15-15-15-15-17--10-|
a]-13-13-13-13-13-15--8--| x4
d]-----------------------|

e]----------------------|
b]----------------------|
g]----15----------17-10-|
d]-------15----------10-|
a]-13-------13/15----8--|
d]----------------------|

Repeat till end

e]-1---
b]-3---
g]-2---
d]-0---
a]-----
d]-----


----------------------------------------------------------------------------


A Day of...
Biffy Tab Team

Intro

e]----------------------------------------------------------|
b]------------------12b-----0-------------------------------|
g]--------------------------0----------------0--4--0--------|
d]--x-x-x-----------------------------0--4------------4-----|
a]--x-x-x---------------------------------------------------|
d]--x-x-x---------------------------------------------------|

Verse

e]---------------------------------------------------------|
b]-------5---7b-----5---7b-----5---7b----------------------|
g]---------4----------4----------4-----------0--4--0-------|
d]---2-2--------2-2--------2-2---------0--4-----------4----|
a]---2-2--------2-2--------2-2-----------------------------| x3
d]---2-2--------2-2--------2-2-----------------------------|

Chorus

e]-----------------------------------------------------|
b]-----------------------------------------------------|
g]---13--13-13-12---12-12-11---4-4-4/5-5-5-5\4-4-4-4---|
d]-----------------------------------------------------|
a]---11--11-11-10---10-10-9----2-2-2/3-3-3-3\2-2-2-2---|
d]-----------------------------------------------------|

Back to Verse

Chorus 2
e]------------------------------------------------------------------|
b]------------------------------------------------------------------|
g]----------------------------------7-7-7-7-7-7-7-7-4-4-4-4-5-5-4-4-|
d]--2-2-2-2-2-2-2-2-7-7-7-7-7-7-7-7-7-7-7-7-7-7-7-7-4-4-4-4-4-4-4-4-|
a]--2-2-2-2-2-2-2-2-7-7-7-7-7-7-7-7-5-5-5-5-5-5-5-5-2-2-2-2-3-3-2-2-|
d]--2-2-2-2-2-2-2-2-7-7-7-7-7-7-7-7---------------------------------|

Bridge
e|-----------------------------------------------------------------|
b|---/8--8-8-8--8\7-/8--8-8-8--8\7-/8--8-8-8--8\7-/8--8-8-8--8\7---|
g|-----------------------------------------------------------------|
d|---/5--5-5-5--5\4-/5--5-5-5--5\4-/5--5-5-5--5\4-/5--5-5-5--5\4---|
a|-----------------------------------------------------------------|
d]-----------------------------------------------------------------|

e|------------------------------------------------------------------|
b|---/8--8-8-8--8\7-/8--8-8-8--8\7-/8--8-8-8--8\7-/10-101010-10\8---|
g|------------------------------------------------------------------|
d|---/5--5-5-5--5\4-/5--5-5-5--5\4-/5--5-5-5--5\4-/7--7-7-7--7-\5---|
a|------------------------------------------------------------------|
D|------------------------------------------------------------------|

e|----------------------------------------------------------------|
b|---4--4-4-4--4-4--4--4-4-4--4-4--4--4-4-4--4-4--4--4-4-4--4-4---|
g|----------------------------------------------------------------|
d|---1--1-1-1--1-1--1--1-1-1--1-1--1--1-1-1--1-1--1--1-1-1--1-1---|
a|----------------------------------------------------------------|
D|----------------------------------------------------------------|

e|--------------------------------------------------------------------|
b|---8-8-8-8-8-8-8-8-8-8-8-8-8-8-8-8-10101010101010101010101010101010-|
g|--------------------------------------------------------------------|
d|---5-5-5-5-5-5-5-5-5-5-5-5-5-5-5-5-7-7-7-7-7-7-7-7-7-7-7-7-7-7-7-7--|
a|--------------------------------------------------------------------|
D|--------------------------------------------------------------------|

Outro

e]---------------------------------------------------------|
b]-------5---7b-----5---7b-----5---7b----------------------|
g]---------4----------4----------4-----------0--4--0-------|
d]---2-2--------2-2--------2-2---------0--4-----------4----|
a]---2-2--------2-2--------2-2-----------------------------| x3
d]---2-2--------2-2--------2-2-----------------------------|

e|-------------------------------------------------------------------|
b|-------------------------------------------------------------0-----|
g|--------------------------------0--4--0--------0----3--4--3--7-----|
d|---x-2-2-------x-2-2------0--4-----------4--------4----------------|
a|---x-2-2-------x-2-2------------------------4----------------------|
D|---x-2-2-------x-2-2-----------------------------------------------|

e|--------------|
b|---6-6-6h8----|
g|---6-6-6h7----|
d|--------------|
a|--------------|
D|--------------|


----------------------------------------------------------------------------


Liberate the Illiterate/A Mong Among Mingers
Biffy Tab Team

Intro

e]------------------------------|
b]---7--7-7-7--7--7-7-7--8--8---|
g]---5--5-5-5--5--5-5-5--7--7---|
d]------------------------------|
a]---5--5-5-5--6--6-6-6--7--7---|
d]------------------------------|

e]------------------------------|
b]-------7--7------7--7----8----|
g]-----5--5------5--5------7----|
d]------------------------------|
a]---5-------6-6--------7-7-----| x3
d]------------------------------|

e]----------------------|
b]--12-12--12-12-12--7--|
g]--0--0---0--0--0---0--|
d]----------------------|
a]--10-10--10-10-10--5--|
d]----------------------|

Verse

e]--------------------------------------------------------------------------|
b]---12-12--12-12-12--12--7-7--7-7-7--7--8-8--8-8-8--8--12-12--12-12-10-8---|
g]---0--0---0--0--0---0---0-0--0-0-0--0--0-0--0-0-0--0--0--0---0--0--0--0---|
d]--------------------------------------------------------------------------|
a]---10-10--10-10-10--10--5-5--5-5-5--5--7-7--7-7-7--7--10-10--10-10-9--7---| x4
d]--------------------------------------------------------------------------|

e]-----------|
b]---7-5-3---|
g]---0-0-0---|
d]-----------|
a]---5-3-2---|
d]-----------|

Pre-Bridge

e]--------------------------------|
b]---5--3--3----------------------|
g]---0--0---2---------------------|
d]-----------0-----2-2-2-2-2--0---|
a]---3--2-----0----2-2-2-2-2--0---|
d]-------------0---2-2-2-2-2--0---|

e]--------------------------------------|
b]---5--3--3----------------------------|
g]---0--0---2---------------------------|
d]-----------0-----2-0-2--2-0-2--2-0----|
a]---3--2-----0----2-0-2--2-0-2--2-0----|
d]-------------0---2-0-2--2-0-2--2-0----|

e]-----------------------|
b]-----------------------|
g]-----------------------|
d]---9-9-x-9-9-9---------|
a]---7-7-x-7-7-7---------|
d]-----------------------|

Bridge

e]---------------------------------------------|
b]---------------------------------------------|
g]---------------------------------------------|
d]---2-0-2--2-0-2--6--0--2-0-2--2-0-2--6-7-0---|
a]---2-0-2--2-0-2--6--0--2-0-2--2-0-2--6-7-0---|
d]---2-0-2--2-0-2--6--0--2-0-2--2-0-2--6-7-0---|

e]---------------------------------------------------------|
b]------------------------------9-9-9-9-9-9-9-9-9-9-9-10-9-|
g]------------------------------8-8-8-8-8-8-8-8-8-8-8-8--8-|
d]---2-0-2--2-0-2--6--7--9-0-------------------------------|
a]---2-0-2--2-0-2--6--7--9-0-------------------------------|
d]---2-0-2--2-0-2--6--7--9-0-------------------------------|

Pre-Chorus

e]-----------------------------------|
b]-----------------------------------|
g]---6-6-6-6-6-6-6-6-6-6-6-6-6-6-4-4-|
d]---4-4-4-4-4-4-4-4-4-4-4-4-4-4-4-4-|
a]---4-4-4-4-4-4-4-4-4-4-4-4-4-4-4-4-|
d]---4-4-4-4-4-4-4-4-4-4-4-4-4-4-4-4-|

e]---7-7-7--9--9--9--7-7-7-7-7--9--9--9--9-9--|
b]--------------------------------------------|
g]--------------------------------------------|
d]---7-7-7--7--7--7--7-7-7-7-7--7--7--7--7-7--| [play only on first chorus]
a]---7-7-7--7--7--7--7-7-7-7-7--7--7--7--7-7--|
d]---7-7-7--7--7--7--7-7-7-7-7--7--7--7--7-7--|

e]-------------------------------------|
b]-------------------------------------|
g]---6-6-6-6-6-6-6-6-6-6-6-6-6-6-4-4---|
d]---4-4-4-4-4-4-4-4-4-4-4-4-4-4-4-4---|
a]---4-4-4-4-4-4-4-4-4-4-4-4-4-4-4-4---|
d]---4-4-4-4-4-4-4-4-4-4-4-4-4-4-4-4---|

Chorus

e]----------------------------------------|
b]----------------------------------------|
g]----------------------------------------|
d]---0-0-0-0-2-2-2-2--4-2-4-x-4-2-4-x-x---|
a]---0-0-0-0-2-2-2-2--4-2-4-x-4-2-4-x-x---| x2
d]---0-0-0-0-2-2-2-2--4-2-4-x-4-2-4-x-x---|

e]-------------------------------------------|
b]-------------------------------------------|
g]----------------------------------------2--|
d]---0--0-0-0-0--4--4-4-4-4---------2-2-0-0--|
a]---0--0-0-0-0--4--4-4-4-4--(x3)---2-2-0-0--|
d]---0--0-0-0-0--4--4-4-4-4---------2-2-0-0--|

Pre-Verse2

e]---------------------------------------------|
b]-------7--7-------7--7-----8--8--10-12-10-8--|
g]-----5--5-------5--5-------------------------|
d]---------------------------5--7--9--7--5-----|
a]---5--------6-6-------7-7--------------------|
d]---------------------------------------------|

e]----------------------------------------------|
b]-------7--7------7--7-------------------------|
g]-----5--5------5--5---------------------------|
d]------------------------------5-5--5-5-5--5---|
a]---5-------6-6--------7-----------------------|
d]------------------------------5-5--5-5-5--5---|

Go back to Verse 1

Pre-Bridge 2

e]--------------------------------|
b]---5--3--3----------------------|
g]---0--0---2---------------------|
d]-----------0-----2-2-2-2-2--0---|
a]---3--2-----0----2-2-2-2-2--0---|
d]-------------0---2-2-2-2-2--0---|

e]-------------------------------------------|
b]---5--3--3---------------------------------|
g]---0--0---2--------------------------------|
d]-----------0-----14-12-14-14-12-14--14-12--|
a]---3--2-----0----14-12-14-14-12-14--14-12--|
d]-------------0---14-12-14-14-12-14--14-12--|

e]----------------------------12-*----------|
b]--17--15--17---17--15--17---12-*----------|
g]--16--14--16---16--14--16---12-*----------|
d]--14--12--14---14--12--14-----------------|
a]------------------------------------------|
d]------------------------------------------|

Pre Chorus

e]-------------------------|
b]---------------7-------7-|
g]-9-9-9-9-9---9---9---9---|
d]-----------9-------9-----|
a]-------------------------|
d]-------------------------| x3

e]----------------------------|
b]-9-9-9-9-9-9-9-9-9-9-9-10-9-|
g]-8-8-8-8-8-8-8-8-8-8-8-8--8-|
d]----------------------------|
a]----------------------------|
d]----------------------------|


Go back to Chorus

Bridge

e]------------------------------------|
b]------------------------------------|
g]-------------------------------14---|
d]---7--3--4--3--6--7--11-12---12-----|
a]---7--4--4--5--7--7--12-12----------|
d]---7--3--4--3--6--7--11-12----------|

e]------------------------------------------|
b]-----------------------------------17-----|
g]-----------------------------14-------14--|
d]---7--3--4--3--6--7--11-12------12--------|
a]---7--4--4--5--7--7--12-12----------------|
d]---7--3--4--3--6--7--11-12----------------|

e]-------------------------------------------------------------------|
b]-------------------------------------------------------------------|
g]-------------------------------------------------------------------|
d]-------------------------------------------------------------------|
a]---7-7-7-7-7-7-7-7-4-4-4-4-4-4-4-4-4-4-4-4-4-4-4-4-5-5-5-5-5-5-5-5-|
d]---7-7-7-7-7-7-7-7-3-3-3-3-3-3-3-3-4-4-4-4-4-4-4-4-3-3-3-3-3-3-3-3-|
PM   . . . . . . . . . . . . . . . . . . . . . . . . . . . . . . . .

e]------------------------------------------|
b]------------------------------------------|
g]---------------------------14-14-14-14----|
d]------------------------------------------|
a]---7-7-7-7-7-7-7-7-7-7-7-7-12-12-12-12----|
d]---6-6-6-6-6-6-6-6-7-7-7-7-11-11-11-11----|
PM   . . . . . . . . . . . . . . . .

Pre Outro

e]--------------------|
b]--------------------|
g]---2--2-2-2-2--2-2--|
d]---0--0-0-0-0--0-0--|
a]---0--0-0-0-0--0-0--| x4
d]---0--0-0-0-0--0-0--|

Outro Chorus

e]-----------------------------------|
b]-----------------------------------|
g]---9-9-9-9-9-9-9-9-9-9-9-9-9-9-9-9-|
d]---7-7-7-7-7-7-7-7-0-0-0-0-0-0-0-0-|
a]---7-7-7-7-7-7-7-7-0-0-0-0-0-0-0-0-| x4
d]---7-7-7-7-7-7-7-7-0-0-0-0-0-0-0-0-|

Outro

e]----------------------------|
b]-----------------7-7--7h9-9-|
g]----------------------------|
d]---9-9--7h9-9---------------|
a]---7-7--7---7----5-5--5---5-|
d]----------------------------| x2

e]-------------------------------|
b]---10-10--9--10---9-9--10--7---|
g]------------------7-7--7---7---|
d]---9--9---9--9-----------------|
a]---7--7---7--7----5-5--5---5---|
d]-------------------------------|

e]-------------------------------|
b]---10-10--9--10---9---9-10-7---|
g]------------------7---7-7--7---|
d]---9--9---9--9-----------------|
a]---7--7---7--7----5---5-5--5---|
d]-------------------------------|


-----------------------------------------------------------------------------


Diary Of Always
Biffy Tab Team

*Guitar starts at 1.14

Verse 1

e]---------2------------|
b]------------3---------|
g]-----4----------------|
d]-0/2---2--------------|
a]----------------------|
d]----------------------|

e]----------3-----------|
b]-------------3--------|
g]----0-----------------|
d]-0-----0--------------|
a]----------------------|
d]----------------------|

e]----------3-----------|
b]-------------3--------|
g]-----0----------------|
d]-------0--------------|
a]--3-------------------| x2
d]----------------------|

Repeat

e]-----------*-------|
b]---------*---------|
g]-------*--play-----|
d]-----*--string-----|
a]---*---before-nut--|
d]-*-----------------|

Verse 2

e]-------------------|
b]-------0--1--3-----|
g]----0--------------|
d]-0-----------------|
a]-------------------| x2
d]-------------------|

e]------------------------|
b]------------12--12--13--|
g]--------12--------------|
d]----12------------------|
a]10----------------------| x2
d]------------------------|

Repeat

e]-------------------|
b]-------0--1--3-----|
g]----0--------------|
d]-0-----------------|
a]-------------------| x2
d]-------------------|

e]-----------5-----------|
b]--------------3--------|
g]--------0--------------|
d]-----0-----------------|
a]-----------------------| x2
d]--5--------------------|

e]---------2------------|
b]------------3---------|
g]-----4----------------|
d]-0/2---2--------------|
a]----------------------|
d]----------------------|

e]----------3-----------|
b]-------------3--------|
g]----0-----------------|
d]-0-----0--------------|
a]----------------------|
d]----------------------|

e]----------3-----------|
b]-------------3--------|
g]-----0----------------|
d]-------0--------------|
a]--3-------------------|
d]----------------------|

e]-----------*-------|
b]---------*---------|
g]-------*--play-----|
d]-----*--string-----|
a]---*---before-nut--|
d]-*-----------------|

Repeat Verse 1

Ending

e]---------2------------|
b]------------3---------|
g]-----4----------------|
d]-0/2---2--------------|
a]----------------------|
d]----------------------|

e]----------3-----------|
b]-------------3--------|
g]----0-----------------|
d]-0-----0--------------|
a]----------------------|
d]----------------------|

e]-3-3-3-3-3-3-3-3-3-3-3--|
b]-3-3-3-3-3-3-3-3-3-3-3--|
g]-0-0-0-0-0-0-0-0-0-0-0--|
d]------------------------|
a]-3-3-3-3-3-3-3-3-3-3-3--|
d]------------------------|

e]-----------*-------|
b]---------*---------|
g]-------*--play-----|
d]-----*--string-----|
a]---*---before-nut--|
d]-*-----------------|


-----------------------------------------------------------------------------


Questions & Answers
Biffy Tab Team

Intro

e]----------------F---|
b]----3-----------E---|
g]----0-----------E-B-|
d]--0------0---5--D-A-|
a]--0------0--------C-|
d]--0------0--------K-|

Verse

e]--------------------------------------------------------------|
b]--------------------------------------------------------------|
g]--------------------------------------------------------------|
d]--------------------------------------------------------------|
a]--7-7-7-7-9-9-9--9-9-9-9-9-9---7-7-7-7-9-9-9----9-9-9-9-9-9---| x3
d]--0-0-0-0-0-0-0--9-9-9-7-7-7---0-0-0-0-0-0-0-0--9-9-9-7-7-7---|

Break Part 1

e]--------------------------------------------------|
b]-------7-------7-------7-------7------------------|
g]-------7-------7-------7-------7------------------|
d]--5-5--5--5-5--5--5-5--5--5-5--5--5-5-------------|
a]--5-5-----5-5-----5-5-----5-5-----5-5-------------|
d]--5-5-----5-5-----5-5-----5-5-----5-5-------------|

Break Part 2

e]--------------------------------------|
b]--------------------------------------|
g]--9-9-9-9-11-11-11-11-11-11-11-11-11--|
d]--------------------------------------|
a]--7-7-7-7-9--9--9--9--9--9--9--9--9---| x2
d]----------0--0--0--9--9--9--7--7--7---|

Go back to Verse x2
           Break Part 1

Chorus

e]------------------------------------------------------------------|
b]------------------------------------------------------------------|
g]--7-7-7-7-7-7-7-6-6-6-6-6-6-6-6-6-9-9-9-9-9-11-9-6-6-6-6-6-6-6-6--|
d]--7-7-7-7-7-7-7-5-5-5-5-5-5-5-5-5-9-9-9-9-9-9--9-5-5-5-5-5-5-5-5--|
a]--5-5-5-5-5-5-5-5-5-5-5-5-5-5-5-5-9-9-9-9-9-9--9-5-5-5-5-5-5-5-5--| x2
d]--0-0-0-0-0-0-0-5-5-5-5-5-5-5-5-5-9-9-9-9-9-9--9-5-5-5-5-5-5-5-5--|

Post Chorus

e]------------------------------------------|
b]------------------------------------------|
g]------------------------------------------|
d]--11----9-----11/14-14--(x4)--------------|
a]--9-----9-----9-/12-12--------------------|
d]--9-----9-----0------0--------------------|

Post Chorus 2

e]-----------------------------------------|
b]-----------------------------------------|
g]------9-----9------------9------9--------|
d]----7-----7-----7------7-----7------7----|
a]--7-----7-----7-----5-----5-------5------| x2
d]-----------------------------------------|

e]----------------------------------------------|
b]----------------------------------------------|
g]--9-9-9-9-9-9-9-9-9-9-9-9-9-9-9-9-------------|
d]--7-7-7-7-7-7-7-7-7-7-7-7-7-7-7-7-------------|
a]--7-7-7-7-7-7-7-7-5-5-5-5-5-5-5-5-------------|
d]------------------0-0-0-0-0-0-0-0-------------|

Back to Break Part 1

Pre-Chorus

e]--------------------------------------------------------|
b]----------------------------------------7-------7-------|
g]--9-9-9-9-9-9-9-9-7-7-7-7-7-7-7-7-------7-------7-------|
d]--9-9-9-9-9-9-9-9-7-7-7-7-7-7-7-7--5-5--5--5-5--5--5-5--|
a]--7-7-7-7-7-7-7-7-5-5-5-5-5-5-5-5--5-5--5--5-5--5--5-5--| x2
d]------------------0-0-0-0-0-0-0-0--5-5--5--5-5--5--5-5--|

Back to Chorus x2

Pre Solo Part1

e]--------------------------------------------------|
b]--------------------------------------------------|
g]-12-12-12-12-12-12-12-12-11-11-11-11-11-11-11-9-9-|
d]--------------------------------------------------|
a]-10-10-10-10-10-10-10-10-9--9--9--9--9--9--9--7-7-|
d]-0--0--0--0--0--0--0--0--0--0--0--0--0--0--0--0-0-|

e]-------------------------------------------------|
b]-------------------------------------------------|
g]-14-14-14-14-14-14-14-14-11-11-11-11-11-11-11-11-|
d]-------------------------------------------------|
a]-12-12-12-12-12-12-12-12-9--9--9--9--9--9--9--9--|
d]-0--0--0--0--0--0--0--0--0--0--0--0--0--0--0--0--|

Pre Solo Part2

e|---------------------------------------------|
h|--------------------------------------10-10--|
g|--9---11---9--11-11---12--11-11---12--11-11--|
d|---------------------------------------------|
a|--7---9----7--9--9----10--9--9----10--9--9---|
D|---------------------------------------------|

Solo:

e]--------------------------------------------|
b]----------------------------------14--------|
g]---------------------------14-16-----14-12--|
d]--14--16\---14--16-16-----------------------|
a]--------------------------------------------|
d]--------------------------------------------|

e]-----------------------------------|
b]----------------14-----------------|
g]---------14-16-----14-12-----------|
d]-12/14--------------------12/14-12-|
a]-----------------------------------|
d]-----------------------------------|

Back to Chorus x2

Outro

e]----------------------------------------------|
b]----------------------------------------------|
g]-12-12-12-12-12-12-12-12-11-11-11-11-11-11-11-|
d]----------------------------------------------|
a]-10-10-10-10-10-10-10-10-9--9--9--9--9--9--9--|
d]-0--0--0--0--0--0--0--0--0--0--0--0--0--0--0--|

e]------------------------------------------------------|
b]------------------------------------------------------|
g]-9-9-14-14-14-14-14-14-14-14-11-11-11-11-11-11-11-11--|
d]------------------------------------------------------|
a]-7-7-12-12-12-12-12-12-12-12-9--9--9--9--9--9--9--9---|
d]-0-0-0--0--0--0--0--0--0--0--0--0--0--0--0--0--0--0---|

Back to Chorus

Ending

e]------------------------------------------|
b]-----------------7------------------------|
g]--11-12--14---7--7------------------------|
d]-----------------5------------------------|
a]--9--10--12---5--5------------------------|
d]--0--0---0----0--5------------------------|


-----------------------------------------------------------------------------


Eradicate the Doubt
Biffy Tab Team

Intro/Verse

e]-----------------------------------------------------------|
b]-----3-------3-------3--------7-------10-10------------10\-|
g]-------2-------2-------2----------------------11-11--------|
d]---0-------0-------0-------7----7--------------------------|
a]-----------------------------------------------------------|
d]-0-------4-------3-------7--------0------------------------|

e]-------------------8-8--------12/--------------------------|
b]------------------------10-10-------2-2-2------------------|
g]------------------------------------2-2-2-5\---------------|
d]-3-3--3-3/5-5-----------------------2-2-2-5\---------------|
a]-3-3--3-3/5-5-----------------------0-0-0-3\---------------|
d]-3-3--3-3/5-5--0-0-----------------------------------------|

Pre Chorus 1

e]------------------------------|
b]------------------------------|
g]------------------------------|
d]-5-5/-7-7-7-7-7-7-7-7-7-7-7-7-|
a]-3-3/-5-5-5-5-5-5-5-5-5-5-5-5-| x8
d]------------------------------|

Chorus

e]---------------------------------------------------------|
b]---------------------------------------------------------|
g]-------------------------------------7p0--0-7-7--7-7-7\--|
d]------------------------------------7----9---------------|
a]-0-2-3/-10-8--8-888-88-8-9-7--0--8-----------------------| x2
d]-0-2-3/-10-8--8-888-88-8-9-7--0--------------------------|

Go back to Verse

Pre Chorus 2

e]-------------------------------------------------|--------------------|
b]-------------------------------------------------|-----------10-8-----|
g]-9--9/--11-11-11-11-11-11-11-11-11-11-11-11------|--10---9-0------10--|
d]-10-10/-12-12-12-12-12-12-12-12-12-12-12-12-(x4)-|--------------------|
a]-10-10/-12-12-12-12-12-12-12-12-12-12-12-12------|--------------------|
d]-------------------------------------------------|--------------------|

Pre Chorus 1 x4

Break

e]------------------------------|
b]------------------------------|
g]------------------------------|
d]------------------------------|
a]-0-0--1-1-1-1-1-1-1-1-1-1-1-1-|
d]-0-0--1-1-1-1-1-1-1-1-1-1-1-1-|

Pre Chorus 1 x4

Pre Bridge

e]--------------------|-------------------------------------------|
b]----------10-8------|8----8--8----8----8--8--8--8--8--8--8--8---|
g]-10---9-7------10-0-|9----9--9----9----9--9--9--9--9--9--9--9---|
d]--------------------|10---10-10---10---10-10-10-10-10-10-10-10--|
a]--------------------|-------------------------------------------|
d]--------------------|-------------------------------------------|

e]-------------------------------------------|---------------------|
b]-10---10-10---10---10-10-10-10-10-10-10-10-|10---10-10---10---10-|
g]-10---10-10---10---10-10-10-10-10-10-10-10-|10---10-10---10---10-|
d]-12---12-12---12---12-12-12-12-12-12-12-12-|8----8--8----8----8--|
a]-------------------------------------------|---------------------|
d]-------------------------------------------|---------------------|

e]----------------------|----------------------------------------|
b]-10-10-10-10-10-10-10-|----------------------------------------|
g]-10-10-10-10-10-10-10-|-----17--15-15-17-17-17-15--------------|
d]-8--8--8--8--8--8--8--|----------------------------------------|
a]----------------------|-----15--12-12-15-15-15-12--------------|
d]----------------------|0--0-0---0--0--0--0--0--0---------------|

Repeat

Back to Chorus

Bridge

e]-------------------------------------------------------------------|
b]--------------------------------------------10--10--10--10--10--10-|
g]--------------------------------------------10--10--10--10--10--10-|
d]--0----0-----x--x---------x--0---0--0-------8---8---8---8---8---8--|
a]--0----0-----x--x---------x--0---0--0------------------------------|
d]--0----0-----x--x---------x--0---0--0------------------------------|

e]-----------------------------------------------12----------------------|
b]-------------------------------------------------------13--------------|
g]---------------------------------------------------------------14\-----|
d]-0------0-------x--x-----x--0---0--0---------------------------------0-|
a]-0------0-------x--x-----x--0---0--0---------------------------------0-|
d]-0------0-------x--x-----x--0---0--0---------------------------------0-|

Repeat

Arpeggios

e]---------------------|5--------------------|8------------------|
b]--------------6------|-------6-------------|-------8-----------|
g]-------7-------------|--------------7------|--------------9----|
d]8--------------------|---------------------|-------------------|
a]---------------------|---------------------|-------------------|
d]---------------------|---------------------|-------------------|

e]---------------------|
b]5--------------------|
g]-------5-------------|
d]--------------7------|
a]---------------------|
d]---------------------|

Repeat

e]---------------------|5--------------------|8--------------------|
b]--------------6------|-------6-------------|8--------------------|
g]-------7-------------|--------------7------|9--------------------|
d]8--------------------|---------------------|---------------------|
a]---------------------|---------------------|---------------------|
d]---------------------|---------------------|---------------------|

Outro Part 1

e]---------------------------------|--------------------------|
b]---------------------------------|--------------------------|
g]------17-15-15-17-17-17-15-15-15-|-----16-13-13-13-16-16-16-|
d]---------------------------------|--------------------------|
a]------15-12-12-15-15-15-12-12-12-|-----14-11-11-11-14-14-14-|
d]-0--0-0--0--0--0--0--0---0--0--0-|0--0-0--0--0--0--0--0--0--|

e]----------------------------------------------------------|
b]-8-----8---8-----8---8---8-----8---8---8---8---8---8---8--|
g]-9-----9---9-----9---9---9-----9---9---9---9---9---9---9--|
d]-10----10--10----10--10--10----10--10--10--10--10--10--10-|
a]-10----10--10----10--10--10----10--10--10--10--10--10--10-|
d]-10----10--10----10--10--10----10--10--10--10--10--10--10-|

e]----------------------------------------------------------|
b]-10----10--10----10--10--10----10--10--10--10--10--10--10-|
g]-10----10--10----10--10--10----10--10--10--10--10--10--10-|
d]-8-----8---8-----8---8---8-----8---8---8---8---8---8---8--|
a]-8-----8---8-----8---8---8-----8---8---8---8---8---8---8--|
d]-8-----8---8-----8---8---8-----8---8---8---8---8---8---8--|

Repeat

Outro Part 2

e]--------------------------------------------------------------------|
b]-10--10------10--10------10--10------10--10------10--10------10--10-|
g]-10--10------10--10------10--10------10--10------10--10------10--10-|
d]-8---8-------8---8-------8---8-------8---8-------8---8-------8---8--|
a]--------------------------------------------------------------------|
d]--------------------------------------------------------------------|

e]-----------------------------------------------------|
b]-10--10------10--10----------------------------------|
g]-10--10------10--10-----------10---9----------10---9-|
d]-8---8-------8---8--------8---------------8----------|
a]-----------------------------------------------------|
d]-----------------------------------------------------|

Outro Part 3

e]--------------------------------------------------------------------------|
b]--------------------------------------------------------------------------|
g]--------------------------------------------------------------------------|
d]-3---------/7---------0---------3---------2---------3--------/7---------0-|
a]-3---------/7---------0---------3---------2---------3--------/7---------0-|
d]-3---------/7---------0---------3---------2---------3--------/7---------0-|

e]-------------------------------|
b]-------------------------------|
g]-----10---9----------10---9----|
d]-8---------------8-------------|
a]-------------------------------|
d]-------------------------------|

Repeat

Outro Part 4

e]10---10------10---10------10---10------10---10------10---10----|
b]11---11------11---11------11---11------11---11------11---11----|
g]---------------------------------------------------------------|
d]---------------------------------------------------------------|
a]---------------------------------------------------------------|
d]---------------------------------------------------------------|

e]-11---11------13---13------11---11-----------------------------------|
b]-11---11------11---11------11---11-----------------------------------|
g]--------------------------------------------10---9----------10---9---|
d]----------------------------------------8---------------8------------|
a]---------------------------------------------------------------------|
d]---------------------------------------------------------------------|

Outro Part 5

e]--------------------------------------------------------------------------|
b]--------------------------------------------------------------------------|
g]--------------------------------------------------------------------------|
d]-3---------/7---------0---------3---------2---------3--------/7---------0-|
a]-3---------/7---------0---------3---------2---------3--------/7---------0-|
d]-3---------/7---------0---------3---------2---------3--------/7---------0-|

e]-------------------------------------------------------------------------|
b]-------------------------------------------------------------------------|
g]-----10---9----------10---9----------10---9----------10---9--------------|
d]-8---------------8---------------8---------------8-----------------------|
a]-------------------------------------------------------------------------|
d]-------------------------------------------------------------------------|


-----------------------------------------------------------------------------


When The Factions Fractioned
Biffy Tab Team

Verse 1

e]-----------------0--------|
b]--------------------------|
g]-----------------9--------|
d]--------------------------|
a]---7h9p7p0----------------| x8
d]--------------------------|

e]-----------------------0--------------------|
b]-------------7--------------7-----------7---|
g]--------6---------6---------------6---------|
d]---4----------------------------------------| x2
a]--------------------------------------------|
d]--------------------------------------------|

Repeat Verse 1 x4

Pre-Chorus

e]--------------------------------------|
b]--------------------------------------|
g]--11-11-11-11-------11-11-11-11-------|
d]--11-11-11-11-(x4)--11-11-11-11--(x4)-|
a]--9--9--9--9--------9--9--9--9--------|
d]--9--9--9--9--------0--0--0--0--------|

Repeat

Chorus

e]------------------------------|
b]--10--10-10--10-10--10-10-10--|
g]--7---7--7---7--7---7--7--7---|
d]--7---7--7---7--7---7--7--7---|
a]--7---7--7---7--7---7--7--7---| x2
d]--7---7--7---7--7---7--7--7---|

e]------------------------------|
b]--12--12-12--12-12--12-12-12--|
g]------------------------------|
d]--11--11-11--11-11--11-11-11--|
a]--9---9--9---9--9---9--9--9---| x2
d]------------------------------|

e]---------------------------------|
b]--9--9-9-10--10-10-12--9--9-9-10-|
g]--7--7-7-7---7--7--7---7--7-7-7--|
d]--7--7-7-7---7--7--7---7--7-7-7--|
a]--7--7-7-7---7--7--7---7--7-7-7--|
d]--7--7-7-7---7--7--7---7--7-7-7--|

e]-----------------------|
b]--12---12-12-10--------|
g]-----------------------|
d]--11---11-11-11--(x5)--|
a]--9----9--9--9---------|
d]-----------------------|

Pre-Chorus

e]--------------------------------------|
b]--------------------------------------|
g]--11-11-11-11-------11-11-11-11-------|
d]--11-11-11-11-(x4)--11-11-11-11--(x4)-|
a]--9--9--9--9--------9--9--9--9--------| x2
d]--9--9--9--9--------0--0--0--0--------|

e]--------------------------------------|
b]--------------------------------------|
g]--14-14-14-14--------14-14-14-14------|
d]--16-16-16-16-(x4)---16-16-16-16-(x4)-|
a]--14-14-14-14--------16-16-16-16------| x2
d]--14-14-14-14--------16-16-16-16------|

e]-----------------------------------------0---|
b]--------------------7------------------------|
g]-----14------7------7-------14-----11----9---|
d]-----12------5--------------12-----9-----10--|
a]--------------------5------------------------|
d]--------------------0------------------------|

Solo

e]------------------------------|
b]-------------------------7----|
g]-11-----------7--------7------|
d]----12-9--5s7---5--5s7--------|
a]------------------------------|
d]------------------------------|

e]------------------------------|
b]-------------------------5----|
g]-11-----------7--------7------|
d]----12-9--5s7---5--5s7--------|
a]------------------------------|
d]------------------------------|

Repeat Solo

e]-----------|
b]-----------|
g]----5->----|
d]------>----|
a]----3->----|
d]-----------|

Repeat Gradually Getting Louder

e]-----------------------------|
b]-----------------------------|
g]--7-/-9-9-9-9-9-/-7-7--------|
d]-----------------------(x4)--|
a]--5-/-7-7-7-7-7-/-5-5--------|
d]-----------------------------|

Strum - Listen to Song for timing

e]------------------|
b]------------------|
g]--9---5---4---9---|
d]--7---5---5---7---|
a]--7---3---3---7---|
d]--7-----------7---|

e]------------------|
b]------------------|
g]--5---4---9-------|
d]--5---5---7--(x4)-|
a]--3---3---7-------|
d]----------7-------|

e]----Repeat Over--------------|
b]-----------------------------|
g]---------12-------12------12-|
d]------10-------10------10----|
a]-/-10-------10-------10------|
d]-----------------------------|

e]--------------------|
b]--------------------|
g]---5-5-5-5---7---7--|
d]---3-3-3-3---5---5--|
a]---3-3-3-3---5---5--| (x4)
d]---3-3-3-3---5---5--|

e]---------------------|
b]---------------------|
g]---------------------|
d]-----6-----2-----10--|
a]-----6-----2-----10--|
d]-----6-----2-----10--|


-----------------------------------------------------------------------------


Toys Toys Toys Choke Toys Toys Toys
Biffy Tab Team

Verse

e]------------------------------------------------------------------|
b]------------------------------------------------------------------|
g]-----------------------------------------------------5-5--7-7-5---|
d]--7-7-7-7-7-7-7-7--7-7-7-7-7-7-7-7--3-3-3-3-3-3-3-3--5-5--5-5-3---|
a]--7-7-7-7-7-7-7-7--7-7-7-7-7-7-7-7--3-3-3-3-3-3-3-3--3-3--5-5-3---| x3
d]--7-7-7-7-7-7-7-7--0-0-0-0-0-0-0-0--3-3-3-3-3-3-3-3-------5-5-3---|

Break

e]--------------------------------------------------------|
b]--------------------------------------------------------|
g]--------------------------------------------------------|
d]---------0-0-14--0-0-14----------------15-------15------|
a]---------------------------------13-13----13-13---------|
d]--------------------------------------------------------|

e]------------------------------------------------------------|
b]------------------------------------------------------------|
g]------------------------------------------------------------|
d]-------------------17-------17-------14-------14\------15---|
a]-------------15-15----15-15----15-15----15-15----13-13------|
d]------------------------------------------------------------|

e]------------------------------------------|
b]------------------------------------------|
g]------------------------------------------|
d]---------15-------12-------12\11----------|
a]---13-13----13-13----13-13----------------|
d]------------------------------------------|

Back to Verse
        Break

e]-F-E-E-D---|
b]-B-A-C-K---|
g]-----------|
d]---15------|
a]-----------| x2
d]-----------|

Verse 2

e]-------------------------------------------------------|
b]-------------------------------------------------------|
g]-------------------------------------------------------|
d]--7-7-7-7-7-7-7-7-7---7-7-7-7-7-7-7-7--0---3---5-------|
a]--7-7-7-7-7-7-7-7-7---7-7-7-7-7-7-7-7--0---3---5-------|
d]--7-7-7-7-7-7-7-7-7---0-0-0-0-0-0-0-0--0---3---5-------|

e]--------------------------|
b]--------------------------|
g|-9b-9b-9b-9b-9b-9b-9b-9b--|
d]--------------------------|
a]--------------------------|
d]--------------------------|

e]---------------------------------------------------------|
b]---------------------------------------------------------|
g]-12p0-0-14--12p0-0-14--12p0-0-14--12p0-0-14--------------|
d]----------------------------------------------0---3---5--|
a]----------------------------------------------0---3---5--|
d]----------------------------------------------0---3---5--|

Chorus

e]-----------------------------------------------|
b]------------8-8-8-8--10-10-10-10--6-6-5-5------|
g]---2-2-2-2--0-0-0-0---------------0-0-0-0------|
d]---0-0-0-0-----------10-10-10-10--7-7-7-7------|
a]---0-0-0-0--8-8-8-8---------------7-7-7-7------|
d]---0-0-0-0-----------10-10-10-10--7-7-7-7------| x2

Quiet Part

e]------------------------------------------------------------|
b]--15-------17-------13----------11---11--11-etc-------------|
g]--14-------17-------14-------14---14---14---etc-------------|
d]------------------------------------------------------------|
a]------------------------------------------------------------|
d]------------------------------------------------------------|

e]-------------------15----15----15-etc--------12----13----12----13---|
b]--15----17-------13----13----13---etc------11----11----11----11-----|
g]--14----17-----15----15----15-----etc----14----14----14----14-------|
d]--------------------------------------------------------------------|
a]--------------------------------------------------------------------|
d]--------------------------------------------------------------------|

Repeat above BUT with distorion

Go back to Verse 2
           Chorus

Bridge

e]-----------------------------------|
b]-----------------------------------|
g]-----------------------------------|
d]--0--0--0--0--0--0---8-7-8-10------|
a]--0--0--0--0--0--0---8-7-8-10------|
d]--0--0--0--0--0--0---8-7-8-10------|

Go back to Quiet Part

Outro

e]--------------------------------------------------------------|
b]--------------------------------------------------------------|
g]--------------------------------------------------------------|
d]--8-7-0-3-0-0----0-3-0-8-10-10----8-7-0-8-10-10--88-88-88-88--|
a]--8-7-0-3-0-0----0-3-0-8-10-10----8-7-0-8-10-10--88-88-88-88--|
d]--8-7-0-3-0-0----0-3-0-8-10-10----8-7-0-8-10-10--88-88-88-88--|

Repeat

Ending

e]----------8-9-10---|
b]------8-9----------|
g]--7-8--------------|
d]-------------------|
a]-------------------|
d]-------------------|


-----------------------------------------------------------------------------


All The Way Down (Prologue/Chapter 1)
Biffy Tab Team

Verse 1

e]--------------------------------0-0-0--0--|
b]--1-1-1-1---1-1-1-1---1-1-1-1---1-1-1--0--|
g]--0-0-0-0---0-0-0-0---0-0-0-0---2-2-2--2--|
d]--2-2-2-2---2-2-2-2---2-2-2-2---0-0-0-----|
a]--0-0-0-0---3-3-3-3---3-3-3-3---0-0-0-----| x2
d]------------3-3-3-3---2-2-2-2---0-0-0-----|

e]----------------------------------------------|
b]--1-1-1-1---1-1-1-1---1-1-1-1---1-0-0--1-0-0--|
g]--0-0-0-0---0-0-0-0---2-2-2-2---2-0-0--2-0-0--|
d]--2-2-2-2---2-2-2-2---3-3-3-3---3-3-3--3-3-3--|
a]--0-0-0-0---3-3-3-3---3-3-3-3---3-3-3--3-3-3--|
d]----------------------------------------------|

e]--0----0--------0----0----|
b]--1----3----0---5----5----|
g]--0----0--------0----5----|
d]--2----0--------5----5----|
a]--0----2--------3----3----|
d]---------------------3----|

e]------------------------|
b]--3-3-3-3---5-5---5-5---|
g]--0-0-0-0---5-5---0-0---|
d]--5-5-5-5---7-7---3-3---|
a]--5-5-5-5---7-7---3-3---| x3
d]--5-5-5-5---7-7---3-3---|

Repeat

e]-------------0--0--0--0--|
b]--3-3-3-3-/--0--0--0--0--|
g]--0-0-0-0-/-13-13-13-13--|
d]--5-5-5-5-/-14-14-14-14--|
a]--5-5-5-5-/-14-14-14-14--|
d]--5-5-5-5-/-14-14-14-14--|

Pre Bridge

e]-------------------------------|
b]-------------------------------|
g]-------------------14-14-14-14-|
d]-12-12-12-12-12-12-12-12-12-12-|
a]-12-12-12-12-12-12-12-12-12-12-|
d]-12-12-12-12-12-12-12-12-12-12-|

Bridge

e]-------------------------------------|
b]-------------------------------------|
g]-11-11-11-9--9--9--7--7--7--14-14-14-|
d]-9--9--9--9--9--9--9--9--9--12-12-12-|
a]-9--9--9--9--9--9--9--9--9--12-12-12-|
d]-9--9--9--9--9--9--9--9--9--12-12-12-|

e]-----------------------------|
b]-----------------------------|
g]-7-7-7-6-6-6-4-4-4--14-14-14-|
d]-5-5-5-5-5-5-5-5-5--12-12-12-|
a]-5-5-5-5-5-5-5-5-5--12-12-12-|
d]-5-5-5-5-5-5-5-5-5--12-12-12-|

Repeat x4

Solo

e]-------------------------------|
b]-------------------------------|
g]-----14---------14------14-----|
d]-0-0----0--0-12----12-14--14---|
a]-------------------------------|
d]-------------------------------|

e]-----------------------------------|
b]-----------------------------------|
g]-----14---------14-------11-12-14--|
d]-0-0----0--0-12----12-14-----------|
a]-----------------------------------|
d]-----------------------------------|

Repeat x4

e]---------------------------|
b]---------------------------|
g]--12--11------12-----------|
d]----------12---------------|
a]---------------------------|
d]---------------------------|

Verse 2

e]---------------------------|
b]---------------------------|
g]-6-6-6-6-6-----7-----------|
d]-7-7-7-7-7-----7-----------|
a]-4-4-4-4-4-----5-----------|
d]---------------0-----------|

Repeat x4

Verse 3

e]------------------------------|
b]---7-7-----7-7----7-7----7-7--|
g]----7-7-----7-7----7-7----7-7-|
d]------------------------------|
a]------------------------------|
d]-0-------0------0------0------|

e]-------------------------------|
b]---7-7-----7-7----7-7----7-7---|
g]----7-7-----7-7----7-7----7-7--|
d]-------------------------------|
a]-------------------------------|
d]-5-------5------5------5-------|

Repeat x3

e]---------------------------|
b]---------------------------|
g]-6-6-6-6-6-----7-----------|
d]-7-7-7-7-7-----7-----------|
a]-4-4-4-4-4-----5-----------|
d]---------------0-----------|

Repeat x3

e]-------------------------------|
b]-------------------------------|
g]-6-6-6-6-6-----7-7-7-7-7-7-7-7-|
d]-7-7-7-7-7-----7-7-7-7-7-7-7-7-|
a]-4-4-4-4-4-----5-5-5-5-5-5-5-5-|
d]---------------0-0-0-0-0-0-0-0-|

Pre Bridge 2

e]---------------------------------|
b]---------------------------------|
g]-7-7-7-7-7-7-7-7-7-7-7-7-7-7-7-7-|
d]-7-7-7-7-7-7-7-7-7-7-7-7-7-7-7-7-|
a]-5-5-5-5-5-5-5-5-5-5-5-5-5-5-5-5-|
d]-0-0-0-0-0-0-0-0-0-0-0-0-0-0-0-0-|

e]---------------------------------|
b]---------------------------------|
g]-7-7-7-7-7-7-7-7-7-7-7-7-7-7-7-7-|
d]-5-5-5-5-5-5-5-5-5-5-5-5-5-5-5-5-|
a]-5-5-5-5-5-5-5-5-5-5-5-5-5-5-5-5-|
d]-5-5-5-5-5-5-5-5-5-5-5-5-5-5-5-5-|

Repeat

e]-------------------------------------|
b]-------------------------------------|
g]-6-6-6-6-6-----6-7-7-7-7-6-7-7-6-6-6-|
d]-7-7-7-7-7-----7-7-7-7-7-7-7-7-7-7-7-|
a]-4-4-4-4-4-----5-5-5-5-5-5-5-5-5-5-5-|
d]---------------0-0-0-0-0-0-0-0-0-0-0-|

Repeat x4

Bridge 2

e]---------------------------------|
b]---------------------------------|
g]-2-2-2-2-2-2-2-2-2-2-2-2-2-2-2-2-|
d]-0-0-0-0-0-0-0-0-0-0-0-0-0-0-0-0-|
a]-0-0-0-0-0-0-0-0-0-0-0-0-0-0-0-0-|
d]-0-0-0-0-0-0-0-0-0-0-0-0-0-0-0-0-|

e]---------------------------------|
b]---------------------------------|
g]-7-7-7-7-7-7-7-7-7-7-7-7-7-7-7-7-|
d]-5-5-5-5-5-5-5-5-5-5-5-5-5-5-5-5-|
a]-5-5-5-5-5-5-5-5-5-5-5-5-5-5-5-5-|
d]-5-5-5-5-5-5-5-5-5-5-5-5-5-5-5-5-|

e]---------------------------------|
b]---------------------------------|
g]-9-9-9-9-9-9-9-9-9-9-9-9-9-9-9-9-|
d]-0-0-0-0-0-0-0-0-0-0-0-0-0-0-0-0-|
a]-x-x-x-x-x-x-x-x-x-x-x-x-x-x-x-x-|
d]-9-9-9-9-9-9-9-9-9-9-9-9-9-9-9-9-|

e]---------------------------------|
b]---------------------------------|
g]-7-7-7-7-7-7-7-7-7-7-7-7-7-7-7-7-|
d]-5-5-5-5-5-5-5-5-5-5-5-5-5-5-5-5-|
a]-5-5-5-5-5-5-5-5-5-5-5-5-5-5-5-5-|
d]-5-5-5-5-5-5-5-5-5-5-5-5-5-5-5-5-|

Verse 4

e]---------------------------------|
b]-7-7-7-7-7-7-7-7-7-7-7-7-7-7-7-7-|
g]-7-7-7-7-7-7-7-7-7-7-7-7-7-7-7-7-|
d]-0-0-0-0-0-0-0-0-0-0-0-0-0-0-0-0-|
a]-0-0-0-0-0-0-0-0-0-0-0-0-0-0-0-0-|
d]-0-0-0-0-0-0-0-0-0-0-0-0-0-0-0-0-|

e]---------------------------------|
b]-7-7-7-7-7-7-7-7-7-7-7-7-7-7-7-7-|
g]-7-7-7-7-7-7-7-7-7-7-7-7-7-7-7-7-|
d]-5-5-5-5-5-5-5-5-5-5-5-5-5-5-5-5-|
a]-5-5-5-5-5-5-5-5-5-5-5-5-5-5-5-5-|
d]-5-5-5-5-5-5-5-5-5-5-5-5-5-5-5-5-|

Repeat x2

Go Back to Bridge 2

Outro

e]--------------------------------------------|
b]-7-7-7--7-7-7----8-8/7-7-7-7----------7-7-7-|
g]-7-7-7--7-7-7----------7-7-7----------7-7-7-|
d]-0-0-0--0-0-0(x)-------5-5-5--9-9--7--0-0-0-|
a]-0-0-0--0-0-0(x)-7-7/5-5-5-5--9-9--7--0-0-0-|
d]-0-0-0--0-0-0(x)-------5-5-5--9-9--7--0-0-0-|

e]-------------------------------------------|
b]-7-7-7--7-7-7----8-8/7-7-7-7---------------|
g]-7-7-7--7-7-7----------7-7-7--9-9-7-9-11---|
d]-0-0-0--0-0-0(x)-------5-5-5-------------0-|
a]-0-0-0--0-0-0(x)-7-7/5-5-5-5--7-7-5-7-9--0-|
d]-0-0-0--0-0-0(x)-------5-5-5-------------0-|


-----------------------------------------------------------------------------


Man Of His Appauling Posture
Biffy Tab Team

Intro Part 1

e]----------------------------------|
b]--11-11-11-11--------10-10-10-10--|
g]--10-10-10-10--(x4)--10-10-10-10--|(x4)
d]--8--8--8--8---------8--8--8--8---|
a]----------------------------------|
d]----------------------------------|

Intro Part 2

e]---8-8-8-8-8-8-8-8-7-7-7-7-7-7-7-7-------------------------------------------------|
b]---8-8-8-8-8-8-8-8-8-8-8-8-8-8-8-8-13-13-13-13-13-13-13-13-12-12-12-12-12-12-12-12-|
g]-----------------------------------12-12-12-12-12-12-12-12-12-12-12-12-12-12-12-12-|
d]---7-7-7-7-7-7-7-7-7-7-7-7-7-7-7-7-10-10-10-10-10-10-10-10-10-10-10-10-10-10-10-10-|
a]---7-7-7-7-7-7-7-7-7-7-7-7-7-7-7-7-10-10-10-10-10-10-10-10-10-10-10-10-10-10-10-10-|
d]---7-7-7-7-7-7-7-7-7-7-7-7-7-7-7-7-10-10-10-10-10-10-10-10-10-10-10-10-10-10-10-10-|

Repeat x4 (on the 4th time don't play 10th fret part)

Verse: Guitar 1
e]------------------------------------------------------------------|
b]------------------------------------------------------------------|
g]------------------------------------------------------------------|
d]------------------------------6------------------------9p7h9/11---|
a]--7p0-0-7p0-0-7p0-0-7p0-0-7p0---7p0-0-7p0-0-7p0--9p7h9------------|
d]------------------------------------------------------------------|

Verse: Guitar 2 (enter at second run through)
e]---------------------------------------------|
b]---------------------------------------------|
g]-----------9---------------------9-----------|
d]----7p6h7-----11p9h11-----7p6h7-----11p9h11--| Repeat over
a]-0---------------------0---------------------|
d]---------------------------------------------|

Pre Chorus

e]----------------------------------------------|
b]----------------------------------------------|
g]---6---6-6-6-6-6-6-6-6-6-6-6-6-6-6-6-6-6-6-6--|
d]---4---4-4-4-4-4-4-4-4-4-4-4-4-4-4-4-4-4-4-4--|
a]---4---4-4-4-4-4-4-4-4-4-4-4-4-4-4-4-4-4-4-4--| x2
d]---4---4-4-4-4-4-4-4-4-4-4-4-4-4-4-4-4-4-4-4--|

Back to Verse
        Pre Chorus

Chorus

e]------------------------------------------------------------------|
b]--------------------------------------10--10--10--10--10--10-9-9--|
g]---------------------------------------9---9---9---9---9--9--7-7--|
d]---0---0-0-0-0-0-0-0-0-0-0-0-0-0-0-0---7---7---7---7---7--7--7-7--|
a]---0---0-0-0-0-0-0-0-0-0-0-0-0-0-0-0---7---7---7---7---7--7--7-7--| x2
d]---0---0-0-0-0-0-0-0-0-0-0-0-0-0-0-0---7---7---7---7---7--7--7-7--|

e]------------------------------------------------------------------------|
b]------------------------------------------------------------------------|
g]---4------6--------11-11-11-11-11-11-11-9-9-9-11-11-11-11-11-11-14-14---|
d]---2------4-------------------------------------------------------------|
a]---2-(x8)-4--(x8)--9--9--9--9--9--9--9--7-7-7-9--9--9--9--9--9--12-12---|
d]---2------4--------0--0--0--0--0--0--0--0-0-0-0--0--0--0--0--0--0--0----|

e]------------------------------------------------------------------------|
b]--------------------------------------------------------14--14-14--14---|
g]---4------6--------13-13-13-13-13-13-13-13--14-14-14-14-14--14-14--14---|
d]---2------4-------------------------------------------------------------|
a]---2-(x8)-4--(x8)--11-11-11-11-11-11-11-11--12-12-12-12-12--12-12--12---|
d]---2------4-------------------------------------------------------------|

Break

e]------------------------------|
b]------------------------------|
g]------------------------------|
d]--7---9---7----9---7---7---7--|
a]--0---0--10---10---9---8---7--|
d]------------------------------|

e]-----------------------------------|
b]-----------------------------------|
g]-----------------------------------|
d]--7--9----7---9---7-7---7-7-7-7-7--|
a]--7--7---10--10---9-8---8-8-8-8-8--|
d]-----------------------------------|

e]----------------------------------------|
b]----------------------------------------|
g]----------------------------------------|
d]---7---7-7-7-7-7-7-7-7-7-7-7-7-7-7-7-7--|
a]---7---7-7-7-7-7-7-7-7-7-7-7-7-7-7-7-7--|
d]---7---7-7-7-7-7-7-7-7-7-7-7-7-7-7-7-7--|

Verse: Guitar 1
e]------------------------------------------------------------------|
b]------------------------------------------------------------------|
g]------------------------------------------------------------------|
d]------------------------------6------------------------9p7h9/11---|
a]--7p0-0-7p0-0-7p0-0-7p0-0-7p0---7p0-0-7p0-0-7p0--9p7h9------------|
d]------------------------------------------------------------------|

Verse: Guitar 2 (enter at second run through)
e]---------------------------------------|
b]---------------------------------------|
g]-----------9-------------------9-------|
d]----7p6h7-----11--7-----7p6h7-----11-6-|
a]-0-------------------0-----------------|
d]---------------------------------------|

Bridge

e]-----------------------------------------------------|
b]-----------------------------------------------------|
g]-9---6---7---------9-----------4--------------7/9\7--|
d]-6---5---4------6-----6-----5-----5--------4---------|
a]-7---0---0---7-----------0--------------0------------|
d]---------0---------------------------0---------------|

e]--------------------------------------------------------------------|
b]--------------------------------------------------------------------|
g]---9--9---x--13--13--13-----6--6---x--14--14--14----7----9----6-----|
d]---6--6---x---x---x---x-----5--5---x---x---x---x----4----6----5-----|
a]---7--7---x--11--11--11-----0--0---x--12--12--12----0----7----0-----|
d]----------------------------------------------------0---------------|

Back to Chorus

e]----------------------------------------------------------------------|
b]---------------14--14-14--14------------------------------------------|
g]---------------14--14-14--14------------------------------------------|
d]--7--9/11---0-----------------7--9/11---7----9----11---7--9--11----0--|
a]--7--9/11---0--12--12-12--12--7--9/11---7----9----11---7--9--11----0--|
d]--7--9/11---0-----------------7--9/11---7----9----11---7--9--11----0--|

e]------------------9-11-12----|
b]----------9-11-12------------|
g]--9-11-13--------------------|
d]-----------------------------|
a]-----------------------------|
d]-----------------------------|

e]----------------------------------------------|
b]----------------------------------------------|
g]----------------------------------------------|
d]---7-----9-----11---7---9---11---0----0-------|
a]---7-----9-----11---7---9---11---0----0-------|
d]---7-----9-----11---7---9---11---0----0-------|

e]------------------------------------------------------------------------|
b]------------------------------------------------------------------------|
g]-----------------------4----6----8----9----11----13----14----16---------|
d]---2----4----6----7----4----6----8----9----11----13----14----16--0---0--|
a]---2----4----6----7----2----4----6----7-----9----11----12----14--0---0--|
d]---2----4----6----7----------------------------------------------0---0--|

e]-----------------------------|
b]---17-------17---------------|
g]------18-------18------------|
d]---------19-------19---------|
a]-----------------------------|
d]-----------------------------|

e]-----------------------------|
b]-----------------------------|
g]-----------------------------|
d]--7--9--11---7--9--11---0----|
a]--7--9--11---7--9--11---0----|
d]--7--9--11---7--9--11---0----|

e]---10-------|
b]---13b15----|
g]------------|
d]------------|
a]------------|
d]------------|


-----------------------------------------------------------------------------


Now The Action Is On Fire
Biffy Tab Team

Intro

e]-------------------------------------|
b]-----0--------0--------0--------0----|
g]---3---3----3---3----3---3----3---3--|
d]-------------------------------------|
a]-2-----------------------------------| x2
d]-------------------------------------|

Verse

e]---------------------------------------|
b]-----0--------0--------0---------------|
g]---3---3----2---2----0---0------4---4--|
d]------------------------------2--------|
a]-2--------2--------2--------4-----0----| x2
d]---------------------------------------|

Pre Chorus Part 1

e]----------------------------------------|
b]-3--------------------------------------|
g]-2------4---/--11-11-11-11-11-11-11-11--|
d]-0------2---/---9--9--9--9--9--9--9--9--|
a]-0------2---/---9--9--9--9--9--9--9--9--| x2
d]-0------2---/---9--9--9--9--9--9--9--9--|

Pre Chorus Part 2

e]------------------------------------|
b]-3-3-3-3-3-3-3-3--------------------|
g]-2-2-2-2-2-2-2-2---4-4-4-4-4-4-4-4--|
d]-0-0-0-0-0-0-0-0---2-2-2-2-2-2-2-2--|
a]-0-0-0-0-0-0-0-0---2-2-2-2-2-2-2-2--|
d]-0-0-0-0-0-0-0-0---2-2-2-2-2-2-2-2--|

Chorus

e]------------------------------------------------------------|
b]------------------------------------------------------------|
g]-11-11-11-11-11-11-11-11-11----11-11-11-11-11-11-11-11-11---|
d]--x--x--x--x--x--x--x--x--x-----x--x--x--x--x--x--x--x--x---|
a]--9--9--9--9--9--7--9--7--9-----9--9--9--9--9--7--9--7--9---|
d]--9--9--9--9--9--7--9--7--9-----9--9--9--9--9--7--9--7--9---|

e]------------------------------------------------------------|
b]------------------------------------------------------------|
g]-11-11-11-11-11-11-11-11-11----11-11-11-11-11-11-11--9--9---|
d]--x--x--x--x--x--x--x--x--x-----x--x--x--x--x--x--x--x--x---|
a]--9--9--9--9--9--7--9--7--9----11-11-11-11-11-11-11--7--7---|
d]--9--9--9--9--9--7--9--7--9----11-11-11-11-11-11-11--7--7---|

Repeat x3

Go back to Pre Chorus Part 1

e]-0--0-0--0-0---0--0-0--0-0-------------------------------|
b]-3--3-3--3-3---0--0-0--0-0-------------------------------|
g]-2--2-2--2-2---4--4-4--4-4---/-11-11-11-11-11-11-11-11---|
d]-0--0-0--0-0---2--2-2--2-2---/--9--9--9--9--9--9--9--9---|
a]-0--0-0--0-0---2--2-2--2-2---/--9--9--9--9--9--9--9--9---| x2
d]-0--0-0--0-0---2--2-2--2-2---/--9--9--9--9--9--9--9--9---|

Post Chorus

e]----------------------------------------|
b]----------------------------------------|
g]-7-7-7-7---7-7-7-7---7-7-7-7---7-7-7-7--|
d]-5-5-5-5---7-7-7-7---7-7-7-7---7-7-7-7--|
a]-5-5-5-5---x-x-x-x---5-5-5-5---x-x-x-x--|
d]-5-5-5-5---7-7-7-7---5-5-5-5---7-7-7-7--|

e]-----------0-0-0-0----------------|
b]-----------3-3-3-3----------------|
g]-7-7-7-7---2-2-2-2-------6~-------|
d]-7-7-7-7---0-0-0-0-------4~-------|
a]-5-5-5-5---0-0-0-0-------4~-------|
d]-5-5-5-5---0-0-0-0-------4~-------|

Slow Movement

e]---------------------------------|
b]-6--6----6--6----6--6----7---6---|
g]-6--6----6--6----6--6----6---6---|
d]-x--x----x--x----x--x----x---x---|
a]-6--6----6--6----6--6----6---6---|
d]---------------------------------|

e]----------------------------po----po----po-----|
b]-6--6----6--6----6--6------7-6---7-6---7-6-----|
g]-6--6----6--6----6--6----6-----6-----6-----6---|
d]-4--4----4--4----4--4--------------------------|
a]-----------------------------------------------|
d]-----------------------------------------------|

Repeat

Verse 2 Part 1

e]-2--2----2--2----2--2----2--2-----------------------------|
b]-2--2----2--2----2--2----2--2-----------------------------|
g]-3--3----3--3----3--3----3--3-----6---8-\--3-----/--6--6--|
d]-4--4----4--4----4--4----4--4-----6---8-\--1---3-/--4--4--|
a]-2--2----2--2----2--2----2--2-----4---6-\--1---3-/--4--4--|
d]-------------------------------------------1---3-/--4--4--|

e]-2--2----2--2----2--2-----------------------2--(2)--|
b]-2--2----2--2----2--2-----------------------2--(2)--|
g]-3--3----3--3----3--3-----6---8-\--3-----/--3-------|
d]-4--4----4--4----4--4-----6---8-\--1---3-/--4-------|
a]-2--2----2--2----2--2-----4---6-\--1---3-/--2-------|
d]-----------------------------------1---3-/----------|

Verse 2 Part 1

e]---------2--2----2--2----2--2----6--6--|
b]---------2--2----2--2----2--2----7--7--|
g]-4--4----3--3----3--3----3--3----6--6--|
d]-2--2----4--4----4--4----4--4----8--8--|
a]-2--2----2--2----2--2----2--2----6--6--|
d]-2--2----------------------------------|

e]-2--2----2--2----2--2--|
b]-2--2----2--2----2--2--|
g]-3--3----3--3----3--3--|
d]-4--4----4--4----4--4--|
a]-2--2----2--2----2--2--|
d]-----------------------|

Repeat

Break

e]------------------------------------------------------------|
b]----------------------0-------------------------------------|
g]-----7-------3------3---3---------8------4------3-/------7--|
d]---8-------4------4-------4-----9------5------4---/----8----|
a]-8-------4------4-------------9------5------4-----/--8------|
d]------------------------------------------------------------|

Verse 3

e]-------------------------------------------------------|
b]-------------------------------------------------------|
g]-8--8----8--8----7--7----7--7----6---8-\--3-----/------|
d]-9--9----9--9----9--9----9--9----6---8-\--1---3-/--4---|
a]-9--9----9--9----9--9----9--9----4---6-\--1---3-/--4---|
d]------------------------------------------1---3-/--4---|


e]-2--2----2--2-----------------------2--(2)--|
b]-2--2----2--2-----------------------2--(2)--|
g]-3--3----3--3-----6---8-\--3-----/--3--(3)--|
d]-4--4----4--4-----6---8-\--1---3-/--4--(4)--|
a]-2--2----2--2-----4---6-\--1---3-/--2--(2)--|
d]---------------------------1---3-/----------|

e]-------------------------|
b]-------------------------|
g]-6---8-\--3-----/--6--6--|
d]-6---8-\--1---3-/--4--4--|
a]-4---6-\--1---3-/--4--4--|
d]----------1---3-/--4--4--|

e]-2--2----2--2-----------------------2---2---2--------|
b]-2--2----2--2-----------------------4---4---3--------|
g]-3--3----3--3-----6---8-\--3--------4---4---4----(3)-|
d]-4--4----4--4-----6---8-\--1---3----4---4---4----(4)-|
a]-2--2----2--2-----4---6-\--1---3----2---2---2----(4)-|
d]---------------------------1---3-----------------(4)-|

Verse 4

e]-0--0----0--0----0--0----2--2--|
b]-0--0----0--0----0--0----2--2--|
g]-3--3----3--3----2--2----4--4--|
d]-4--4----4--4----2--2----4--4--|
a]-4--4----4--4----0--0----2--2--|
d]-4--4----4--4------------------|

e]-0--0----0--0----2--2----5---|--0-------0-------0------|
b]-0--0----0--0----2--2----5---|-15------15------15------|
g]-3--3----3--3----4--4----7---|-14------14------14------|
d]-4--4----4--4----4--4----7---|--0-------0-------0------|
a]-4--4----4--4----2--2----5---|--0-------0-------0------|
d]-4--4----4--4----------------|--0-------0-------0------|

Outro Part 1

e]--------------------------------------------------------------|
b]-10--10---10-10-10-10--10----10-10-10--10---10-10---10-10-----|
g]-10--10---10-10-10-10--10----10-10-10--10---10-10---10-10-----|
d]-12--12---12-12-12-12--12----12-12-12--12---12-12---12-12-----|
a]-12--12---12-12-12-12--12----12-12-12--12---12-12---12-12-----|
d]-0-0-0-0-0-0-0-0-0-0-0-0-0-0-0-0-0-0-0-0-0-0-0-0-0-0-0-0-0-0--|

e]--------------------------------------------------------------|
b]--9---9----9--9--9--9------9----9--9--9-----9----9--9-----9---|
g]--9---9----9--9--9--9------9----9--9--9-----9----9--9-----9---|
d]-12--12---12-12-12-12-----12---12-12-12----12---12-12----12---|
a]-11--11---11-11-11-11-----11---11-11-11----11---11-11----11---|
d]-0-0-0-0-0-0-0-0-0-0-0-0-0-0-0-0-0-0-0-0-0-0-0-0-0-0-0-0-0-0--|

Repeat
Outro Part 2

e]----------------------------------------------------------------|
b]-13--13---13-13-13-13--13----13-13-13--13---13-13---(13)-13-13--|
g]-10--10---10-10-10-10--10----10-10-10--10---10-10---(10)-10-10--|
d]-12--12---12-12-12-12--12----12-12-12--12---12-12---(12)-12-12--|
a]-12--12---12-12-12-12--12----12-12-12--12---12-12---(12)-12-12--|
d]----------------------------------------------------------------|

e]-------------------------------------------------------------|
b]-12--12---12-12-12-12-----12---12-12-12----12---12-12----12--|
g]--9---9----9--9--9--9------9----9--9--9-----9----9--9-----9--|
d]-12--12---12-12-12-12-----12---12-12-12----12---12-12----12--|
a]-11--11---11-11-11-11-----11---11-11-11----11---11-11----11--|
d]-------------------------------------------------------------|

Repeat

Outro Part 3

e]--------------------------------------------------|
b]--------------------------------------------------|
g]--------------------------------------------------|
d]--0--/1/2/3/4/5/6/7/8/9/10/11/12~-----------------|
a]--0--/1/2/3/4/5/6/7/8/9/10/11/12~-----------------| x4
d]--0--/1/2/3/4/5/6/7/8/9/10/11/12~-----------------|

Outro Part 4

e]-------------------------------------------------------|
b]-------------------------------------------------------|
g]-9-9-9-9-9-9-9-9-9-9-9-9----9-9-9-9-9-9-9-9-9-9-9-9----|
d]-7-7-7-7-7-7-7-7-7-7-7-7----7-7-7-7-7-7-7-7-7-7-7-7----|
a]-7-7-7-7-7-7-7-7-7-7-7-7----7-7-7-7-7-7-7-7-7-7-7-7----|
d]-7-7-7-7-7-7-7-7-7-7-7-7----7-7-7-7-7-7-7-7-7-7-7-7----|

Repeat

Go Back to Outro Part 3
           Outro Part 4

Ending

e]---0--|
b]---0--|
g]---0--|
d]---0--|
a]---0--|
d]---0--|


-----------------------------------------------------------------------------


Ewan's True Mental You
Biffy Tab Team

* - Harmonic

[Let all notes ring]

Verse1

e]-----------------------------|
b]--12-12-12-12-12-12-\-0------|
g]--12-12-12-12-12-12-\-7------|
d]--10-10-10-10-10-10-\-5------|
a]--12-12-12-12-12-12-\-7------| x2
d]-----------------------------|

e]-----------------------------------------|
b]---------4-4-----------------------------|
g]--4---4--0-0--7-------------5--5-4---4---|
d]--5---5--5-5--5-------------3--3-3---5---|
a]--3---3--3-3--5-------------3--3-----3---|
d]--------------5-----(2)-3----------------|

Repeat Verse 1

Verse 2

e]--------------------------------*----|
b]--12-12-12-12-12-12-\-0---------7----|
g]--12-12-12-12-12-12-\-7--------------|
d]--10-10-10-10-10-10-\-5--------------|
a]--12-12-12-12-12-12-\-7--------------| x2
d]-------------------------------------|

e]-----------------------------------------|
b]---------4-4-----------------------------|
g]--4---4--0-0--7-------------5--5-4---4---|
d]--5---5--5-5--5-------------3--3-3---5---|
a]--3---3--3-3--5-------------3--3-----3---|
d]--------------5-----(2)-3----------------|

Bridge

e]------5--------5---------------------|
b]--------------------7-/-10-\-7-------|
g]--------------------6-/-9--\-6-------|
d]----7--------7------0---0----0-------|
a]--4--------4-------------------------|
d]-------------------------------------|

e]-----------------------------5h7h5------|
b]----------------2-/-7-7--7---------7----|
g]------11--11----2-/-7-7--7--------------|
d]------11--11----------5--5--------------|
a]------9---9-----------5--5--------------|
d]--(7)-9---9-\-x-------5--5--------------|

Repeat Bridge

Ending:

e]------5--------5---------------------|
b]--------------------7-/-10-\-7-------|
g]--------------------6-/-9--\-6-------|
d]----7--------7------0---0----0-------|
a]--4--------4-------------------------|
d]-------------------------------------|

e]----------------------------|
b]----------------2-/-7-7--7--|
g]------11--11----2-/-7-7--7--|
d]------11--11----------5--5--|
a]------9---9-----------5--5--|
d]--(7)-9---9-\-x-------5--5--|


THANKS AGAIN TO BIFFYTABS.TK
comments
print report bad tab
1 comment total.
+1 reply
IPlacebo wrote on October 7 2008, 12:36 pm

This is awesome, Excellent tabbed!
And thnaks for Ewan's True Mental You...5*

MON THE BIFFY!

I want to post or [tab]
guest
You may want to rate the tab now too:
select rating
Please do not post tabs as comments. Select "correction" instead!