Oops, an error
Loading. Please wait.

Defined By What We Steal Tab

470 views 1 this week
no commentswrite comment
1 2 3 4 5
please rate
Autoscroll
+/-
esc
set tempo
stop
Contributor
Difficulty
advanced
Hey! There's an official Ultimate Guitar app which is ideal
for learning songs when you're away from computer. Get the app
WARNING: You are trying to view
                                    content from Ultimate-Guitar.com
                                    in an unauthorized application,
                                    which is prohibited.

                                    Please use an official Ultimate
                                    Guitar Tabs application for iPhone,
                                    iPad or Android to access legitimate
                                    chords, guitar, bass, and drum tabs
                                    from Ultimate-Guitar.com database.

                                    Type "ultimate guitar tabs" in Apple
                                    App Store's or Android Market's
                                    search to find the application.

by Taylor Laughlin - laughlin_t@hotmail.com
Artist: Big Wreck
Title: Defined By What We Steal
Album: The Pleasure and the Greed


listen to song for timings on solo, its pretty hard lol, and long...
 

Tuning low to high dropped D down a half step(Db,Ab,Db,Gb,Bb,Eb)

 

------------------------------------------------------------------------------

--------8---------------8---------------8---------------8---------------------

------0-------0-------0-------0-------0-------0-------0-------0---------------

----8-------8-------8-------8-------8-------8-------8-------8-----------------

--6-------6-------6-------6-------6-------6-------6-------6-------------------

------------------------------------------------------------------------------

intro

 

------------------------------------------------------------------------------

---------8---------------------------8----------------------------------------

-------0---------------------------0------------------------------------------

----8---------8--6-6---6h8-8-----8-------8--6-6---6h8-------------------------

--6---------6--------6---------6-------6--------6-----------------------------

------------------------------------------------------------------------------

main line

 

------------------------------------------------------------------------------

--------12---------------------------------12---------------------------------

------10---------------------------------10-----------------------------------

----12--------12--10-10----10h12-12----12--------12--10-10----10h12-12--------

--10-------10-----------10-----------10-------10-----------10-----------------

------------------------------------------------------------------------------

"...with me"

 

------------------------------------------------------------------------------

---------11------------------------------11-----------------------------------

-------9-------------------------------9--------------------------------------

----11--------11--9-9---9h11-11-----11--------11--9-9---9h11-11---------------

--9---------9---------9-----------9---------9---------9-----------------------

------------------------------------------------------------------------------

"...a farce"

 

------------------------------------------------------------------------------

--------4--------------------------4------------------------------------------

------4--------------------------4--------------------------------------------

----4-------4--2-2---2h4-4-----4-------4--2-2---2h4-4-------------------------

--2-------2--------2---------2-------2--------2-------------------------------

------------------------------------------------------------------------------

"...my own words"

 

------------------------------------------------------------------------------

--------9--------------------------9------------------------------------------

------9--------------------------9--------------------------------------------

----9-------9--7-7---7h9-9-----9-------9--7-7---7h9-9-------------------------

--7-------7--------7---------7-------7--------7-------------------------------

------------------------------------------------------------------------------

"...fight for a moment of rest"

 

------------------------------------------------------------------------------

---------3-----------------3-----4-7---------3-----------------3--------------

---4v--4---4-6-3-----4v--4---4/6-------4v--4---4-6-3-----4v--4---4-6----------

-----------------4-----------------------------------4------------------5-----

------------------------------------------------------------------------------

------------------------------------------------------------------------------

  "Just for a..." 1st guitar

 

------------------------------------------------------------------------------

------------------------------------------------------------------------------

---4-----------------4-----------------4-----------------4--------------------

---4---------4-------4---------4-------4---------4-------4---------7----5-----

---2---------4-------2---------4-------2---------4-------2---------7----5-----

-------------4-----------------4-----------------4-----------------7----5-----

  "Just for a..." 2nd guitar

 

------------------------------------------------------------------------------

------------------------------------------------------------------------------

------------------------------------------------------------------------------

---7--------------------5--------------------7--------------------------------

---7--------------------5--------------------7--------------------------------

---7--------------------5--------------------7--------------------------------

"by what we steal......by what we steal.....by what we steal...."

 

--15b16r15b16r15\13--15b16r15b16r15/13--19b20r19b20r19\13--19b20r19b20/22\13\-

------------------------------------------------------------------------------

------------------------------------------------------------------------------

------------------------------------------------------------------------------

------------------------------------------------------------------------------

------------------------------------------------------------------------------

   1st guitar

 

------------------------------------------------------------------------------

------------------------------------------------------------------------------

------------------------------------------------------------------------------

--15b17r15b17r15\13/20--15b17r15b17r15\13--16b17r16b17r16\10------------------

------------------------------------------------------------------------------

------------------------------------------------------------------------------

   2nd guitar harmony

 

------------------------------------------------------------------------------

------------------------------------------------------------------------------

------------------------------------------------------------------------------

--16b17r16r17b16/19\----------------------------------------------------------

------------------------------------------------------------------------------

------------------------------------------------------------------------------

 

 

------------------------------------------------------------------------------

------------------------------------------------------------------------------

-------7-6---------7-6---------7-6---------7-6---------7-6--------7-6---------

-----------7-----------7-----------8-----------7-----------5----------7-------

-------------9-----------9---9-------9---9-------9----------------------------

---0-----------0-----------9-----------9-----------5----------5---------------

  "So what..."

 

------------------------------------------------------------------------------

-----------------------8---7h8r7h8r7h8----------------------------------------

-------7-6-------9-------9--------------------------2-------------------------

-------------------------------------------0--------2-------------------------

-------------------------------------------0--------0-------------------------

---7---------------------------------------0-------------5----7----9----11----

 

 

------11/13\11--11------------------------10-------------10-------------------

------11/13\11--11---11/13\11----12-12-13----12-------12----12-13-10-12-------

---------------------10/12\10-------------------12v---------------------12----

------------------------------------------------------------------------------

------------------------------------------------------------------------------

------------------------------------------------------------------------------

   solo....listen for the feel

 

------------------------------------------------------------------------------

------------11----------------------------------------11-13-11-12-------------

--12vr10-------12-13-10-12----------------10----10-12-------------12----------

---------13----------------13-10----10-13----13----------------------12-10-9--

---------------------------------13-------------------------------------------

------------------------------------------------------------------------------

 

 

--------15-15-15-15-15b16r15-13-13------------------16-------16---------------

-----------------------------------16-16-16---18b20----18b20----18b20---------

------------------------------------------------------------------------------

------------------------------------------------------------------------------

-10---------------------------------------------------------------------------

------------------------------------------------------------------------------

 

 

---------19----------19----------19-------------------------------------------

--18b20-----20r18h20----20r18h20----20r17-------------------------------------

------------------------------------------17-16-------------------------------

------------------------------------------------17-15-------------------------

------------------------------------------------------17-15-14----------------

------------------------------------------------------------------------------

  hold bends

 

--------16----18--------------------------------------------------------------

--18b20----20----20r18-16-------16-------16-----------------------------------

--------------------------18b20----18b20----18b20-----------------------------

------------------------------------------------------------------------------

------------------------------------------------------------------------------

------------------------------------------------------------------------------

hold bend

 

--------15-16-17-18-19-19-19b20r19-------20r19--------------------------------

--18b20----------------------------18-18-------18-----------------------------

--------------------------------------------------19-17-16--------------------

------------------------------------------------------------------------------

------------------------------------------------------------------------------

------------------------------------------------------------------------------

                                         pre bend

 

-----------------------------------------15---------17-19----17----15---------

--------------------------15h16p15-16-18------15-18-------18----18----17-18---

-----15h17p15----------15-----------------------------------------------------

--17----------17-15-----------------------------------------------------------

--------------------18--------------------------------------------------------

------------------------------------------------------------------------------

 

 

------------------------------------------------------------------------------

------------------------------------------------------------------------------

--17-19-17-16-----------------------------------------------------------------

--------------17--------------------------------------------------------------

------------------------------------------------------------------------------

------------------------------------------------------------------------------

 

 

--------18----18h20p18---------------------18-18h20-18h20-18h20p18------------

--18h20----20----------18h20-20-18---18h20-------------------------20---------

------------------------------------------------------------------------------

------------------------------------------------------------------------------

------------------------------------------------------------------------------

------------------------------------------------------------------------------

 

 

--22r20-19--------------------------------------------------------------------

-----------20-----------------------------------------------------------------

--------------19-17-16------------------17-17-16-17-19------------------------

-----------------------17------------17---------------------------------------

--------------------------17-15-14--------------------------------------------

------------------------------------------------------------------------------

 

 

----------------------------------------------------15------------------------

----------------------------------------15-16-15-16---------------------------

--15-17----15-15------------15----17-15---------------------------------------

--------17-------15-17--/17----17---------------------------------------------

------------------------------------------------------------------------------

------------------------------------------------------------------------------

 

 

--15p13p11h13----11-----------------------------------------------------------

--------------15----13-15-11-13-----------------------------------------------

--------------------------------13--------------------------------------------

------------------------------------------------------------------------------

------------------------------------------------------------------------------

------------------------------------------------------------------------------
comments
We did not receive enough feedback on this tab! Please rate:
print report bad tab
1 2 3 4 5
I want to post or [tab]
guest
You may want to rate the tab now too:
select rating
Please do not post tabs as comments. Select "correction" instead!