Oops, an error
Loading. Please wait.

Lean On Me Tab

ver1
ver1

Intro

Interactive

More versions @911Tabs.com
124,491 views 139 this week
5 commentsread comments
1 2 3 4 5
accurate
x 21
Autoscroll
+/-
esc
set tempo
stop
WARNING: You are trying to view
                                    content from Ultimate-Guitar.com
                                    in an unauthorized application,
                                    which is prohibited.

                                    Please use an official Ultimate
                                    Guitar Tabs application for iPhone,
                                    iPad or Android to access legitimate
                                    chords, guitar, bass, and drum tabs
                                    from Ultimate-Guitar.com database.

                                    Type "ultimate guitar tabs" in Apple
                                    App Store's or Android Market's
                                    search to find the application.
-------------------------------------------------------------------------------
                             Lean On Me - Bill Withers
-------------------------------------------------------------------------------
Tabbed by:Jim Ashley
Email:jimbob629@att.net

Tuning:Normal tuning


This a lower part to the song:
e|---------------------------------------------------------------------------|
B|---------------------------------------------------------------------------|
G|---------------------------------------------------------------------------|
D|-----------0--2--3-----3--2--0----------0--2--2--0--------------0--2--3----|
A|---3----3-----------------------3----3---------------3------3--------------|
E|---------------------------------------------------------------------------|

e|---------------------------------------------------------------------------|
B|---------------------------------------------------------------------------|
G|---------------------------------------------------------------------------|
D|---3--2--0-----------0---2-------------------------------------------------|
A|------------3----3----------2--3-------------------------------------------|
E|---------------------------------------------------------------------------|

This is played almost all the way through the song. Just listen to the song to
get the timing down.
=============================================================================
comments
print report bad tab
5 comments total. Showing first comments.
0 reply
ManUtd2560 wrote on June 21 2008, 10:35 pm

EXCELLENT!!!!

-1 reply
tabmastar wrote on September 27 2008, 09:53 am

great tab nut an easier way to play the beggining is

E--0--0-2-4-5-5-4-2-0

0 reply
reaper_of_soul wrote on May 3 2010, 12:20 am

what about the chorus

I want to post or [tab]
guest
You may want to rate the tab now too:
select rating
Please do not post tabs as comments. Select "correction" instead!