Oops, an error
Loading. Please wait.

Billy Talent Bass Tab

9,278 views 18 this week
1 commentread comment
1 2 3 4 5
accurate
x 5
add to favorites launch autoscroll
font size
0
reset
Autoscroll
+/-
esc
set tempo
stop
Contributor
Difficulty
advanced
WARNING: You are trying to view
                                    content from Ultimate-Guitar.com
                                    in an unauthorized application,
                                    which is prohibited.

                                    Please use an official Ultimate
                                    Guitar Tabs application for iPhone,
                                    iPad or Android to access legitimate
                                    chords, guitar, bass, and drum tabs
                                    from Ultimate-Guitar.com database.

                                    Type "ultimate guitar tabs" in Apple
                                    App Store's or Android Market's
                                    search to find the application.
This is the whole entire cd and it took me a while to put together so please rate it and have fun playing


This is How It Goes

Intro (0:09) (Play each note 8 times)
G|------------------------------------------------------------|
D|------------------------------------------------------------|
A|-5-5-5-5--1-1-1-1--0-0-0-0--4-4-4-4-------------------------|
D|------------------------------------------------------------|

(0:13)
G|------------------------------------------------------------|
D|------------------------------------------------------------|
A|-5-5-5-5--1-1-1-1--0-0-0-0----------------------------------|
D|------------------------------------7-7-7-3-3-3-------------|

 Chorus (0:18) x4
G|------------------------------------------------------------|
D|------------------------------------------------------------|
A|--------------1-1--1-1-1--------------0-0--0-0-0------------|
D|-0-0--0-0-0---------------3-3--3-3-3------------------------|

Verse (0:36) x3
G|------------------------------------------------------------|
D|------------------------------------------------------------|
A|-5-5-5-5--1-1-1-1--0-0-0-0--4-4-4-4-------------------------|
D|------------------------------------------------------------|

Verse 2(0:49)
G|------------------------------------------------------------|
D|------------------------------------------------------------|
A|-5-5-5-5--1-1-1-1--0-0-0-0----------------------------------|
D|----------------------------7-7-7-3-3-3---------------------|

Chorus (0:54) x4
Verse (1:12) x5
Verse 2(1:33)x1
Chorus (1:38) x8

Break (2:14) 
G|-----------------------------------------------------------------------------|
D|-----------------------------------------------------------------------------|
A|-5\--------(5)--------(5)--------(5)--------(5)--------(5)--------(5)--------|
D|-----------------------------------------------------------------------------|

(2:22) x3
G|-----------------------------------------------------------------------------|
D|-----------------------------------------------------1-2-3-3-3-3-------------|
A|-5-5-5-5-5-5--5----------------5-5-3-3--1-1-1-1-1-1---------------3-3-3-1-3--|
D|----------------3--5-5-5-5-5-5-----------------------------------------------|

(2:49)(play the first 3 notes 16 times. Play the last 2 notes 8 times)
G|------------------------------------------------------------------------------------|
D|------------------------------------------------------------------------------------|
A|-5-5-5-5-5-5-5-5-----------------1-1-1-1-1-1-1-1-------------------3-3-3-3-3-1-3----|
D|-----------------5-5-5-5-5-5-5-5------------------3-3-3-3-3-3-3-3-------------------|

(2:58)(play the first 3 note 16 times. Play the 2nd last note 8 times ) 
G|------------------------------------------------------------------------------------|
D|------------------------------------------------------------------------------------|
A|-5-5-5-5-5-5-5-5-------------------1-1-1-1-1-1-1-1----------------------------------|
D|------------------5-5-5-5-5-5-5-5-------------------3-3-3-3-3-3-3-3--7-7-7-3-3-3----|

Chorus (3:07) x4

Ending(3:26)
G|-------
D|-------
A|-------
D|-0-0-0-


Living in the Shadows


Intro I                             x2
G|---------------------------------|
D|---------------------------------|
A|---no bass-----------------------|
D|----------------88-0h7-7-0h7-7---|


Intro II                                      x2
G|-------------------------------------------|
D|-------------------------------------------|
A|-------------------------------------------|
D|-33333333-22222222-000000-88-0h7-7-0h7-7---|


Verse                                                    x2
G|---------------------------||-------------------------|
D|---------------------------||-3~-2~-------------------|
A|-------5~------------------||-------5~----------------|
D|-3~-2~----88-0h7-7-0h7-7---||----------88-0h7-7-0h7---|

G|-----------------------------------------|
D|-33333333-22222222-----------------------|
A|-------------------555555----------------|
D|--------------------------88-0h7-7-0h7---|


Chorus                                     x4
G|-------------------------------------------|
D|-------------------------------------------|
A|-------------------------------------------|
D|-33333333-55555555-888888-0h7-7-0h7-7------|


Intro II x2
Verse    x1
Chorus   x4


Bridge
G|--------------------------------------------------------------------------|
D|-------------3-2-0-------------2-0----------------------------------------|
A|-55-55-55-555------33-33-33-333----3--------------0-----11-11-11-11111113-| x3
D|--------------------------------------33-33-33-333---5-3------------------|


Intro I  x2
Intro II x2
Chorus   x8


Try Honesty


Drop D


Intro
G ------------------------------------------------------------------------
D ------------------------------------------------------------------------
A ------------------------------------------------------------------------
D -4-4-4-4-4-4-4-4-0-0-0-0-4-4--------------------------------------------


  2x ( 0:06 )
G ------------------------------------------------------------------------
D ------------------------------------------------------------------------
A ------------------------------------------------------------------------
D -9-9--9-9-9-9---7-7---7-7-7-7--77--4-4-4-4-4-4-4-4--2-2-2-2-2-2-2-2-----

  11x (0:17)
G ------------------------------------------------------------------------
D ------------------------------------------------------------------------
A ------------------------------------------------------------------------
D --4/0-------------------------------------------------------------------

 1x (0:52)
G ------------------------------------------------------------------------
D ------------------------------------------------------------------------
A ------------------------------------------------------------------------
D -9-9--9-9--9-7-7--7-7--7----4-4-4-4-4-4-4-4-2-2-2-2-2-2-2-2-------------

 4x (1:04)
G ------------------------------------------------------------------------
D ------------------------------------------------------------------------
A ------------------------------------------------------------------------
D -4~----------------------------------------------0~---------------------

  4x (1:16)
G ------------------------------------------------------------------------
D ------------------------------------------------------------------------
A ------------------------------------------------------------------------
D -9-9--9-9--9--7-7--7-7--7----4-4-4-4-4-4-4-4-2-2-2-2-2-2-2-2------------

  2x (2:05)
G ------------------------------------------------------------------------
D ------------------------------------------------------------------------ 
A ------------------------------------------------------------------------
D -4-4-4-4-*guitar*-0-0-0-0-*guitar*-3-3-3-3-*guitar*-0-0-0-0-------------

  3x (2:17)
G ------------------------------------------------------------------------
D ------------------------------------------------------------------------
A ------------------------------------------------------------------------
D -4-4-2-4-6-4-2-4-0-0-*guitar*-3-3-0-3-5-3-2-2-0-0-*guitar*--------------

  1x (2:35)
G ------------------------------------------------------------------------
D ------------------------------------------------------------------------
A ------------------------------------------------------------------------
D -4-4-2-4-6-4-2-4-0-0-*guitar*-3-3-3-3-3-3-3-3-4-4-4-4-4-4---------------

  5x (2:44)
G ------------------------------------------------------------------------
D ------------------------------------------------------------------------
A -------4--2--4----------------------------------------------------------
D -4--2-------------------------------------------------------------------

 4x (3:14)
G ------------------------------------------------------------------------
D ------------------------------------------------------------------------
A ------------------------------------------------------------------------
D -9-9--9-9-9-9--7-7--7-7-7-7--4-4--4-4-4-4--2-2--2-2-2-------------------

  3x (3:39)
G ------------------------------------------------------------------------
D ------------------------------------------------------------------------
A ----7-9-7---5-7-5-------------------------------------------------------
D -9---------7---------4-4-4-4-4-4-4-4-2-2-2-2-2-2-2-2--------------------

  1x (3:57)
G ------------------------------------------------------------------------
D ------------------------------------------------------------------------
A ----7-9-7---5-7-5---2-4-2---0-2-0---------------------------------------
D ---9-------7-------4-------2------------4~~-----------------------------


Line and Sinker

Drop D Tuning: GDAD

0:03
G|------------------|
D|------------------|
A|--------00000420--|
D|44444444----------|

G|----------------------------------|
D|----------------------------------|
A|5---55--2---22----------00000420--|
D|----------------44444444----------|

G|----------------------------------|
D|----------------------------------|
A|5555555522222222--------00000420--|
D|----------------44444444----------|x2


0:22
G|------------------------------------------------------------------|
D|------------------------------------------------------------------|
A|5-5--4h5-2-2--------------------5-5--4h5-2-2------------[0-0]-----|
D|----------------4-4--4h5-7-7--------------------4-4--4/5-7-7-4-2--|x2


0:45
G|-----------------------------------|
D|-----------------------------------|
A|----5----------5-44-44-22-2-45420--|
D|22-5-5-00-0-242--------------------|x4


1:07
G|----------------------------------|
D|----------------------------------|
A|5---55--2---22----------00000420--|
D|----------------44444444----------|x2

G|----------------------------------|
D|----------------------------------|
A|5555555522222222--------00000420--|
D|----------------44444444----------|x2


1:30
G|------------------------------------------------------------------|
D|------------------------------------------------------------------|
A|5-5--4h5-2-2--------------------5-5--4h5-2-2------------[0-0]-----|
D|----------------4-4--4h5-7-7--------------------4-4--4/5-7-7-4-2--|x2


1:52
G|-----------------------------------|
D|-----------------------------------|
A|----5----------5-44-44-22-2-45420--|
D|22-5-5-00-0-242--------------------|x4


2:15
G|----------------------------------|
D|----------------------------------|
A|5---55--2---22----------00000420--|
D|----------------44444444----------|x2

G|----------------------------------|
D|----------------------------------|
A|5555555522222222--------00000420--|
D|----------------44444444----------|x2


2:37
G|-----------------------------------|
D|--------------------2--------------|
A|----5----------5544--5422-2-45420--|
D|22-5-5-00-0-242--------------------|x6


3:14
G|------------------|
D|------------------|
A|--------00000420--|
D|44444444----------|

G|----------------------------------|
D|----------------------------------|
A|5555555522222222--------00000420--|
D|----------------44444444----------|x2

G|-----------------------------------|
D|-----------------------------------|
A|5555555522222222--------00000420---|
D|----------------44444444--------0--|


Lies

Drop D

Intro
G|------------------------------------------------------|
D|------------------------------------------------------|
A|---------------3-3-----------------------3-3-2--0-0---|
D|--5-5-7--0-0--------0-2-2----5-5-7--0-0---------------|


Verse x2
G|--------------------------------------------------------------------------------------|
D|--------------------------------------------------------------------------------------|
A|-33333333-/77777777-55555555-3333333-----------------------33333333-------------------|
D|--------------------------------------5-22222222--00000000-----------2-2-2-2-2-2-2-2-|

End of 2nd Verse
G|-------------------------|
D|-------------------------|
A|-------------------------|
D|--2-2-2-2-2-2-2--5-2-0---|

Chorus x2
G|------------------------------------------------------|
D|------------------------------------------------------|
A|---------------3-3-----------------------3-3-2--0-0---|
D|--5-5-7--0-0--------0-2-2----5-5-7--0-0---------------|

Break
G|---------------------------------------------|
D|---------------------------------------------|
A|--333333--55--77777777--55555555--33333333---|
D|---------------------------------------------|

Verse
G|--------------------------------------------------------------------------------------|
D|--------------------------------------------------------------------------------------|
A|-33333333-/77777777-55555555-3333333-----------------------33333333-------------------|
D|--------------------------------------5-22222222--00000000-----------2-2-2-2-2-2-2-2-|

Chorus x4
G|------------------------------------------------------|
D|------------------------------------------------------|
A|---------------3-3-----------------------3-3-2--0-0---|
D|--5-5-7--0-0--------0-2-2----5-5-7--0-0---------------|

Bridge
G|----------------------------------------------------|
D|----------------------------------------------------|
A|--5-7-7--5-7-7--5-7-5--3--2-3--22222222--33333333---|
D|----------------------------------------------------|

Chorus x4
G|------------------------------------------------------|
D|------------------------------------------------------|
A|---------------3-3-----------------------3-3-2--0-0---|
D|--5-5-7--0-0--------0-2-2----5-5-7--0-0---------------|


The Ex

Drop D 

Don't play the first time it's only guitar.

Intro
G--------------------------------------------------
D----------------------------------2-2-2-2-2-4-2-0-
A--------------------------------------------------
D--4-4-4-4-4-4-4-4-0-0-0-0-0-0-0-0-----------------

G--------------------------------------------------
D--------------------------------------------------
A--2-2-2-2-2-4-2-0-----------------4-4-4-4-4-4-4-4-
D------------------2-2-2-2-2-4-2-0-----------------


Verse
G--------------------------------------------------
D----------------------------------2-2-2-2-2-4-2-0-
A--------------------------------------------------
D--4-4-4-4-4-4-4-4-0-0-0-0-0-0-0-0-----------------

G--------------------------------------------------
D------------------2-2-2-2-2-4-2-0-----------------
A--2-2-2-2-2-4-2-0-----------------2-2-2-2-2-4-2-0-
D--------------------------------------------------

G--------------------------------------------------
D--------------------------------------------------
A------------------4-4-4-4-4-4-4-4-----------------
D--2-2-2-2-2-4-2-0---------------------------------


Pre-Chours
G------------------------------------------------------------------
D------------------------------------------------------------------
A--------------------------------------------------4-4-4-4-4-4-4-4-
D--4-4-4-4-4-4-4-4-6-6-6-6-6-6-6-6-7-7-7-7-7-7-7-7-----------------

Chours
G--------------------------------------------------
D--------------------------------------------------
A--5-55------5-55------5-55------------------------
D-------4-44------4-44------4-44-2-22-0-0----------


Post-Chors
G--------------------------------------------------
D--------------------------------------------------
A-----------4-4-4-4-4-4-4-4------------------------
D--2-22-0-0----------------------------------------


Interlude
G--------------------------------------------------
D----------0-242*----------------------------------
A------0-4--------4-4-4-4-4-4-4-4------------------
D--4-6---------------------------------------------
*242 is played super fast!

Order
Intro(just guitar)x1
Intro(With Bass)x1
Verse x2
Pre-Chours x1
Chours x2
Post Chours x1
Verse x2
Pre-Chours x1
Chours x4
Interlude x2
Pre-Chours x1
Chours x2



River Below

Drop D

Intro:
G|------------------------------------|
D|------------------------------------|
A|------------------------------------|
D|-5--5-5-5-0-0-0-0--5--5-5-5-0-0-0-0-|

Verse:
G|---------------------------------------------------------|
D|---------------------------------------------------------| X2
A|-----------3------------3--------------11111111-33333333-|
D|-5-5-5-000----5-5-5-000----5-5-5-3-3-3-------------------|
(Rejected since day one, my name is bastard son...)

Pre Chorus:
G|------------------------------------------------------------|
D|------------------------------------------------------------|
A|-3----3-6--5-3-1----1-5--3-1--3----3-6--5-3-1----1-5--3-1---|
D|----5-------------3--------------5-------------3----------5-|
(I'm sick and im twisted, i'm broken you can't fix it...)

Chorus:
G|------------------------------------------------------------------------|
D|------------------------------------------------------------------------| X2
A|------------------------------11111111--3-3-3-3-------------------------|
D|-55555555--00000000--11111111-------------------5-5-5-5-0-0-0-0-1-1-1-1-|
(Into the river below i'm running from the inferno...)

Fill:
G|------------------------------------|
D|------------------------------------|
A|------------------------------------|
D|-5--5-5-5-0-0-0-0--5--5-5-5-0-0-0-0-|

Verse:
G|---------------------------------------------------------|
D|---------------------------------------------------------| X2
A|-----------3------------3--------------11111111-33333333-|
D|-5-5-5-000----5-5-5-000----5-5-5-3-3-3-------------------|
(contraption made of parts, nuts and bolts create them...)

Pre Chorus:
G|------------------------------------------------------------|
D|------------------------------------------------------------|
A|-3----3-6--5-3-1----1-5--3-1--3----3-6--5-3-1----1-5--3-1---|
D|----5-------------3--------------5-------------3----------5-|
(I'm sick and im twisted, i'm broken you can't fix it...)

Chorus:
G|---------------------------------------|---------------------------------|
D|---------------------------------------|---------------------------------| X2
A|------------------------------11111111-|-3-3-3-3-------------------------|
D|-55555555--00000000--11111111----------|---------5-5-5-5-0-0-0-0-1-1-1-1-|
(Into the river below i'm running from the inferno...)

Fill:
G|------------------------------------|
D|------------------------------------| X2
A|------------------------------------|
D|-5--5-5-5-0-0-0-0--5--5-5-5-0-0-0-0-|
(INTO THE RIVER BELOW!)

Chorus:
G|------------------------------------------------------------------------|
D|------------------------------------------------------------------------|
A|------------------------------11111111--3-3-3-3-------------------------|
D|-55555555--00000000--11111111-------------------5-5-5-5-0-0-0-0-1-1-1-1-|
(Into the river below i'm running from the inferno...)


G|---------------------------------------|---------------------------------|
D|---------------------------------------|---------------------------------| X4
A|------------------------------11111111-|-3-3-3-3-------------------------|
D|-55555555--00000000--11111111----------|---------5-5-5-5-0-0-0-0-1-1-1-1-|
(Into the river below i'm running from the inferno...)

Fill:
G|------------------|
D|------------------| 
A|------------------|
D|-5--5-5-5-0-0-0-0-|


Standing in the Rain

Drop D

Intro / Chorus:
                          2x
G|---------------------------------------------------|
D|---------------------------------------------------|
A|-2---2---------------------------3---3-------------|
D|-------0-2---4-5-4---4-0-5-4-2-0-------0-4---4-0---|

Verse
               3x
G|-----------------------------|---------------------|
D|-----------------------------|---------------------|
A|--22---00--------------------|-22---00-------------|
D|------------0-2-4-0-5-5-5-5--|-----------0-2-4-0-5-|

Pre-Chorus
G|----------------------------------|--------------------------------------------------|
D|----------------------------------|--------------------------------------------------|
A|----------------5-5-5-5-1-4-1-2---|---------------5-5-5-5-1-1-1-11/1313131313131313--|
D|--2-4-5-4---4-4-------------------|-2-4-5-4---4-4------------------------------------|

Interlude
G|---------------------------------|---------------------------------|
D|---------------------------------|---------------------------------|
A|-2-2-2-2-0-0-0-0-----------------|-2-2-2-2-0-0-0-0---------------.-|
D|-----------------0-0-0-0-5-5-5-5-|-----------------0-2-4-0-5-----5-|

Guitar Solo
G|-------------------------------|-----------------------------|
D|---------2-2-------------------|---------2-2-------2-4-0-----|
A|-2-2-4-5-------4-5-5-----------|-2-2-4-5-------4-5-----------|
D|-----------------------4-5---5-|-------------------------5---|

Bridge
      2x                          1x
G|-----------|-------------------------------------------|
D|-----------|---------------------------------------5---|
A|--no bass--|-2-2-2---------------------------3-3-3---.-|
D|-----------|-------0-2-2-4-5-4-4-4-4-5-4-2-0---------4-|


Ending
G|---|
D|-2-|
A|---|
D|---|



Cut the Curtains

Drop D

Intro:
G|------------------------------------|
D|------------------------------------|   X4
A|------------------------------------|
D|-0-0-7--0-0-7--0-7--5-5-7--5-3-3-5-3|
   * *    * *    *    * * 
Verse:
G|---------|------|----|
D|---------|------|----|
A|---------|------|----|
D|-0--5-3-0|-5-3-0|-5-1|

G|------------------------------------|
D|------------------------------------|   
A|------------------------------------|
D|-0-0-7--0-0-7--0-7--5-5-7--5-3-3-5-3|
   * *    * *    *    * * 

G|-----------------------------------|
D|-----------------------------------|   X4 
A|-----------------------------------| 
D|-0-0-7--0-0-7--0-7--5-5-5-5-3-3-3-3|
   * * *  * * *  * *  * * * * * * * * <--Release PM near end on 4th time

G|-------------------------------------|
D|-------------------------------------|
A|-------------------------------------|
D|-0-0-7--0-0-7--0-7--5-5-7--5-7-7-10-7|

Chorus:
G|------------------------------------|
D|------------------------------------|
A|------------------------------------|
D|-0-0-7--0-0-7--0-7--5-5-7--3-3-5-1-1|

G|-------------------------------------|
D|-------------------------------------|
A|-------------------------------------|
D|-0-0-7--0-0-7--0-7--5-5-7--5-7-7-10-7|

Post-Chorus:
G|-----------------------------|
D|-----------------------------|   X2
A|-0---5-7-5-3-----------------|
D|-------------7-5--5-5--3-3--1|

Verse:
G|---------|------|----|
D|---------|------|----|
A|---------|------|----|
D|-0--5-3-0|-5-3-0|-5-1|

G|------------------------------------|
D|------------------------------------|   
A|------------------------------------|
D|-0-0-7--0-0-7--0-7--5-5-7--5-3-3-5-3|
   * *    * *    *    * * 

G|-----------------------------------|
D|-----------------------------------|   X4 
A|-----------------------------------| 
D|-0-0-7--0-0-7--0-7--5-5-5-5-3-3-3-3|
   * * *  * * *  * *  * * * * * * * * <--Release PM near end on 4th time

G|-------------------------------------|
D|-------------------------------------|
A|-------------------------------------|
D|-0-0-7--0-0-7--0-7--5-5-7--5-7-7-10-7|

Chorus:
G|------------------------------------|
D|------------------------------------|
A|------------------------------------|
D|-0-0-7--0-0-7--0-7--5-5-7--3-3-5-1-1|

G|-------------------------------------|
D|-------------------------------------|
A|-------------------------------------|
D|-0-0-7--0-0-7--0-7--5-5-7--5-7-7-10-7|

G|------------------------------------|
D|------------------------------------|
A|------------------------------------|
D|-0-0-7--0-0-7--0-7--5-5-7--3-3-5-1-1|

G|-------------------------------------|
D|-------------------------------------|
A|-------------------------------------|
D|-0-0-7--0-0-7--0-7--5-5-7--5-7-7-10-7|

Solo: (Listen VERY carefully for timing)
G|-----------------------------------------------|
D|-----------------------------------------------|
A|--------------5-3-1-3-----------5-5-5-5-5-5-5-5|
D|-0--5-3-0---0---------0--5-3-0-----------------|

Interlude:
G|------------------------------------|
D|------------------------------------|   X2
A|------------------------------------|
D|-0-0-7--0-0-7--0-7--5-5-7--5-3-3-5-3|
   * *    * *    *    * * 

G|------------------------------------|
D|------------------------------------|   X2
A|------------------------------------|
D|-0-0-7--0-0-7--0-7--5-5-7--5-3-3-5-3|   (Fade out)
   * * *  * * *  * *  * * *  * * * * *

Chorus:
G|------------------------------------|
D|------------------------------------|
A|------------------------------------|
D|-0-0-7--0-0-7--0-7--5-5-7--3-3-5-1-1|

G|-------------------------------------|
D|-------------------------------------|
A|-------------------------------------|
D|-0-0-7--0-0-7--0-7--5-5-7--5-7-7-10-7|

G|------------------------------------|
D|------------------------------------|
A|------------------------------------|
D|-0-0-7--0-0-7--0-7--5-5-7--3-3-5-1-1|

G|-------------------------------------|
D|-------------------------------------|
A|-------------------------------------|
D|-0-0-7--0-0-7--0-7--5-5-7--5-7-7-10-7|

Post-Chorus:
G|-----------------------------|
D|-----------------------------|   X4
A|-0---5-7-5-3-----------------|
D|-------------7-5--5-5--3-3--1|

Outro: (Listen for timing, compare with Post-Chorus)
G|------------|
D|------------|
A|------------|
D|-5-5--3-3--1|


Prisoners of Today

Drop D

Intro (Each Note 16 Times) (0:12)
G|-------------------------------------------------------------|
D|-------------------------------------------------------------|
A|-------------------------------------------------------------|
D|-5-5-5-5-5-----3-3-3-3-3-----0-0-0-0-0-----3-3-3-3-3---------|

Verse #1 (0:24)x8
G|-------------------------------------------------------------|
D|-------------------------------------------------------------|
A|-------------------------------------------------------------|
D|-3---3---5---5-----------------------------------------------|

Verse #2 (0:35)x2
G|-------------------------------------------------------------|
D|-------------------------------------------------------------|
A|-------------------------------------------------------------|
D|-3-3-5-5--7h8p7--5--3-3--5h7p5--3-0-0--2h5p2--0--3-3-5h7p5---|

Break#1  (0:47)
G|-------------------------------------------------------------|
D|-------------------------------------------------------------|
A|-------------------------------------------------------------|
D|-5~-----3~--/12~\-----3~-------------------------------------|

Break#1  (0:58)
G|-------------------------------------------------------------|
D|-------5------------3------------1-------------3-------------|
A|-----5------------3------------1-------------3---------------|
D|-5-5------3-3-3-3------0-0-0-0-------3-3-3-3----5-5-5-5------|

Verse #1 (1:04) x8
Verse #2 (1:16) x2

Break#3(1:28)
G|-------------------------------------------------------------|
D|-------------------------------------------------------------|
A|-------------------------------------------------------------|
D|-5~-----3~-----0~-----3~-------------------------------------|

Chorus#1 (Play Each Note 16 Times) (1:40) x2
G|-------------------------------------------------------------|
D|-------------------------------------------------------------|
A|-------------------------------------------------------------|
D|-5-5-5-5-5-----3-3-3-3-3-----0-0-0-0-0-----3-3-3-3-3---------|

Chorus#2 (Listen Closly because the rythem changes) (2:03) x3
G|-------------------------------------------------------------|
D|-------------------------------------------------------------|
A|-3-3--3-3-3\1-1--1-1-1/5-5--5-5-5/6-6--6-6-6-----------------|
D|-------------------------------------------------------------|

Chorus #3 (2:20) x3
G|-------------------------------------------------------------|
D|-------------------------------------------------------------|
A|-3-3--3-3-3\1-1--1-1-1---------------------------------------|
D|------------------------0-0--0-0-0--1-1--1-1-1---------------|

(2:38) 
G|-------------------------------------------------------------|
D|-------------------------------------------------------------|
A|-------------------------------------------------------------|
D|-5\----------------------------------------------------------|

Break #3 (2:50)
Chorus #1 (3:01)x2

Outro (Play Each Note 16 Times)(3:24)          
G|-------------------------------------------------------------|
D|-5-5-5-5--3-3-3-3--0-0-0-0--3-3-3-3--------------------------|
A|-------------------------------------------------------------|
D|-------------------------------------------------------------|

Ending (3:49) 
G|-------------------------------------------------------------|
D|--------5----------------------------------------------------|
A|------5------------------------------------------------------|
D|-5--5--------------------------------------------------------|



Nothing to Lose

Riff 1 x6
G|---------------------|
D|-----------5---4-1-2-|
A|-------5-3---2-------|
E|-0-2-3---------------|

Riff 2 x2                x2
G|---------------------||-----------------------|
D|---------------------||-----------5---4-1-2---|
A|---------------------||-------5-3---2---------|
E|---------------------||-0-2-3-----------------|

Chorus
G|----------------------------------------|
D|----------------------------------------|
A|-33333333-77777777-55555555-222222------|
E|-----------------------------------32---|

G|-----------------------|---------------------|
D|-----------------------|----------11111111---|
A|-----------------------|---------------------|
E|-00000000-33333333-----|-22222222------------|

Outro x2
G|--------------------|
D|-----------5---4-1-2|
A|-------5-3---2------|
E|-0-2-3--------------|

Order Of Play:
Riff 1
Chorus x3
Riff 2
Chorus x4
Outro


Voices of Violence

Drop D

Intro/Chorus
G|-----------------------------------------------------------------------------------|
D|-----------------------------------------------------------------------------------|
A|----------5555555-3333333-1111111-------3333333-0000000-1111111--------------------|
D|---5555555------------------------0000000------------------------------------------|

Riff 1
G|------------------------------------------------------------------------------------|
D|------------------------------------------------------------------------------------|
A|---444-555-777-555--444-555-777-888----444-555-777-444---0-0-000-0000-0-0-000-0000--|
D|------------------------------------------------------------------------------------|

Riff 2
G|-----------------------------------------------------------------|
D|----7-7-7-7-7-7-7-7--7-7-7-7-7-7-7-7-----------------------------|
A|---4-5-7-5-4-5-7-8--4-5-7-5-4-5-7-8---0-0-000-0000-00-000-0000---|
D|-----------------------------------------------------------------|

Bridge                                x2
G|------------------------------------|
D|------------------------------------|
A|---0----0----0--1--4--5------4--5---|
D|------------------------2--3--------|


Riff 3                                       x2
G|-------------------------------------------|
D|-------------------------------------------|
A|---00000-111-44444-555---------44444-555---|
D|----------------------22222-333------------|

1 comment total.
0 reply
choke383 wrote on March 12 2009, 07:24 pm

so.. you're a "collage" type a guy.
You should have took my "living in the shadows" too. its a little better

I want to post or [tab]
guest
You may want to rate the tab now too:
select rating
Please do not post tabs as comments. Select "correction" instead!