Oops, an error
Loading. Please wait.

Billy Talent Tab

46,014 views 12 this week
8 commentsread comments
1 2 3 4 5
accurate
x 17
Autoscroll
+/-
esc
set tempo
stop
Contributor
Hey! There's an official Ultimate Guitar app which is ideal
for learning songs when you're away from computer. Get the app
WARNING: You are trying to view
                                    content from Ultimate-Guitar.com
                                    in an unauthorized application,
                                    which is prohibited.

                                    Please use an official Ultimate
                                    Guitar Tabs application for iPhone,
                                    iPad or Android to access legitimate
                                    chords, guitar, bass, and drum tabs
                                    from Ultimate-Guitar.com database.

                                    Type "ultimate guitar tabs" in Apple
                                    App Store's or Android Market's
                                    search to find the application.
this is one of my favorite c.d.s so i figured id put all of the tabs together.
dont give me shit because i didnt tab these myself im doing this for the you.
enjoy
all songs in drop d tuning

1)this is how it goes
intro
eI------------------------------x3--I-forth-time-play-------------------|
BI----------------------------------I-----------------------------------|
GI----------------------------------I-----------------------------------|
DI----------------------------------I-------------------------77-7-33-3-|
AI-55555555555555554444444477777788-I-55555555555555554444444477-7-33-3-|
DI----------------------------------I-------------------------77-7-33-3-|

Chorus
e|------------------------------------------------|
B|------6---------6---------5---------------------|
G|------6---------6---------5---------------------|
D|-00-0-4-0--88-8-4-8--33-3-3-3-------------------|
A|-00-0-4-0--88-8-4-8--33-3-3-3-------------------|
D|-00-0---0--88-8---8--33-3---3--7-7-5-3-5-8-5-3--|

e|------------------------------------------------|
B|------6---------6---------5---------------------|
G|------6---------6---------5---------------------|
D|-00-0-4-0--88-8-4-8--33-3-3-3-------------------|
A|-00-0-4-0--88-8-4-8--33-3-3-3-----------------7-|
D|-00-0---0--88-8---8--33-3---3--7-7-5-3-6-8-10---|

e|------------------------------------------------|
B|------6---------6---------5---------------------|
G|------6---------6---------5---------------------|
D|-00-0-4-0--88-8-4-8--33-3-3-3-------------------|
A|-00-0-4-0--88-8-4-8--33-3-3-3-------------------|
D|-00-0---0--88-8---8--33-3---3--7-7-5-3-5-8-5-3--|

e|------------------------------------------------|
B|------6---------6---------5---------------------|
G|------6---------6---------5---------------------|
D|-00-0-4-0--88-8-4-8--33-3-3-3-------------------|
A|-00-0-4-0--88-8-4-8--33-3-3-3-----------------7-|
D|-00-0---0--88-8---8--33-3---3--7-7-5-3-6-8-10---|

Verse
The verse is basiclly the intro
eI------------------------------x3--I-forth-time-play-------------------|
BI----------------------------------I-----------------------------------|
GI----------------------------------I-----------------------------------|
DI----------------------------------I-------------------------77-7-33-3-|
AI-55555555555555554444444477777788-I-55555555555555554444444477-7-33-3-|
DI----------------------------------I-------------------------77-7-33-3-|

(Chorus)

Verse
eI------------------------------x5--I-Sixth-time-play-------------------|
BI----------------------------------I-----------------------------------|
GI----------------------------------I-----------------------------------|
DI----------------------------------I-------------------------77-7-33-3-|
AI-55555555555555554444444477777788-I-55555555555555554444444477-7-33-3-|
DI----------------------------------I-------------------------77-7-33-3-|

(Chorus)

Before Interlude
e|----------------------------------------------|
B|------6--------6--------5---------------------|
G|------6--------6--------5---------------------|
D|-00-0-4-0-88-8-4-8-33-3-3-3--88-33------------|
A|-00-0-4-0-88-8-4-8-33-3-3-3--88-33------------|
D|-00-0---0-88-8---8-33-3---3--88-33------------|

Interlude
e|-11111-11111111-11111-11111111-1111-11111111-5555-55555555--|
B|-33333-33333333-33333-33333333-3333-33333333-3333-33333333--|
G|-22222-22222222-33333-33333333-2222-22222222-3333-33333333--|
D|---------------------------------------------2222-22222222--|
A|------------------------------------------------------------|
D|------------------------------------------------------------|

e|-1111111111111-1111111111111-111111111111-555555555555--|
B|-3333333333333-3333333333333-333333333333-333333333333--|
G|-2222222222222-3333333333333-222222222222-333333333333--|
D|------------------------------------------222222222222--|
A|--------------------------------------------------------|
D|--------------------------------------------------------|

Chorus
e|------------------------------------------------|
B|------6---------6---------5---------------------|
G|------6---------6---------5---------------------|
D|-00-0-4-0--88-8-4-8--33-3-3-3-------------------|
A|-00-0-4-0--88-8-4-8--33-3-3-3-------------------|
D|-00-0---0--88-8---8--33-3---3--7-7-5-3-5-8-5-3--|

e|------------------------------------------------|
B|------6---------6---------5---------------------|
G|------6---------6---------5---------------------|
D|-00-0-4-0--88-8-4-8--33-3-3-3-------------------|
A|-00-0-4-0--88-8-4-8--33-3-3-3-----------------7-|
D|-00-0---0--88-8---8--33-3---3--7-7-5-3-6-8-10---|

e|------------------------------------------------|
B|------6---------6---------5---------------------|
G|------6---------6---------5---------------------|
D|-00-0-4-0--88-8-4-8--33-3-3-3-------------------|
A|-00-0-4-0--88-8-4-8--33-3-3-3-------------------|
D|-00-0---0--88-8---8--33-3---3--7-7-5-3-5-8-5-3--|

e|---------------------------------------------------------------------------|
B|------6---------6---------5------------------------------------------------|
G|------6---------6---------5------------------------------------------------|
D|-00-0-4-0--88-8-4-8--33-3-3-3------------------00--------------------------|
A|-00-0-4-0--88-8-4-8--33-3-3-3------------------00--------------------------|
D|-00-0---0--88-8---8--33-3---3--7-7-5-3-5-8-5-3-00--------------------------|
-----------------------------------------------------------------------------|

2.living in the shadows
 Intro and Verse:

e|-------------7----------5----------------------|
b|--10---------8----------6----------------------|
g|--x----------9----------7----------------------|
d|--7----------9----------7----------------------|
a|--8----------7----------5----------8-5-7-0-0-0-|
D|------------------------0----------8-5-7-0-0-0-|

Chorus:

e|-----------------------------------------------|
b|--6----------8----------11---------------------|
g|--5----------7----------10---------2-----------|
d|--3----------5----------8----------0-----------|
a|--3----------5----------8----------0-----------|
D|--3----------5----------8----------0-----------|

Bridge:

e|--5----------3---------------------1-----------|
b|--6----------5----------6----------3-----------|
g|--7----------3----------5----------3-----------|
d|--7----------5----------3----------3-----------|
a|--5----------3----------3----------1-----------|
D|--0---------------------3----------------------|

----------------------------------------------------------------------------

3.)try honesty

Intro
E|----0----------0---------0---------0----------0--------0--------0-------0-
B|----2----------2---------2---------2----------0--------0--------0-------0-
G|------2----------2-----2---2-----2---2------2---2-----2--------4-------6--
D|--0----------0----------------------------4---------4------4/6-----6/7---7
A|2----------2---------0---------0------------------------------------------
D|--------------------------------------------------------------------------

E|----0----------0---------0---------0------0-0-0-0-0-0-0-0-0-0-0-0-0-0
G|----2----------2---------2---------2------0-0-0-0-0-0-0-0-0-0-0-0-0-0
D|------2----------2-----2---2-----2---2----2-2-2-2-2-2-2-2/4-4-4-4/5-5
A|--0----------0----------------------------4-4-4-4-4-4-4-4/6-6-6-6/7-7
D|2----------2---------0---------0-------------------------------------

E|0-0---0-0-0-0-00-0-0---0-0-0-0-00--------------5
B|2-2---2-2-2-2-22-2-2---2-2-2-2-22-----5--------5
G|2-2---2-2-2-2-22-2-2---2-2-2-2-22------6-------5
D|0-0---0-0-0-0-00-2-2---2-2-2-2-22-4-----7-6-7\4-
A|2-2---2-2-2-2-22-0-0---0-0-0-0-00-4-------0-----
D|----------------------------------4-------0-----

E|0-0---0-0-0-0-00-0-0---0-0-0-0-00--------------5
B|2-2---2-2-2-2-22-2-2---2-2-2-2-22-----5--------5
G|2-2---2-2-2-2-22-2-2---2-2-2-2-22------5-------5
D|0-0---0-0-0-0-00-2-2---2-2-2-2-22-4-----7-6-7\4-
A|2-2---2-2-2-2-22-0-0---0-0-0-0-00-4-------0-----
D|----------------------------------4-------0-----

E|0-0---0-0-0-0-00-0-0---0-0-0-0-00--------------5---------------5
B|2-2---2-2-2-2-22-2-2---2-2-2-2-22-----5--------5------5--------5
G|2-2---2-2-2-2-22-2-2---2-2-2-2-22------6-------5-------6-------5
D|0-0---0-0-0-0-00-2-2---2-2-2-2-22-4-----7-6-7\4---4-----7-6-7\4-
A|2-2---2-2-2-2-22-0-0---0-0-0-0-00-4-------0-------4-------0-----
D|----------------------------------4-------0-------4-------0-----

Verse
E|-------------------------------------------------------------
B|-------------------------------------------------------------
G|-------------------------------------------------------------
D|4-----------------0--------------------4--------------------0
A|4-----------------0--------------------4--------------------0
D|4-----------------0--------------------4--------------------0
   Well I tripped   I fell down          Na- - - - - - - - - -ked

E|----------------------------------------------------------------
B|----------------------------------------------------------------
G|----------------------------------------------------------------
D|4-----------------0--------------------4--------------------0
A|4-----------------0--------------------4--------------------0
D|4-----------------0--------------------4--------------------0
   Well I scratched   My knees           The- - - - - - - -y  Bled

E|-----------------------------------------------------------------5
B|------------------------------------------------------5----------5
G|--------------------------------------------------------6--------5
D|4-----------------0--------------------4------------------7-6-7\4-
A|4-----------------0--------------------4--------------------0-----
D|4-----------------0--------------------4--------------------0-----
    Sew up            My eyes            Ne- - - - - - - - -d No more

E|-----------------------------------------------------------------5
B|------------------------------------------------------5----------5
G|--------------------------------------------------------6--------5
D|4-----------------0--------------------4------------------7-6-7\4-
A|4-----------------0--------------------4--------------------0-----
D|4-----------------0--------------------4--------------------0-----
   In our game        There is           No- - - - - - - - -  Score

Chorus
E|0--0----0-0-0-0-00--0---0------0--0-0-0-00-
B|2--2----2-2-2-2-22--2---2------2--2-2-2-22-
G|2--2----2-2-2-2-22--2---2------2--2-2-2-22-
D|0--0----0-0-0-0-00--2---2------2--2-2-2-22-
A|2--2----2-2-2-2-22--0---0------0--0-0-0-00-
D|-----------------------------------
  Forgive me father   Why should ya bother

E|--------------------------------
B|--------------------------------
G|--------------------------------
D|7-7-7-6-6-6-4-0-6-6-6-4-4-4-2-0-
A|4-4-4-4-4-4-4-0-2-2-2-2-2-2-2-0-
D|4-4-4-4-4-4-4-0-2-2-2-2-2-2-2-0-
  TRY   HONESTY!  TRY   HONESTY!

E|0---0--0----0--0-0-00---0-0-----0---0--0-0-00-
B|2---2--2----2--2-2-22---2-2-----2---2--2-2-22-
G|2---2--2----2--2-2-22---2-2-----2---2--2-2-22-
D|0---0--0----0--0-0-00---2-2-----2---2--2-2-22-
A|2---2--2----2--2-2-22---0-0-----0---0--0-0-00-
D|---------------------------------------
  Hop in your dump truck  Reverse for good luck

E|--------------------------------
B|--------------------------------
G|--------------------------------
D|7-7-7-6-6-6-4-0-6-6-6-4-4-4-2-0-
A|4-4-4-4-4-4-4-0-2-2-2-2-2-2-2-0-
D|4-4-4-4-4-4-4-0-2-2-2-2-2-2-2-0-
  RIDE  OVER  ME! RIDE  OVER  ME!

E|0---0---0---0--0--0-00---0-----0-----0--0--0--0-00-
B|2---2---2---2--2--2-22---2-----2-----2--2--2--2-22-
G|2---2---2---2--2--2-22---2-----2-----2--2--2--2-22-
D|0---0---0---0--0--0-00---2-----2-----2--2--2--2-22-
A|2---2---2---2--2--2-22---0-----0-----0--0--0--0-00-
D|---------------------------------------
  Take on the whole world  Fight with the young girls

E|--------------------------------
B|--------------------------------
G|--------------------------------
D|7-7-7-6-6-6-4-0-6-6-6-4-4-4-2-0-
A|4-4-4-4-4-4-4-0-2-2-2-2-2-2-2-0-
D|4-4-4-4-4-4-4-0-2-2-2-2-2-2-2-0-
  DIE   TRAGEDY!  DIE   TRAGEDY!

E|0---0---0--0--0--0-00--0--0----0---0--0--0-00-
B|2---2---2--2--2--2-22--2--2----2---2--2--2-22-
G|2---2---2--2--2--2-22--2--2----2---2--2--2-22-
D|0---0---0--0--0--0-00--2--2----2---2--2--2-22-
A|2---2---2--2--2--2-22--0--0----0---0--0--0-00-
D|--------------------------------------------
  Call me a  cheap skate Come on for petes sake

E|--------------------------------
B|--------------------------------
G|--------------------------------
D|7-7-7-6-6-6-4-0-6-6-6-4-4-4-2-0-
A|4-4-4-4-4-4-4-0-2-2-2-2-2-2-2-0-
D|4-4-4-4-4-4-4-0-2-2-2-2-2-2-2-0-
  CRY   AGONY!    CRY   AGONY!


E|-------------5---------------5-
B|----5--------5------5--------5-
G|-----6-------5-------6-------5-
D|4-----7-6-7\4---4-----7-6-7\4--
A|4-------0-------4-------0------
D|4-------0-------4-------0------

Verse 2
E|--------------------------------------------------------
B|--------------------------------------------------------
G|--------------------------------------------------------
D|4----------------0--------------------4----------------0
A|4----------------0--------------------4----------------0
D|4----------------0--------------------4----------------0
   I'm insane       It's your fault     So               Sly

E|---------------------------------------------------------
B|---------------------------------------------------------
G|---------------------------------------------------------
D|4-----------------0--------------------4----------------0
A|4-----------------0--------------------4----------------0
D|4-----------------0--------------------4----------------0
    Your well         Of lies            Ran              Dry

E|--------------------------------------------------------------5-
B|--------------------------------------------------5-----------5-
G|----------------------------------------------------6---------5-
D|4-----------------0--------------------4--------------7-6-7\4---
A|4-----------------0--------------------4----------------0-------
D|4-----------------0--------------------4----------------0-------
   Well I cut         The cord           Free             Fall

E|--------------------------------------------------------------5-
B|--------------------------------------------------5-----------5-
G|----------------------------------------------------6---------5-
D|4-----------------0--------------------4--------------7-6-7\4---
A|4-----------------0--------------------4----------------0-------
D|4-----------------0--------------------4----------------0-------
   From so high       We seem            So               small

Chorus
E|0--0----0-0-0-0-00--0---0------0--0-0-0-00-
B|2--2----2-2-2-2-22--2---2------2--2-2-2-22-
G|2--2----2-2-2-2-22--2---2------2--2-2-2-22-
D|0--0----0-0-0-0-00--2---2------2--2-2-2-22-
A|2--2----2-2-2-2-22--0---0------0--0-0-0-00-
D|-----------------------------------
  Forgive me father   Why should ya bother

E|--------------------------------
B|--------------------------------
G|--------------------------------
D|7-7-7-6-6-6-4-0-6-6-6-4-4-4-2-0-
A|4-4-4-4-4-4-4-0-2-2-2-2-2-2-2-0-
D|4-4-4-4-4-4-4-0-2-2-2-2-2-2-2-0-
  TRY   HONESTY!  TRY   HONESTY!

E|0---0--0----0--0-0-00---0-0-----0---0--0-0-00-
B|2---2--2----2--2-2-22---2-2-----2---2--2-2-22-
G|2---2--2----2--2-2-22---2-2-----2---2--2-2-22-
D|0---0--0----0--0-0-00---2-2-----2---2--2-2-22-
A|2---2--2----2--2-2-22---0-0-----0---0--0-0-00-
D|---------------------------------------
  Hop in your dump truck  Reverse for good luck

E|--------------------------------
B|--------------------------------
G|--------------------------------
D|7-7-7-6-6-6-4-0-6-6-6-4-4-4-2-0-
A|4-4-4-4-4-4-4-0-2-2-2-2-2-2-2-0-
D|4-4-4-4-4-4-4-0-2-2-2-2-2-2-2-0-
  RIDE  OVER  ME! RIDE  OVER  ME!

E|0---0---0---0--0--0-00---0-----0-----0--0--0--0-00-
B|2---2---2---2--2--2-22---2-----2-----2--2--2--2-22-
G|2---2---2---2--2--2-22---2-----2-----2--2--2--2-22-
D|0---0---0---0--0--0-00---2-----2-----2--2--2--2-22-
A|2---2---2---2--2--2-22---0-----0-----0--0--0--0-00-
D|---------------------------------------
  Take on the whole world  Fight with the young girls

E|--------------------------------
B|--------------------------------
G|--------------------------------
D|7-7-7-6-6-6-4-0-6-6-6-4-4-4-2-0-
A|4-4-4-4-4-4-4-0-2-2-2-2-2-2-2-0-
D|4-4-4-4-4-4-4-0-2-2-2-2-2-2-2-0-
  DIE   TRAGEDY!  DIE   TRAGEDY!

E|0---0---0--0--0--0-00--0--0----0---0--0--0-00-
B|2---2---2--2--2--2-22--2--2----2---2--2--2-22-
G|2---2---2--2--2--2-22--2--2----2---2--2--2-22-
D|0---0---0--0--0--0-00--2--2----2---2--2--2-22-
A|2---2---2--2--2--2-22--0--0----0---0--0--0-00-
D|--------------------------------------------
  Call me a  cheap skate Come on for petes sake

E|--------------------------------
B|--------------------------------
G|--------------------------------
D|7-7-7-6-6-6-4-0-6-6-6-4-4-4-2-0-
A|4-4-4-4-4-4-4-0-2-2-2-2-2-2-2-0-
D|4-4-4-4-4-4-4-0-2-2-2-2-2-2-2-0-
  CRY   AGONY!    CRY   AGONY!


Bridge                                  ~   ~
E|------------------9\------------------0---0
B|--------5^--------7\--------5^--------2---2
G|--------5^------------------5^--------2---2
D|4-4-4-4---0-0-0-0---3-3-3-3---0-0-0-0-0---2
A|4-4-4-4---0-0-0-0---3-3-3-3---0-0-0-0-2---0
D|4-4-4-4---0-0-0-0---3-3-3-3---0-0-0-0------
                                    UHHHAACHACHA
                                        ~   ~
E|------------------9\------------------0---0
B|--------5^--------7\--------5^--------2---2
G|--------5^------------------5^--------2---2
D|4-4-4-4---0-0-0-0---3-3-3-3---0-0-0-0-0---2
A|4-4-4-4---0-0-0-0---3-3-3-3---0-0-0-0-2---0
D|4-4-4-4---0-0-0-0---3-3-3-3---0-0-0-0------

                                                          ~   ~
E|--------------------------------------------------------0---0
B|--------------------------------------------------------2---2
G|--------------------------------------------------------2---2
D|4----4-2-4-7-4-2-0--------------0--3---3-2-3-5-3-2-0----0---2
A|4----4-2-4-7-4-2-0--------------0--3---3-2-3-5-3-2-0----2---0
D|4----4-2-4-7-4-2-0----------12--0--3---3-2-3-5-3-2-0---------
                              ~~
   I'm insane       It's your fault  CRY!!!!!!!!!!!!!!!!!!!!!!!

                                                          ~   ~
E|--------------------------------------------------------0---0
B|--------------------------------------------------------2---2
G|--------------------------------------------------------2---2
D|4----4-2-4-7-4-2-0--------------0--3---3-2-3-5-3-2-0----0---2
A|4----4-2-4-7-4-2-0--------------0--3---3-2-3-5-3-2-0----2---0
D|4----4-2-4-7-4-2-0----------12--0--3---3-2-3-5-3-2-0---------
                              ~~
   I'm insane       It's your fault  CRY!!!!!!!!!!!!!!!!!!!!!!!

E|------------------------------------------------------------------
B|------------------------------------------------------------------
G|------------------------------------------------------------------
D|4----4-2-4-7-4-2-0--------------0--3-3-3-3-0-0-0-0-2-2-2-2-3-3-3-3
A|4----4-2-4-7-4-2-0--------------0--3-3-3-3-3-3-3-3-3-3-3-3-3-3-3-3
D|4----4-2-4-7-4-2-0----------12--0--3-3-3-3-3-3-3-3-3-3-3-3-3-3-3-3
                              ~~
   I'm insane       It's your fault  CRY!!!!!!!!!!!!!!!!!!!!!!!!!!!!

E|-------------------------------
B|-------------------------------
G|-------------------------------
D|4-4-4-4-6-6-6-6-7-7-7-7-9-9-9-9
A|0-0-0-0-0-0-0-0-0-0-0-0-0-0-0-0
D|0-0-0-0-0-0-0-0-0-0-0-0-0-0-0-0

Intro
E|0---0----------0---------0---------0----------0--------0--------0-------0-
B|2---2----------2---------2---------2----------0--------0--------0-------0-
G|2-----2----------2-----2---2-----2---2------2---2-----2--------4-------6--
D|0-0----------0----------------------------4---------4------4/6-----6/7---7
A|2----------2---------0---------0------------------------------------------
D|--------------------------------------------------------------------------

E|----0----------0---------0---------0----------0--------0--------0-------0-
B|----2----------2---------2---------2----------0--------0--------0-------0-
G|------2----------2-----2---2-----2---2------2---2-----2--------4-------6--
D|--0----------0----------------------------4---------4------4/6-----6/7---7
A|2----------2---------0---------0------------------------------------------
D|--------------------------------------------------------------------------

E|----0----------0---------0---------0----------0--------0--------0-------0-
B|----2----------2---------2---------2----------0--------0--------0-------0-
G|------2----------2-----2---2-----2---2------2---2-----2--------4-------6--
D|--0----------0----------------------------4---------4------4/6-----6/7---7
A|2----------2---------0---------0------------------------------------------
D|--------------------------------------------------------------------------
  Forgive me father    Why should ya bother No------------------------w 

E|----0----------0---------0---------0------0-0-0-0-0-0-0-0-0-0-0-0-0-0
G|----2----------2---------2---------2------0-0-0-0-0-0-0-0-0-0-0-0-0-0
D|------2----------2-----2---2-----2---2----2-2-2-2-2-2-2-2-4-4-4-4-5-5
A|--0----------0----------------------------4-4-4-4-4-4-4-4-6-6-6-6-7-7
D|2----------2---------0---------0-------------------------------------
  Forgive me father    Why should ya bother No------------------------w

Chorus
E|0--0----0-0-0-0-00--0---0------0--0-0-0-00-
B|2--2----2-2-2-2-22--2---2------2--2-2-2-22-
G|2--2----2-2-2-2-22--2---2------2--2-2-2-22-
D|0--0----0-0-0-0-00--2---2------2--2-2-2-22-
A|2--2----2-2-2-2-22--0---0------0--0-0-0-00-
D|-----------------------------------
  Forgive me father   Why should ya bother

E|--------------------------------
B|--------------------------------
G|--------------------------------
D|7-7-7-6-6-6-4-0-6-6-6-4-4-4-2-0-
A|4-4-4-4-4-4-4-0-2-2-2-2-2-2-2-0-
D|4-4-4-4-4-4-4-0-2-2-2-2-2-2-2-0-
  TRY   HONESTY!  TRY   HONESTY!

E|0---0--0----0--0-0-00---0-0-----0---0--0-0-00-
B|2---2--2----2--2-2-22---2-2-----2---2--2-2-22-
G|2---2--2----2--2-2-22---2-2-----2---2--2-2-22-
D|0---0--0----0--0-0-00---2-2-----2---2--2-2-22-
A|2---2--2----2--2-2-22---0-0-----0---0--0-0-00-
D|---------------------------------------
  Hop in your dump truck  Reverse for good luck

E|--------------------------------
B|--------------------------------
G|--------------------------------
D|7-7-7-6-6-6-4-0-6-6-6-4-4-4-2-0-
A|4-4-4-4-4-4-4-0-2-2-2-2-2-2-2-0-
D|4-4-4-4-4-4-4-0-2-2-2-2-2-2-2-0-
  RIDE  OVER ME!  RIDE OVER ME!

E|0---0---0---0--0--0-00---0-----0-----0--0--0--0-00-
B|2---2---2---2--2--2-22---2-----2-----2--2--2--2-22-
G|2---2---2---2--2--2-22---2-----2-----2--2--2--2-22-
D|0---0---0---0--0--0-00---2-----2-----2--2--2--2-22-
A|2---2---2---2--2--2-22---0-----0-----0--0--0--0-00-
D|---------------------------------------
  Take on the whole world  Fight with the young girls

E|--------------------------------
B|--------------------------------
G|--------------------------------
D|7-7-7-6-6-6-4-0-6-6-6-4-4-4-2-0-
A|4-4-4-4-4-4-4-0-2-2-2-2-2-2-2-0-
D|4-4-4-4-4-4-4-0-2-2-2-2-2-2-2-0-
  DIE   TRAGEDY!  DIE   TRAGEDY!

E|0---0---0--0--0--0-00--0--0----0---0--0--0-00-
B|2---2---2--2--2--2-22--2--2----2---2--2--2-22-
G|2---2---2--2--2--2-22--2--2----2---2--2--2-22-
D|0---0---0--0--0--0-00--2--2----2---2--2--2-22-
A|2---2---2--2--2--2-22--0--0----0---0--0--0-00-
D|--------------------------------------------
  Call me a  cheap skate Come on for petes sake

E|--------------------------------
B|--------------------------------
G|--------------------------------
D|7-7-7-6-6-6-4-0-6-6-6-4-4-4-2-0-
A|4-4-4-4-4-4-4-0-2-2-2-2-2-2-2-0-
D|4-4-4-4-4-4-4-0-2-2-2-2-2-2-2-0-
  CRY   AGONY!    CRY   AGONY!
      
      ~   ~   ~       ~   ~   ~
E|0---0---0---0---0---0---0---0-------------------------------------
B|2---2---2---2---2---2---2---2-------------------------------------
G|2---2---2---2---2---2---2---2-------------------------------------
D|0---0---0---0---2---2---2---2-----7-7-7-6-6-6-4-0-6-6-6-4-4-4-2-0-
A|2---2---2---2---0---0---0---0-----4-4-4-4-4-4-4-0-2-2-2-2-2-2-2-0-
D|----------------------------------4-4-4-4-4-4-4-0-2-2-2-2-2-2-2-0-
                                    CRY   AGONY!    CRY   AGONY!  

      ~   ~   ~       ~   ~   ~
E|0---0---0---0---0---0---0---0------------------------------------
B|2---2---2---2---2---2---2---2------------------------------------
G|2---2---2---2---2---2---2---2------------------------------------
D|0---0---0---0---2---2---2---2-----7-7-7-6-6-6-4-0-6-6-6-4-4-4-2-0-
A|2---2---2---2---0---0---0---0-----4-4-4-4-4-4-4-0-2-2-2-2-2-2-2-0-
D|----------------------------------4-4-4-4-4-4-4-0-2-2-2-2-2-2-2-0-
                                    TRY   HONESTY!  TRY   HONESTY!

      ~   ~   ~       ~   ~   ~
E|0---0---0---0---0---0---0---0------------------------------------
B|2---2---2---2---2---2---2---2------------------------------------
G|2---2---2---2---2---2---2---2------------------------------------
D|0---0---0---0---2---2---2---2----7-7-7-6-6-6-4-0-6-6-6-4-4-4-2-0-
A|2---2---2---2---0---0---0---0----4-4-4-4-4-4-4-0-2-2-2-2-2-2-2-0-
D|---------------------------------4-4-4-4-4-4-4-0-2-2-2-2-2-2-2-0-
                                   CRY   AGONY!    CRY   AGONY!

      ~   ~   ~       ~   ~   ~
E|0---0---0---0---0---0---0---0----------------------0
B|2---2---2---2---2---2---2---2----------------------2
G|2---2---2---2---2---2---2---2----------------------2
D|0---0---0---0---2---2---2---2----7-7-7-7\6-6-6-6-0-0
A|2---2---2---2---0---0---0---0----4-4-4-4---2-2-2-0-2
D|---------------------------------4-4-4-4---2-2-2-0--
                                   rit.

----------------------------------------------------------------------------

4.)line and sinker
Intro / Chorus:

E-------------------------|
B-------------------------|
G-------------------------|
D----------22222----------|  x1
A-44444444-00000----4-2-0-|
D-44444444----------------|

Part A:

E-0-0--0--------|
B-2-2--2--------|
G-2-2--2--------|
D-000--x--------|  x1
A------2----5-2-|
D---------------|

Part B:

E-------------------------0000000000000000-0000000000000000-|
B-------------------------2222222222222222-2222222222222222-|
G-------------------------2222222222222222-2222222222222222-|
D----------22222----------0000000000000000-xxxxxxxxxxxxxxxx-|
A-44444444-00000----4-2-0------------------2222222222222222-|
D-44444444--------------------------------------------------|

Verse:

E-----0------0-------0------0-------0-0---0-0---0---0-0---0000---0--0--0--0--|
B-----2------2-------2------2b------8-8---8-8---7---7-7---7777---7--7--7--7--|
G----2------2-2-----2------2--------9-9---9-9---7---7-7---7777---9--9--9--9--|
D----------------------------------------------------------------11-11-11-11-|
A--------2--------------0----------------------------------------------------|
D-0--------------4-----------------------------------------------------------|

E-0-0-0-0--|
B-7-7-7-7--|
G-7-7-7-7--|
D-9-9-9-9--|  x4
A----------|
D----------|

Part C:

E----------------------0--0--0--------|
B----------------------2--2--2--------|
G----------------------2--2--2--------|
D----------22222-------0--0--x--------|
A-44444444-00000-4-2-0-------2---5--2-|
D-44444444----------------------------|

Bridge:

E-------------------|
B-5--5--55---33---3-|
G-------------------|
D-------------------|  x2
A-------------------|
D-------------------|

E-0-0---0-0-|
B-8-8---7-7-|
G-9-9---7-7-|
D-----------|  x4
A-----------|
D-----------|

End:

E-0-
B-2-
G-2-
D-0-
A---
D---
----------------------------------------------------------------------------

5.)lies
Intro/Chorus
e|-----------------------0--------------------------------0------|
B|-----------------------1h3-1-0--------------------------0-3----|
G|--4--4-5-4--2----------0----------4--4-5-4--2-------0h2-2------|
D|---------------------2----------------------------2------------|
A|-------------------3----------------------------3--------------|
D|---------------------------------------------------------------|

Verse
e|---------------0----0----0----0----0----0--0-----0--0-----0-0----0---0--------|
B|----------5----7----5----8----7----5----5--5h6---5--5h6---5-5h6--5h6-5h6------|
G|-----4---------7----5----9----7----5----4--4-----4--4-----4-4----4---4--------|
D|------------------------------------------------------------------------------|
A|------------------------------------------------------------------------------|
D|------------------------------------------------------------------------------|

Bridge
e|---0-00----0-00----0-0-0-0-0-0----2-------|--5-77----5-77----5-7-5-3-2-3----2---------|
B|---7-88----7-88----7-8-7-5-3-5----0-(x16)-|--7-88----7-88----7-8-7-5-3-5----0-(x16)---|
G|---7-99----7-99----7-9-7-5-4-4----4-------|--7-99----7-99----7-9-7-5-4-4----4---------|
D|------------------------------------------|-------------------------------------------|
A|------------------------------------------|-------------------------------------------|
D|------------------------------------------|-------------------------------------------|

----------------------------------------------------------------------------

6.)the ex
Intro: (x2)
e|-----------------------------------|
B|-----------------------------------|
G|-----------------------------------|
D|-7---7---6---4-----7---7---6---4---|
A|-----------------------------------|
D|---4---4---4---4-----0---0---0---0-|

e|-----------------------------------------------------|
B|-----------------------------------------------------|
G|-----------------------------------------------------|
D|-2-2-2-2-2-4-2-0-------------------------------------|
A|-0-0-0-0-0-0-0-0---2-2-2-2-2-4-2-0---2-2-2-2-2-4-2-0-|
D|-------------------0-0-0-0-0-0-0-0---2-2-2-2-2-2-2-2-|

e|-4-4-4-4-4-4-4-4-|
B|-6-6-6-6-6-6-6-6-|
G|-4-4-4-4-4-4-4-4-|
D|-6-6-6-6-6-6-6-6-|
A|-4-4-4-4-4-4-4-4-|
D|-----------------|

Verse: (x2)
e|---------------------------------------------------------------------|
B|---------------------------------------------------------------------|
G|---------------------------------------------------------------------|
D|-4-4-4-4-4-4-4-4-0-0-0-0-0-0-0-0---2-2-2-2-2-4-2-0-------------------|
A|-4-4-4-4-4-4-4-4-0-0-0-0-0-0-0-0---0-0-0-0-0-0-0-0---2-2-2-2-2-4-2-0-|
D|-4-4-4-4-4-4-4-4-0-0-0-0-0-0-0-0---------------------0-0-0-0-0-0-0-0-|
(******************************Palm*Muted******************************)

e|-----------------------------------------------------|
B|-----------------------------------------------------|
G|-----------------------------------------------------|
D|-2-2-2-2-2-4-2-0-------------------------------------|
A|-0-0-0-0-0-0-0-0---2-2-2-2-2-4-2-0---2-2-2-2-2-4-2-0-|
D|-------------------0-0-0-0-0-0-0-0---2-2-2-2-2-2-2-2-|
(*********Palm*Muted**********)

e|-4-4-4-4-4-4-4-4-|
B|-6-6-6-6-6-6-6-6-|
G|-4-4-4-4-4-4-4-4-|
D|-6-6-6-6-6-6-6-6-|
A|-4-4-4-4-4-4-4-4-|
D|-----------------|

Pre-Chorus:
e|-------------------------------------------------4-4-4-4-4-4-4-4-|
B|-------------------------------------------------6-6-6-6-6-6-6-6-|
G|-------------------------------------------------4-4-4-4-4-4-4-4-|
D|-4-4-4-4-4-4-4-4-6-6-6-6-6-6-6-6-7-7-7-7-7-7-7-7-6-6-6-6-6-6-6-6-|
A|-4-4-4-4-4-4-4-4-6-6-6-6-6-6-6-6-7-7-7-7-7-7-7-7-4-4-4-4-4-4-4-4-|
D|-4-4-4-4-4-4-4-4-6-6-6-6-6-6-6-6-7-7-7-7-7-7-7-7-----------------|
(****************Palm*Muted*****************)

Chorus:
e|-------------------------------------------------|
B|-------------------------------------------------|
G|-6-6---------7-7---------7-7---------------------|
D|-6-6---4-4---7-7---4-4---7-7---4-4---2-2-/-4-0-0-|
A|-4-4---4-4---5-5---4-4---5-5---4-4---2-2-/-4-0-0-|
D|-------4-4---------4-4---------4-4---2-2-/-4-0-0-|

e|---------------------------------------------------------------|
B|---------------------------------------------------------------|
G|-6-6---------7-7---------7-7-----------------------------------|
D|-6-6---4-4---7-7---4-4---7-7---4-4---2-2-/-4-0-0---2-2-/-4-0-0-|
A|-4-4---4-4---5-5---4-4---5-5---4-4---2-2-/-4-0-0---2-2-/-4-0-0-|
D|-------4-4---------4-4---------4-4---2-2-/-4-0-0---2-2-/-4-0-0-|

e|-4-4-4-4-4-4-4-4-|
B|-6-6-6-6-6-6-6-6-|
G|-4-4-4-4-4-4-4-4-|
D|-6-6-6-6-6-6-6-6-|
A|-4-4-4-4-4-4-4-4-|
D|-----------------|

Verse 2: (x2)
e|---------------------------------------------------------------------|
B|---------------------------------------------------------------------|
G|---------------------------------------------------------------------|
D|-4-4-4-4-4-4-4-4-0-0-0-0-0-0-0-0---2-2-2-2-2-4-2-0-------------------|
A|-4-4-4-4-4-4-4-4-0-0-0-0-0-0-0-0---0-0-0-0-0-0-0-0---2-2-2-2-2-4-2-0-|
D|-4-4-4-4-4-4-4-4-0-0-0-0-0-0-0-0---------------------0-0-0-0-0-0-0-0-|
(******************************Palm*Muted******************************)

e|-----------------------------------------------------|
B|-----------------------------------------------------|
G|-----------------------------------------------------|
D|-2-2-2-2-2-4-2-0-------------------------------------|
A|-0-0-0-0-0-0-0-0---2-2-2-2-2-4-2-0---2-2-2-2-2-4-2-0-|
D|-------------------0-0-0-0-0-0-0-0---2-2-2-2-2-2-2-2-|
(*********Palm*Muted**********)

e|-4-4-4-4-4-4-4-4-|
B|-6-6-6-6-6-6-6-6-|
G|-4-4-4-4-4-4-4-4-|
D|-6-6-6-6-6-6-6-6-|
A|-4-4-4-4-4-4-4-4-|
D|-----------------|

Pre-Chorus:
e|-------------------------------------------------4-4-4-4-4-4-4-4-|
B|-------------------------------------------------6-6-6-6-6-6-6-6-|
G|-------------------------------------------------4-4-4-4-4-4-4-4-|
D|-4-4-4-4-4-4-4-4-6-6-6-6-6-6-6-6-7-7-7-7-7-7-7-7-6-6-6-6-6-6-6-6-|
A|-4-4-4-4-4-4-4-4-6-6-6-6-6-6-6-6-7-7-7-7-7-7-7-7-4-4-4-4-4-4-4-4-|
D|-4-4-4-4-4-4-4-4-6-6-6-6-6-6-6-6-7-7-7-7-7-7-7-7-----------------|
(****************Palm*Muted*****************)

Chorus 2: (x3)
e|-------------------------------------------------|
B|-------------------------------------------------|
G|-6-6---------7-7---------7-7---------------------|
D|-6-6---4-4---7-7---4-4---7-7---4-4---2-2-/-4-0-0-|
A|-4-4---4-4---5-5---4-4---5-5---4-4---2-2-/-4-0-0-|
D|-------4-4---------4-4---------4-4---2-2-/-4-0-0-|

I'm not sure of what the Bridge is yet but, I'll add it when I figure it out

Pre-Chorus:
e|-------------------------------------------------4-4-4-4-4-4-4-4-|
B|-------------------------------------------------6-6-6-6-6-6-6-6-|
G|-------------------------------------------------4-4-4-4-4-4-4-4-|
D|-4-4-4-4-4-4-4-4-6-6-6-6-6-6-6-6-7-7-7-7-7-7-7-7-6-6-6-6-6-6-6-6-|
A|-4-4-4-4-4-4-4-4-6-6-6-6-6-6-6-6-7-7-7-7-7-7-7-7-4-4-4-4-4-4-4-4-|
D|-4-4-4-4-4-4-4-4-6-6-6-6-6-6-6-6-7-7-7-7-7-7-7-7-----------------|
(****************Palm*Muted*****************)

Chorus 3: (x4)
e|-------------------------------------------------|
B|-------------------------------------------------|
G|-6-6---------7-7---------7-7---------------------|
D|-6-6---4-4---7-7---4-4---7-7---4-4---2-2-/-4-0-0-|
A|-4-4---4-4---5-5---4-4---5-5---4-4---2-2-/-4-0-0-|
D|-------4-4---------4-4---------4-4---2-2-/-4-0-0-|

End Chord:
e|-5-|
B|-7-|
G|-5-|
D|-7-|
A|-5-|
D|---|

----------------------------------------------------------------------------

7.)river below
Intro
  G5                D5                G5                D5
  PM|   PM  PM  PM                    PM|   PM  PM  PM
  E E E E E E E E   E E E E E E E E   E E E E E E E E   E E E E E E E E
|-----------------|-----------------|-----------------|-----------------|
|---------3-------|-4-3-1-----------|---------3-------|-4-3-1-----------|
|-----3-------3---|-------3-2-0-----|-----3-------3---|-------3-2-0-----|
|-5-5---5---5---5-|-------------3-1-|-0-0---5---5---5-|-------------3-1-|
|-----------------|-----------------|-----------------|-----------------|
|-----------------|-----------------|-----------------|-----------------|


Verse
|   Q  Q  Q  Q    Q  E E Q  Q    Q  Q  Q  Q    Q  E E Q  Q
||--------------|-----------3--|-------------|-----------3--|
||--------------|-----------4--|-------------|-----------4--|
||-----3--7--3--|----2-3-5-----|----3--7--3--|----2-3-5-----|
||-----5--5--5--|--------------|----5--5--5--|--------------|
||--------------|--------------|-------------|--------------|
||--------------|--------------|-------------|--------------|


| Q  Q  Q  Q    Q  E E Q  Q    H    Q  E E   E E E E E E E E
|-------------|--------------|-------------|-------------------||
|-------------|--------------|-------------|-------------------||
|----3--7--3--|----2-0----2--|-------------|-------------------||
|----5--5--5--|--------3-----|------3--3-3-|-7-7-7-7-7-7-7-7---||
|-------------|--------------|-1----1--1-1-|-5-5-5-5-5-5-5-5---||
|-------------|--------------|-------------|-------------------||


Pre-Chorus
  C             Eb            Bb            D
  Q  Q  Q  Q    Q  Q  Q  Q    Q  Q  Q  Q    Q  Q  Q  Q
|-------3-----|-------6-----|-------------|-------5------|
|-------4-----|-------4-----|-------3-----|-------7------|
|-------------|----3--------|-------3-----|----7---------|
|----5--------|-------------|----3--------|-7--------7---|
|-3--------3--|-6--------6--|-1--------1--|--------------|
|-------------|-------------|-------------|--------------|


  C             Eb            Bb            D
  Q  Q  Q  Q    Q  Q  Q  Q    Q  Q  Q  Q    W
|-------3-----|-------6-----|-------------|-----||
|-------4-----|-------4-----|-------3-----|-----||
|-------------|----3--------|-------3-----|-----||
|----5--------|-------------|----3--------|-0---||
|-3--------3--|-6--------6--|-1--------1--|-0---||
|-------------|-------------|-------------|-0---||


Chorus
      G5                D5                Eb5               Bb
    E E E E E E E E   E E E E E E E E   E E E E E E E E   E E E E E E E E
||------------------|-----------------|-----------------|-x---------------|
||--x---------------|-x---------------|-x---------------|-x---------------|
||--x---------------|-x---------------|-x---------------|-x---------------|
||--x-5-5-5-5-5-5-5-|-x-0-0-0-0-0-0-0-|-x-1-1-1-1-1-1-1-|-x-3-3-3-3-3-3-3-|
||--x-5-5-5-5-5-5-5-|-x-0-0-0-0-0-0-0-|-x-1-1-1-1-1-1-1-|-x-1-1-1-1-1-1-1-|
||--x-5-5-5-5-5-5-5-|-x-0-0-0-0-0-0-0-|-x-1-1-1-1-1-1-1-|-----------------|

  C5            G5            D5            Eb5
  Q  Q  Q  Q    Q  Q  Q  Q    Q  Q  Q  Q    Q  Q  Q  Q
|-------------|-------------|-------------|---------------||
|-------------|-------------|-------------|---------------||
|-5--5--5--5--|-------------|-------------|---------------||
|-5--5--5--5--|-5--5--5--5--|-0--0--0--0--|-1--1--1--1----||
|-3--3--3--3--|-5--5--5--5--|-0--0--0--0--|-1--1--1--1----||
|-------------|-5--5--5--5--|-0--0--0--0--|-1--1--1--1----||

*During the second and third time the chorus comes in the song, this second line is
repeated more than once so just listen to the recording*

Interlude
    G5                D            G5                D
    PM|   PM  PM  PM               PM|   PM  PM  PM
    E E E E E E E E   W         3x E E E E E E E E   Q  E E E E E E
||------------------|-----------||-----------------|----------------|
||o---------3-------|----------o||---------3-------|----------------|
||------3-------3---|-----------||-----3-------3---|----------------|
||--5-5---5---5---5-|-----------||-5-5---5---5---5-|----7-7-7-7-7-7-|
||o-----------------|-0--------o||-----------------|-0--5-5-5-5-5-5-|
||------------------|-0---------||-----------------|-0--------------|


Outro
  G5                D5
  PM|   PM  PM  PM
  E E E E E E E E   E E E E E E E E
|-----------------|-----------------||
|---------3-------|-4-3-1-----------||
|-----3-------3---|-------3-2-0-----||
|-5-5---5---5---5-|-------------3-1-||
|-----------------|-----------------||
|-----------------|-----------------||

----------------------------------------------------------------------------

8.)standing in the rain
e|--------------------------------------------------------------------------|
B|----3-3-----------------------------5-5------------3-3--------------------|
G|----4-4-----------------------------5-5------------4-4--------------------|
D|----4-4--0-2--4-5-4--4-0-5-4-2-0----5-5--0-4--4-0--4-4--0-2--4-5-4--4-0-5-|
A|----2-2--0-2--4-5-4--4-0-5-4-2-0----3-3--0-4--4-0--2-2--0-2--4-5-4--4-0-5-|
D|---------0-2--4-5-4--4-0-5-4-2-0---------0-4--4-0-------0-2--4-5-4--4-0-5-|

  ------------------------|
  --------5-5-------------|
  --------5-5-------------|
  -4-2-0--5-5--0-4--4-0---|  INTRO
  -4-2-0--3-3--0-4--4-0---|  (continued from top line)
  -4-2-0-------0-4--4-0---|


e|---0---------0---|
B|---3---------3---|
G|---4-------0-4---| VERSE -{Let ring}
D|---4------4--4---|
A|-----------------| (My head, it hurts...)
D|-----------------|

e|------------------------------|
B|----------------7-7--5-5--3---|
G|----------------7-7--6-6--4---|(x3)
D|--22-454--4-0---7-7--6-6--4---|
A|--22-454--4-0---5-5--4-4--2---|
D|--22-454--4-0-----------------|

-------------------------------------------|
----------------7-7-7-7--2-2-2-2-2-2-2-2---| Pre-Chorus
----------------7-7-7-7--2-2-2-2-2-2-2-2---|
--22-454--4-0---7-7-7-7--3-3-3-3-3-3-3-3---| 4th Time
--22-454--4-0---5-5-5-5--4-4-4-4-4-4-4-4---| play this
--22-454--4-0------------------------------|


CHORUS (same as intro!)

e|-----------------------------------|
B|------3v------2v-------------------|
G|------------------------------4p0--| After Chorus Play This
D|----4-------2--------4p0------0----|  (x2)
A|--2-------0--------0--------5------|
D|-----------------0--------5--------|

REPEAT VERSE
REPEAT PRE-CHORUS
REPEAT CHORUS (x2)

e|--0-0--0-0---------------------------|
B|--7-7--5-3---------------------------|
G|--7-7--6-4-0--7-6-7/4-2-0-------2-0--|
D|--------------------------4-0--------| BRIDGE (x2)
A|------------------------------2------|
D|-------------------------------------|

REPEAT PRE-CHORUS

e|-----------------------------------------|      -------------|
B|-----------------------------------------|      -------------|
G|-----------------------------------------|palm  -------------| not palm
D|--4-4-4------------------------------(x3)|muted --5-5-5-5----| muted
A|--2-2-2-0-2-2-4-5-4-4-4-4-5-4-2-0--------|      --4-4-4-4--4-|
D|--------0-2-2-4-5-4-4-4-4-5-4-2-0--------|      -----------4-|

REPEAT CHORUS TO END and play:
e|---0---|
B|---3---|
G|---4---| ENDING CHORD
D|---4---|
A|-------|
D|-------|

----------------------------------------------------------------------------

9.)cut the curtains
Intro:             (4x)
e|--------------------------------------------|
B|--------------------------------------------|
G|--------------------------------------------|
D|--------------------------------------------|
A|--3/7--0-0-7--0-0-7--0-7--5-5-7--5\3-3-5-3--|
D|--3/7--0-0-7--0-0-7--0-7--5-5-7--5\3-3-5-3--|
         ^ ^    ^ ^    ^    ^ ^

Verse:     (----2x------------------|
e|-------|---------------|----------|
B|-------|---------------|----------|
G|-------|---------------|----------|
D|-------|---------------|----------|
A|--0----|--5---3---0----|--5--1----|
D|--0----|--5---3---0----|--5--1----|

e|---------------------------------------|
B|---------------------------------------|
G|---------------------------------------|
D|---------------------------------------|
A|--0-0-7--0-0-7--0-7--5-5-7--5\3-3-5-3--|
D|--0-0-7--0-0-7--0-7--5-5-7--5\3-3-5-3--|
    ^ ^    ^ ^    ^    ^ ^

                  (3x)
e|----------------------------------------|
B|----------------------------------------|
G|----------------------------------------|
D|----------------------------------------|
A|--3/7--0-0-7--0-0-7--0-7--5-5-5--3-3-3--|
D|--3/7--0-0-7--0-0-7--0-7--5-5-5--3-3-3--|
         ^ ^ ^  ^ ^ ^  ^ ^  ^ ^ ^  ^ ^ ^
let go palm mutes 3rd time ======> * * *

Before Chorus:
e|------------------------------------------|
B|------------------------------------------|
G|------------------------------------------|
D|------------------------------------------|
A|--0-0-7--0-0-7--0-7--5-5-7-5--5/7-7-10-7--|
D|--0-0-7--0-0-7--0-7--5-5-7-5--5/7-7-10-7--|

Chorus:
e|-----------------------------------------------|     --|
B|-----------------------------------------------|       |
G|-----------------------------------------------|       |
D|-----------------------------------------------|       |
A|--0-0-0/7--0-0-0/7--0-0/7--5-5-7--5\3-3-5-1-1--|       |
D|--0-0-0/7--0-0-0/7--0-0/7--5-5-7--5\3-3-5-1-1--|       |play twice 1st time (2x)
                                                         |play 4 times 2nd
e|------------------------------------------------|      |and 3rd time        (4x)
B|------------------------------------------------|      |
G|------------------------------------------------|      |
D|------------------------------------------------|      |
A|--0-0-0/7--0-0-0/7--0-0/7--5-5-7-5--5/7-7-10-7--|      |
D|--0-0-0/7--0-0-0/7--0-0/7--5-5-7-5--5/7-7-10-7--|    --|

After Chorus Bit:   (2x) first time (4x) 2nd time
e|---------------------------------|
B|---------------------------------|
G|---------------------------------|
D|----0-1-0-----------7----5----3--|
A|--0-------2-0----55---33---11----|
D|--0-----------5--55---33---11----|

Solo: (listen for timing)
e|--------4-------------------------|
B|------5---5-----------------------|
G|--3-6-------6-4-7-8-8b9-11-6-4-6--|
D|----------------------------------|
A|----------------------------------|
D|----------------------------------|

e|-----------------------------------|
B|------1---6-------6-8-8b9-8-6-4-6--|
G|--2-4---2---6-4-6------------------|
D|-----------------------------------|
A|-----------------------------------|
D|-----------------------------------|

e|---------------------------------|
B|------1-------------------2-0h1--|
G|--2-4---4-2-2-1-2-4-2-0h1--------|
D|---------------------------------|
A|---------------------------------|
D|---------------------------------|

Solo verse:
Verse     (--------2x------------------------------------|
e|-------|---------------------|-------------------------|
B|-------|---------------------|-------------------------|
G|-------|---------------------|-------------------------|
D|-------|---------------------|-------------------------|
A|--o----|--5---3---1---0------|--5-5-7-5--5/7-7-10-7----|
D|--o----|--5---3---1---0------|--5-5-7-5--5/7-7-10-7----|

Throw Your Inbox Out Part:
                   (2x)
e|---------------------------------------|
B|---------------------------------------|
G|---------------------------------------|
D|---------------------------------------|
A|--0-0-7--0-0-7--0-7--5-5-7--5\3-3-5-3--|
D|--0-0-7--0-0-7--0-7--5-5-7--5\3-3-5-3--|
    ^ ^    ^ ^    ^    ^ ^
              (6x) and fade out
e|--------------------------------------------|
B|--------------------------------------------|
G|--------------------------------------------|
D|--------------------------------------------|
A|--3/7--0-0-7--0-0-7--0-7--5-5-7--3-3-5-3----|
D|--3/7--0-0-7--0-0-7--0-7--5-5-7--3-3-5-3----|
         ^ ^ ^  ^ ^ ^  ^ ^  ^ ^ ^  ^ ^ ^ ^

Outro (No Time to Fold):     (4x)
e|----1-0-1-0-1-0------------------|
B|----3-3-3-3-3-3------------------|
G|---------------------------------|
D|--------------------7----5----3--|
A|--0--------------55---33---11----|
D|--0--------------55---33---11----|

*********EXTRA***********
SOLO: the solo was rewritten..its sounds exactly the
same but has different fingering so maybe it will be
easier for some and harder for others. Depends on your
ability.

e|--------4-------------------------|
B|------5---5-----------------------|
G|--3-6-------6-4-7-8-8b9-11-6-4-6--|
D|----------------------------------|
A|----------------------------------|
D|----------------------------------|

e|-----------------------------------|
B|----------6-------6-8-8b9-8-6-4-6--|
G|------5-----6-4-6------------------|
D|--6-8---6--------------------------|
A|-----------------------------------|
D|-----------------------------------|

e|---------------------------------|
B|---------------------------------|
G|------5-------------------6-4h5--|
D|--6-8---6-5-5-6-7-9-7-4h5--------|
A|---------------------------------|
D|---------------------------------|

----------------------------------------------------------------------------

10.)prisoners of today
intor (from comment box)
G---8-----7-----5--------5---5---5-|
D-5---5-5---5-5---5-5--8---7---5---|


G---7-----5-----3--------3---3---3-|
D-3---3-3---3-3---3-3--7---5---3---|


G-2-2-5-2-2-5-2-2-5-5-2-2-5b~~~-|
D-0-0-0-0-0-0-0-0-0-0-0-0-0-----|

G-2-2-5-2-2-5-2-2-5-5-2-2-5b~~~-|
D-3-3-3-3-3-3-3-3-3-3-3-3-3-----|

(rest from regular tab)
Verse Part 1:

e|-------------------------------------|
B|-------------------------------------|
G|-------------------------------------|
D|--2-2---0-0-2-2---0-0-2-2---0-0-2-2--|
A|-------------------------------------|
D|-------------------------------------|

---

Verse Part 2:

e|------3-3---------5-5---------1-1---------5-5--|
B|------3-3---------5-5---------1-1---------5-5--|
G|------3-3---------5-5---------1-1---------5-5--|
D|--2-2-----0-0-2-2-----0-0-2-2-----0-0-2-2------|
A|-----------------------------------------------|
D|-----------------------------------------------|

---

Bridge Part 1:

e|--------------------------------------------------|
B|--------------------------------------------------|
G|--7-7--7-7-7--5-5--5-5-5--4-4--4-4-4--5-5--5-5-5--|
D|--7-7--7-7-7--5-5--5-5-5--4-4--4-4-4--5-5--5-5-5--|
A|--5-5--5-5-5--3-3--3-3-3--2-2--2-2-2--3-3--3-3-3--|
D|--------------------------------------------------|

---

Bridge Part 2:

e|--------------------------|
B|--------------------------|
G|--7-----5-----4-----5-----|
D|--7-----5-----4-----5-----|
A|--5-x8--3-x8--2-x8--3-x8--|
D|--------------------------|

----------------------------------------------------------------------------

11.)nothing to lose
Verse:

e|--------0-------0-------0-------0-------------------------------0--|
B|--------0-------0-------0-------0-------5-----5-------4-------4----|
G|------6-------8-------4-------4-------5---5------------------------|
D|----5-------7-------3-------3-------5-------5---5---4-------4------|
A|--7-------9-------5-------5-------3---------------2-----2/3--------|
D|-------------------------------------------------------------------|

---

Pre-Chorus:

e|--------0-------0-------0-------0-------0-------0-------0-------0--|
B|------5-------5-------8-------8-------7-------7-------3-------3----|
G|------0-------0-------0-------0-------0-------0-------0-------0----|
D|----5-------5-------9-------9-------7-------7-------4-------4------|
A|--3-------3-------7-------7-------5-------5-------2-------2--------|
D|-------------------------------------------------------------------|

e|--------0-------0--------0--------0-------0-------0--0-------------|
B|------8-------8-------12-------12------10------10----7-------------|
G|------0-------0--------0--------0-------9-------9----0-------------|
D|----9-------9-------12-------12------10------10------7-------------|
A|--7-------7-------10-------10-------9-------9--------5-------------|
D|-------------------------------------------------------------------|

---

Chorus:

e|--0----0----0----0----0-----0-----0----0---------------------------|
B|--5----8----7----3----8----12----10----7---------------------------|
G|--0----0----0----0----0-----0-----9----0---------------------------|
D|--5----9----7----4----9----12----10----7---------------------------|
A|--3----7----5----2----7----10-----9----5---------------------------|
D|-------------------------------------------------------------------|

----------------------------------------------------------------------------

12.)voices of violence
chours&Intro
e|------------------------------------------------------------------|
B|--6---6---6---6---5---5---3---3----3---3---5---5---1---1---3---3--|
G|--7---7-7777777-5555555-3333333----2---2-5555555-2222222-3333333--|
D|5555555-7777777-5555555-3333333--0000000-5555555-2222222-3333333--|
A|5555555-5555555-3333333-1111111--0000000-3333333-0000000-1111111--|
E|5555555--------------------------0000000--------------------------|

Verse
e|--------------------------------------------|
B|5-55-6-66-8-88-6-66-5-55-6-66-8-88-10-1010--|
G|0-00-0-00-0-00-0-00-0-00-0-00-0-00-0--0-0---|
D|x-xx-x-xx-x-xx-x-xx-x-xx-x-xx-x-xx-x--x-x---|
A|4-44-5-55-7-77-5-55-4-44-5-55-7-77-8--8-8---|
E|--------------------------------------------|

bridge thingy
e|-------------------------------|
B|----------5-5555-5555-5-5-5555-|
G|----------6-0606-0606-6-6-0606-|
D|7-5-------x-xxxx-xxxx-x-x-xxxx-|
A|---8-7--7-7-7777-7777-7-7-7777-|
E|--------7-7-7777-7777-7-7-7777-|

solo or something
e|0/0-00-0/0-00-00-0/0-0-00----|
B|5/6-55-5/6-55-66-6/8-6-66----|
G|6/7-66-6/7-66-77-7/9-7-77----|
D|-----------------------------|
A|-----------------------------|
E|-----------------------------|

well thats it. the best tabs from all the songs on the billy talents self-titled first album.
i would like to thank awinters_tale, SlyBizcut, 3 days grace, dylandevoe, DG_GOD_21,
Alexisonfire37, eccofutureone, LessThanLuke, billytalentPOW, and all of the unregistered people
for their excellent tabs keep up the good work and keep tabbing.
comments
print report bad tab
8 comments total. Showing first comments.
0 reply
Shilo Zaba wrote on February 9 2005, 12:00 am

this is so dope dude. way ta go boy!

+2 reply
SlyBiscut wrote on March 18 2005, 12:00 am

most of these are way off. good job tabbing try honesty though. oh wait, nevermind, i actually tabbed that, you just copy and pasted it. good job.

+1 reply
slipsoad928 wrote on April 7 2005, 12:00 am

u dont have to be a *** dude (slybiscut) i put at the top i didnt tab these, unless you cant read which is pretty sad. i did this cause this is a great album and i wanted to print all the tabs out using a minimal amount of paper. now a lot of peolpe could do just that. i put your tab on here cause it was really good, dont be a ***ing asshole.

I want to post or [tab]
guest
You may want to rate the tab now too:
select rating
Please do not post tabs as comments. Select "correction" instead!