Oops, an error
Loading. Please wait.

Billy Talent Ii Tab

ver1
ver1

Album

More versions @911Tabs.com
31,246 views 51 this week
14 commentsread comments
1 2 3 4 5
excellent!
x 12
Autoscroll
+/-
esc
set tempo
stop
Contributor
Tuning
D A D G B E
Hey! There's an official Ultimate Guitar app which is ideal
for learning songs when you're away from computer. Get the app
WARNING: You are trying to view
                                    content from Ultimate-Guitar.com
                                    in an unauthorized application,
                                    which is prohibited.

                                    Please use an official Ultimate
                                    Guitar Tabs application for iPhone,
                                    iPad or Android to access legitimate
                                    chords, guitar, bass, and drum tabs
                                    from Ultimate-Guitar.com database.

                                    Type "ultimate guitar tabs" in Apple
                                    App Store's or Android Market's
                                    search to find the application.
------------------------------------------------------------------------------
                          BILLY TALENT - BILLY TALENT 2
------------------------------------------------------------------------------

Hello and welcome to the Billy Talent 2 complete album guitar tab...I would like to thank:

Shoe box_of_lies for "Devil in a Midnight mass" and "Worker bees" and "The navy song",
Mark Monachino for "Red Flag" and "This suffering" and "Sympathy" and "Burn the Evidence",
Brendan for "Pins and Needles" and "Fallen Leaves",
George92 for "Where is The Line?"
A_GOOD_TABBER (Me) and parts from Shoebox_of_Lies for "Covered in cowardice"
Devin Taylor for "surrender"
Zuka for "Perfect World"

All great tabs and tabbers, please don't give crap about me stealing your tabs cause I 
mentioned you all. I have also edited parts on "Devil In a Midnight Mass", "Red Flag", "This 
"Worker Bees", the solo on "Fallen Leaves", "Covered In Cowardice", and strumming patterns on "Surrender".

Track listing

"Devil In A Midnight Mass" – 2:52
"Red Flag" – 3:16
"This Suffering" – 3:56
"Worker Bees" – 3:44
"Pins & Needles" – 3:11
"Fallen Leaves" – 3:19
"Where Is The Line?" – 3:49
"Covered In Cowardice" – 4:12
"Surrender" – 4:06
"The Navy Song"– 4:31
"Perfect World" – 3:06
"Sympathy" – 3:18
"Burn The Evidence" – 3:40

All songs are in drop D tunning (DADGBe)
------------------------------------------------------------------------------
			     Devil In A Midnight Mass
------------------------------------------------------------------------------
Tabbed by: Barry Miles
Email: shoebox_of_lies@hotmail.com
Gtr I (D A D G B E) - 'Ian D'Sa' (With Compressor)
Tempo 180, 4/4 timing

INTRO
(Volume low)
|-------|-----------------|-----------------|-----------------|-----|
|-------|-----------------|-----------------|-----------------|-----|
|-------|-----------------|-----------------|-----------------|-----|
|-------|-----------------|-----------------|-----------------|-----|
|-------|-5-----------8---|-7---------------|-5-----------8---|-7---|
|-5-7-8-|---0-8-0-7-0---0-|---0-7-3-0-5-7-8-|---0-8-0-7-0---0-|---0-|

(Volume high)                                      x4
|-------------||------------------|------------------||
|-------------||o-----------------|-----------------o||
|-------------||------------------|------------------||
|-------------||------------------|------------------||
|-------------||o-5-----------8---|-7---------------o||
|-7-3-0-5-7-8-||----0-8-0-7-0---0-|---0-7-3-0-5-7-8--||

VERSE
                     1.,2.,3.             4.
||------------------|-------------------||-----------------|
||o-----------------|------------------o||-----------------|
||------------------|-------------------||-----------------|
||------------------|-------------------||-----------------|
||o-0---------------|------------------o||--------------3--|
||--0---------------|------7-3-0-5-7-8--||----7-3-0-5-7----|

PRECHORUS
(Clean with slight Overdrive)     (Distortion with compressor)            x2
||-1--------------|-0-----------------|-------------------|-----------------||
||-3--------------|-2-----------------|-------------------|----------------o||
||-0--------------|-0-----------------|-------------------|-----------------||
||-3--------------|-2-----------------|-------------------|-----------------||
||-1--------------|-0-----------------|-------------8---7-|-------------3--o||
||----------------|-----------------0-|-----8-0-7-0---0---|-0-7-3-0-5-7-----||

(Clean with slight Overdrive)
|-1--------|-0--------|-1--------|-5--------|
|-3--------|-2--------|-3--------|-5--------|
|-0--------|-0--------|-2--------|-5--------|
|-3--------|-2--------|-0--------|-3--------|
|-1--------|-0--------|-0--------|-3--------|
|----------|----------|-0--------|-3--------|

                          (Distortion with compressor)
|-1--------|-0--------|-----------------|
|-3--------|-2--------|-----------------|
|-0--------|-0--------|-----------------|
|-3--------|-2--------|-----------------|
|-1--------|-0--------|-----------------|
|----------|----------|-----7-3-0-5-7-8-|
CHORUS
|-1---1-1---1-1---|-1-1---1-1---1---|-5--5-5---5-5---|-5-5---5-5---5--|
|-3---3-3---3-3---|-3-3---3-3---3---|-5--5-5---5-5---|-5-5---5-5---5--|
|-2---2-2---2-2---|-2-2---2-2---2---|-5--5-5---5-5---|-5-5---5-5---5--|
|-0---0-0---0-0---|-0-0---0-0---0---|-3--3-3---3-3---|-3-3---3-3---3--|
|-0---0-0---0-0---|-0-0---0-0---0---|-3--3-3---3-3---|-3-3---3-3---3--|
|-0---0-0---0-0---|-0-0---0-0---0---|-3--3-3---3-3---|-3-3---3-3---3--|

|-6--6-6---6-6---|-6-6---6-6---6-|----------------------|-----------------|
|-8--8-8---8-8---|-8-8---8-8---8-|-11--11-11---11-11-11-|-----------------|
|-7--7-7---7-7---|-7-7---7-7---7-|-10--10-10---10-10-10-|-9---------------|
|-5--5-5---5-5---|-5-5---5-5---5-|--8---8--8----8--8--8-|-7---------------|
|-5--5-5---5-5---|-5-5---5-5---5-|--8---8--8----8--8--8-|-7---------------|
|-5--5-5---5-5---|-5-5---5-5---5-|--8---8--8----8--8--8-|-7--7-3-0-5-7-8--|

|-1---1-1---1-1---|-1-1---1-1---1---|-5--5-5---5-5---|-5-5---5-5---5--|
|-3---3-3---3-3---|-3-3---3-3---3---|-5--5-5---5-5---|-5-5---5-5---5--|
|-2---2-2---2-2---|-2-2---2-2---2---|-5--5-5---5-5---|-5-5---5-5---5--|
|-0---0-0---0-0---|-0-0---0-0---0---|-3--3-3---3-3---|-3-3---3-3---3--|
|-0---0-0---0-0---|-0-0---0-0---0---|-3--3-3---3-3---|-3-3---3-3---3--|
|-0---0-0---0-0---|-0-0---0-0---0---|-3--3-3---3-3---|-3-3---3-3---3--|

|-------------------|-----------------|-------------------------|-------------------|
|-11--11---10--10---|-8--8------------|-------------------------|-------------------|
|-12--12---10--10---|-9--9---12--12---|-10-10-10-10-10-10-10-10-|-10-10-------------|
|-12--12---10--10---|-9--9---10--10---|--8--8--8--8--8--8--8--8-|--8--8-------------|
|-10--10----8---8---|-7--7---10--10---|--8--8--8--8--8--8--8--8-|--8--8-------------|
|-------------------|--------10--10---|--8--8--8--8--8--8--8--8-|--8--8-7-3-0-5-7-8-|

INTERLUDE
|-------------------|-----------------|-----------------|-----------------|
|-------------------|-----------------|-----------------|-----------------|
|-------------------|-----------------|-----------------|-----------------|
|-<5>---------------|-----------------|-----------------|-----------------|
|--5------------8---|-7---------------|-5-----------8---|-7---------------|
|-----0-8-0-7-0---0-|---0-7-3-0-5-7-8-|---0-8-0-7-0---0-|---0-7-3-0-5-7-8-|

VERSE
PRECHORUS
CHORUS

BRIDGE
(Volume Low)
|------------------|----------------||-----------------|-----------------||
|------------------|----------------||o----------------|----------------o||
|------------------|----------------||-----------------|-----------------|| x6
|<5>---------------|----------------||-----------------|-----------------||
|-5------------8---|7---------------||o5-----------8---|-7--------------o||
|----0-8-0-7-0---0-|--0-7-3-0-5-7-8-||---0-8-0-7-0---0-|---0-7-3-0-5-7-8-||

                                    (Volume High)
|-----------------|--------------||------------------|------------------||
|-----------------|--------------||o-----------------|-----------------o||
|-----------------|--------------||------------------|------------------|| x8
|-----------------|--------------||------------------|------------------||
|-5-----------8---|-7------------||o-5-----------8---|-7---------------o||
|---0-8-0-7-0---0-|--------------||----0-8-0-7-0---0-|---0-7-3-0-5-7-8--||


-----------------------------------------------------------------------------------
			      RED FLAG - Billy Talent
-----------------------------------------------------------------------------------
Tabbed by: Mark Monachino
Email: billytalentpunk0@hotmail.com
Tuning: Drop D Tuning (DADGBe)

Update - Thanks to First_fret for correcting the verse!
Update - Thanks to Space Ace10 for correcting the bridge!

NOTE: The times at the bottom correspond to the new version of Red Flag on
Billy Talent II. The demo version still has the same guitar riffs, but the
times at which they are played are slightly altered.

ALSO: This song begins with its chorus.


CHORUS:

e|-------------------|-------------------|-------------------|-------------------|
B|-------------------|--5--5--5--5--5-5--|-------------------|-------------------|
G|--2---2-2-2-2-2-2--|--5--5--5--5--5-5--|-------------------|-------------------|
D|--2---2-2-2-2-2-2--|--5--5--5--5--5-5--|--9---9-9-9-9-9-9--|--7--7--7--7--7-7--|
A|--0---0-0-0-0-0-0--|--3--0--3--0--3-0--|--5---5-5-5-5-5-5--|--3--0--3--0--3-0--|
D|-------------------|-------------------|--5---5-5-5-5-5-5--|--3--0--3--0--3-0--|

e|-------------------|-------------------|-------------------|-------------------|
B|--5--5--5--5--5-5--|-------------------|-------------------|-------------------|
G|--5---5-5-5-5-5-5--|-------------------|-------------------|-------------------|
D|--5---5-5-5-5-5-5--|--9--9--9--9--9-9--|--6---6-6-6-6-6-6--|--9-----9-----9----|
A|--3---3-3-3-3-3-3--|--5--0--5--0--5-0--|--2---2-2-2-2-2-2--|--7--0--7--0--7-0--|
D|-------------------|--5--0--5--0--5-0--|--2---2-2-2-2-2-2--|--6--0--6--0--6-0--|

VERSE:
PART 1:

e|--8--8--8--8-----7-7-7-7----8--8--8--8-----7-7-7-7----4-4-4-4-4---5---7----|
B|--10-10-10-10----9-9-9-9----10-10-10-10----9-9-9-9----3-3-3-3-3---5---9----|
G|--9--9--9--9-----7-7-7-7----9--9--9--9-----7-7-7-7----4-4-4-4-4---5---7----|
D|---------------------------------------------------------------------------|
A|---------------------------------------------------------------------------|
D|---------------------------------------------------------------------------|

PART 2:                                               (slide up in D7 shape,
                                                      then flip your fingers)
e|--8--8--8--8------8--8--8--8--8---7--5--7-7-7-7-----4-4-4-/-10--8---7------|
B|--10-10-10-10-----8--8--8--8--8---6--5--6-6-6-6-----3-3-3-/-9---9---9------|
G|--9--9--9--9------9--9--9--9--9---7--5--7-7-7-7-----4-4-4-/-10--10--10-----|
D|---------------------------------------------------------------------------|
A|---------------------------------------------------------------------------|
D|---------------------------------------------------------------------------|

e|--8--8--8--8------8--8--8--8--8---7--5--7-7-7-7-----4-4-4-4-4--5--7--------|
B|--10-10-10-10-----10-10-10-10-10--6--5--6-6-6-6-----3-3-3-3-3--5--9--------|
G|--9--9--9--9------9--9--9--9--9---7--5--7-7-7-7-----4-4-4-4-4--5--7--------|
D|---------------------------------------------------------------------------|
A|---------------------------------------------------------------------------|
D|---------------------------------------------------------------------------|
PRE-CHORUS:
    H        H                         H
e|--5--------5-------------------------0--------------|
B|--6--------6--------3-3-3-3-3-3-3----1--------------|
G|--5--------7--------4-4-4-5-5-5-4----2--------------|
D|----------------------------------------------------|
A|----------------------------------------------------|
D|----------------------------------------------------|
    H        H                         H
e|--5--------5----------------------------------------|
B|--6--------6--------3-3-3-3-3-3-3----5--------------|
G|--5--------7--------4-4-4-5-5-5-4----4--------------|
D|-------------------------------------2--------------|
A|----------------------------------------------------|
D|----------------------------------------------------|
BRIDGE:
PART 1:
e|--------0-0-0------|-------------------|--5-5---8-8-8-5-0--|--5-5---8-8-8-5-0--|
B|--1-1---1-1-1-1-0--|--3-3---3-3-3-3-0--|--6-6---6-6-6-6-0--|--6-6---6-6-6-6-0--|
G|--2-2---------2-0--|--4-4---5-5-5-4-0--|--7-7---7-7-7-7-0--|--5-5---5-5-5-5-0--|
D|-------------------|-------------------|-------------------|-------------------|
A|-------------------|-------------------|-------------------|-------------------|
D|-------------------|-------------------|-------------------|-------------------|
PART 2:
e|--------0-0-0------|-------------------|--5-5-5-8-8-8-5-0--|--5-5-5-8-8-8-5-0--|
B|--1-1-1-1-1-1-1-0--|--3-3-3-3-3-3-3-0--|--6-6-6-6-6-6-6-0--|--6-6-6-6-6-6-6-0--|
G|--2-2-2-------2-0--|--4-4-4-5-5-5-4-0--|--7-7-7-7-7-7-7-0--|--5-5-5-5-5-5-5-0--|
D|-------------------|-------------------|-------------------|-------------------|
A|-------------------|-------------------|-------------------|-------------------|
D|-------------------|-------------------|-------------------|-------------------|

ORDER:
0:13	INTRO
0:23	VERSE PART 1
0:34	VERSE PART 2
0:44	PRE-CHORUS
0:55	CHORUS		(x2)
1:16	VERSE PART 2 	(x2)
1:37	PRE-CHORUS
1:47	CHORUS		(x2)
2:08	BRIDGE PART 1	(x4)
2:29	BRIDGE PART 2	(x2)
2:40	Played At End Of BRIDGE:
	e|------|
	B|--5\--|
	G|--5\--|
	D|--7\--|
	A|--7\--|
	D|--7\--|
2:40	(No guitar in first CHORUS)
2:53	CHORUS		(x2)
3:14	Played After CHORUS Finishes; At End Of Song:
	e|--8--8--8--8---|
	B|--10-10-10-10--|
	G|--9--9--9--9---|
	D|---------------|
	A|---------------|
	D|---------------|


-------------------------------------------------------------------------------
			 THIS SUFFERING - Billy Talent
-------------------------------------------------------------------------------
Tabbed by: Mark Monachino
Email: billytalentpunk0@hotmail.com
Tuning: Drop D Tuning (DADGBe)

I know it may get a bit confusing at times, but I didn't miss one note, and
I'm sure this is perfect...leave a comment if you don't understand something...

Update - Thanks to george92 for correcting the verse and the bridge!


INTRO:

             P                                                         x2
e|-----------------------------------------------------------------------|
B|----------------------------------13------------------8----------------|
G|--------14------------------12----------------7---9--------------------|
D|--15----------15------14------------------8-----------------------0----|
A|--------------12------------------------------------------8-7-5\3-0----|
D|-----12----12-12---------10----10-----------5---5---5-------------0----|

                                                                       x2
e|-----------------------------------------------------------------------|
B|----------------------------------13b--\--------------8----------------|
G|--------14------------------12----------------7---9--------------------|
D|--15----------15--15--14------------------8-----------------------0----|
A|-----12----12-12--12-----10----10-----------5---5---5---5-8-7-5\3-0----|
D|-----12----12-12--12-----10----10-----------5---5---5---5---------0----|


VERSE:

    H                   H                                              x2
e|--5-------------------3------------------------------------------------|
B|--6-------------------5-------------------------------8----------------|
G|--7-------------------3-----------------------7---9--------------------|
D|--7-------------------5-------------------8-----------------------0----|
A|--5-------------------3---------------------5---5---5---5-8-7-5\3-0----|
D|--------------------------------------------5---5---5---5---------0----|

                                                                       x2
e|--5-5-5-----5------------3-3-----3-------------------------------------|
B|--6-6-6-----6------------5-5-----5--------------------8----------------|
G|--7-7-7-----7------------3-3-----3------------7---9--------------------|
D|--7-7-7-----7------------5-5-----5--------8-----------------------0----|
A|--5-5-5-----5------------3-3-----3----------5---5---5---5-8-7-5\3-0----|
D|--------------------------------------------5---5---5---5---------0----|

At the first note of PRE-CHORUS, another guitar plays:
e|-----|
B|--3--|
G|--3--|
D|--3--|
A|--1--|
D|-----|
which is held until it fades out.
PRE-CHORUS:

e|-----------------------------------------------------------------------|
B|----3---3---3---3---3---3---5---6---3---3---3---3---3---3---5---6------|
G|--3---3---3---3---3---3---3---3---2---2---2---2---2---2---2---2---0----|
D|-----------------------------------------------------------------------|
A|-----------------------------------------------------------------------|
D|-----------------------------------------------------------------------|

e|--6---6-----------6---6-----------5---5---5---5---3---3---3---3--------|
B|--3---3---5---6---3---3---5---6---6---6---6---6---5---5---5---5--------|
G|----0---0---0---0---0---0---0---5---5---5---5---0---0---0---0----------|
D|-----------------------------------------------------------------------|
A|-----------------------------------------------------------------------|
D|-----------------------------------------------------------------------|

This fill is played just before CHORUS, filling in the extra quarter note
space from PRE-CHORUS:

e|------|
B|--33--|
G|--33--|
D|--33--|
A|--11--|
D|------|


CHORUS:

e|-----------------------------------|--5-5-5-5-5-5-5-5-5-5-5-5-5-5-5-5--|
B|--3-3-3-3-3-3-3-3-3-3-3-3-3-3-3-3--|--6-6-6-6-6-6-6-6-6-6-6-6-6-6-6-6--|
G|--3-3-3-3-3-3-3-3-3-3-3-3-3-3-3-3--|--7-7-7-7-7-7-7-7-7-7-7-7-7-7-7-7--|
D|--3-3-3-3-3-3-3-3-3-3-3-3-3-3-3-3--|--7-7-7-7-7-7-7-7-7-7-7-7-7-7-7-7--|
A|--1-1-1-1-1-1-1-1-1-1-1-1-1-1-1-1--|--5-5-5-5-5-5-5-5-5-5-5-5-5-5-5-5--|
D|-----------------------------------|-----------------------------------|

                                                            H
e|-----------------------------------|-------------------|---------------|
B|-----------------------------------|-------------------|--5------------|
G|-----------------------------------|-------------------|--5------------|
D|--5-5-5-5-5-5-5-5-5-5-5-5-5-5-5-77-|--7-7-7-7-7-7-7-7--|--5------------|
A|--5-5-5-5-7-7-8-8-5-5-5-5-7-7-8-33-|--3-3-3-3-3-3-3-3--|--3------------|
D|--5-5-5-5-5-5-5-5-5-5-5-5-5-5-5-33-|--3-3-3-3-3-3-3-3--|---------------|


INTERLUDE:

e|-----------------------------------------------------------------------|
B|----------------------------------13b--\--------------8----------------|
G|--------14------------------12----------------7---9--------------------|
D|--15----------15--15--14------------------8-----------------------0----|
A|-----12----12-12--12-----10----10-----------5---5---5---5-8-7-5\3-0----|
D|-----12----12-12--12-----10----10-----------5---5---5---5---------0----|

VERSE:

    H                   H                                              x2
e|--5-------------------3------------------------------------------------|
B|--6-------------------5-------------------------------8----------------|
G|--7-------------------3-----------------------7---9--------------------|
D|--7-------------------5-------------------8-----------------------0----|
A|--5-------------------3---------------------5---5---5---5-8-7-5\3-0----|
D|--------------------------------------------5---5---5---5---------0----|

                                                                       x2
e|--5-5-5-----5------------3-3-----3-------------------------------------|
B|--6-6-6-----6------------5-5-----5--------------------8----------------|
G|--7-7-7-----7------------3-3-----3------------7---9--------------------|
D|--7-7-7-----7------------5-5-----5--------8-----------------------0----|
A|--5-5-5-----5------------3-3-----3----------5---5---5---5-8-7-5\3-0----|
D|--------------------------------------------5---5---5---5---------0----|


At the first note of PRE-CHORUS, another guitar plays:
e|-----|
B|--3--|
G|--3--|
D|--3--|
A|--1--|
D|-----|
which is held until it fades out.

PRE-CHORUS:

e|-----------------------------------------------------------------------|
B|----3---3---3---3---3---3---5---6---3---3---3---3---3---3---5---6------|
G|--3---3---3---3---3---3---3---3---2---2---2---2---2---2---2---2---0----|
D|-----------------------------------------------------------------------|
A|-----------------------------------------------------------------------|
D|-----------------------------------------------------------------------|

e|--6---6-----------6---6-----------5---5---5---5---3---3---3---3--------|
B|--3---3---5---6---3---3---5---6---6---6---6---6---5---5---5---5--------|
G|----0---0---0---0---0---0---0---5---5---5---5---0---0---0---0----------|
D|-----------------------------------------------------------------------|
A|-----------------------------------------------------------------------|
D|-----------------------------------------------------------------------|

FILL:

e|------|
B|--33--|
G|--33--|
D|--33--|
A|--11--|
D|------|


CHORUS: (x2)

e|-----------------------------------|--5-5-5-5-5-5-5-5-5-5-5-5-5-5-5-5------|
B|--3-3-3-3-3-3-3-3-3-3-3-3-3-3-3-3--|--6-6-6-6-6-6-6-6-6-6-6-6-6-6-6-6------|
G|--3-3-3-3-3-3-3-3-3-3-3-3-3-3-3-3--|--7-7-7-7-7-7-7-7-7-7-7-7-7-7-7-7------|
D|--3-3-3-3-3-3-3-3-3-3-3-3-3-3-3-3--|--7-7-7-7-7-7-7-7-7-7-7-7-7-7-7-7------|
A|--1-1-1-1-1-1-1-1-1-1-1-1-1-1-1-1--|--5-5-5-5-5-5-5-5-5-5-5-5-5-5-5-5------|
D|-----------------------------------|---------------------------------------|

e|-----------------------------------|-------------------|-------------------|
B|-----------------------------------|-------------------|--5-5-5-5-5-5-5-5--|
G|-----------------------------------|-------------------|--5-5-5-5-5-5-5-5--|
D|--5-5-5-5-5-5-5-5-5-5-5-5-5-5-5-77-|--7-7-7-7-7-7-7-7--|--5-5-5-5-5-5-5-5--|
A|--5-5-5-5-7-7-8-8-5-5-5-5-7-7-8-33-|--3-3-3-3-3-3-3-3--|--3-3-3-3-3-3-3-3--|
D|--5-5-5-5-5-5-5-5-5-5-5-5-5-5-5-33-|--3-3-3-3-3-3-3-3--|-------------------|

BRIDGE:

PART 1: (x2)

e|-----------10-10-10---12-12-12---10-10-10----------------8--8--8----10-10-10---8--8--8---|
B|-----------10-10-10---10-10-10---10-10-10----------------10-10-10---10-10-10---10-10-10--|
G|--77-7-7---10-10-10---10-10-10---10-10-10----------------9--9--9----9--9--9----9--9--9---|
D|--77-7-7------------------------------------1010-10-10-----------------------------------|
A|--55-5-5------------------------------------7-7--7--7------------------------------------|
D|--00-0-0------------------------------------7-7--7--7------------------------------------|

e|---------------8-8-8---10-10-10--8-8-8----55--|--5-5-5-5-5-5-5-5--|--5-5-5-5-5-5-5-5-----|
B|---------------6-6-6---6--6--6---6-6-6----66--|--6-6-6-6-6-6-6-6--|--5-5-5-5-5-5-5-5-----|
G|---------------7-7-7---7--7--7---7-7-7----55--|--5-5-5-5-5-5-5-5--|--5-5-5-5-5-5-5-5-----|
D|--1010-10-10------------------------------33--|--3-3-3-3-3-3-3-3--|--2-2-2-2-2-2-2-2-----|
A|--8-8--8--8-------------------------------33--|--3-3-3-3-3-3-3-3--|--3-3-3-3-3-3-3-3-----|
D|--8-8--8--8-------------------------------33--|--3-3-3-3-3-3-3-3--|--2-2-2-2-2-2-2-2-----|

PART 2:

e|--5-5-5-5-5-5-5-5-5-5-5-5-5-5-5-5--|--8--8--8--8--8--8--8--8--8--8--8--8--8--8--8--8-----|
B|--6-6-6-6-6-6-6-6-6-6-6-6-6-6-6-6--|--10-10-10-10-10-10-10-10-10-10-10-10-10-10-10-10----|
G|--7-7-7-7-7-7-7-7-7-7-7-7-7-7-7-7--|--9--9--9--9--9--9--9--9--9--9--9--9--9--9--9--9-----|
D|--7-7-7-7-7-7-7-7-7-7-7-7-7-7-7-7--|--7--7--7--7--7--7--7--7--7--7--7--7--7--7--7--7-----|
A|--5-5-5-5-5-5-5-5-5-5-5-5-5-5-5-5--|--7--7--7--7--7--7--7--7--7--7--7--7--7--7--7--7-----|
D|-----------------------------------|--7--7--7--7--7--7--7--7--7--7--7--7--7--7--7--7-----|

e|--8--8--8--8--8--8--8--8--8--8--8--8--8--8--8--8---|--5-5-5-5-5-5-5-5-|-5-5-5-5-5-5-5-5--|
B|--10-10-10-10-10-10-10-10-10-10-10-10-10-10-10-10--|--6-6-6-6-6-6-6-6-|-5-5-5-5-5-5-5-5--|
G|--10-10-10-10-10-10-10-10-10-10-10-10-10-10-10-10--|--5-5-5-5-5-5-5-5-|-5-5-5-5-5-5-5-5--|
D|--10-10-10-10-10-10-10-10-10-10-10-10-10-10-10-10--|--3-3-3-3-3-3-3-3-|-2-2-2-2-2-2-2-2--|
A|--8--8--8--8--8--8--8--8--8--8--8--8--8--8--8--8---|--3-3-3-3-3-3-3-3-|-3-3-3-3-3-3-3-3--|
D|--8--8--8--8--8--8--8--8--8--8--8--8--8--8--8--8---|--3-3-3-3-3-3-3-3-|-2-2-2-2-2-2-2-2--|

On x1, at the first note of PRE-CHORUS, another guitar plays:
e|-----|
B|--3--|
G|--3--|
D|--3--|
A|--1--|
D|-----|
which is held until it fades out.

On x1, immediately after the last note of PRE-CHORUS, another guitar plays:
e|-------|
B|--333--|
G|--333--|
D|--333--|
A|--111--|
D|-------|
which is held until it fades out.

PRE-CHORUS:  (x2)

e|-----------------------------------------------------------------------|
B|----3---3---3---3---3---3---5---6---3---3---3---3---3---3---5---6------|
G|--3---3---3---3---3---3---3---3---2---2---2---2---2---2---2---2---0----|
D|-----------------------------------------------------------------------|
A|-----------------------------------------------------------------------|
D|-----------------------------------------------------------------------|

e|--6---6-----------6---6-----------5---5---5---5---3---3---3---3--------|
B|--3---3---5---6---3---3---5---6---6---6---6---6---5---5---5---5--------|
G|----0---0---0---0---0---0---0---5---5---5---5---0---0---0---0----------|
D|-----------------------------------------------------------------------|
A|-----------------------------------------------------------------------|
D|-----------------------------------------------------------------------|

FILL:

e|------|
B|--33--|
G|--33--|
D|--33--|
A|--11--|
D|------|


CHORUS: (x3)

e|-----------------------------------|--5-5-5-5-5-5-5-5-5-5-5-5-5-5-5-5------|
B|--3-3-3-3-3-3-3-3-3-3-3-3-3-3-3-3--|--6-6-6-6-6-6-6-6-6-6-6-6-6-6-6-6------|
G|--3-3-3-3-3-3-3-3-3-3-3-3-3-3-3-3--|--7-7-7-7-7-7-7-7-7-7-7-7-7-7-7-7------|
D|--3-3-3-3-3-3-3-3-3-3-3-3-3-3-3-3--|--7-7-7-7-7-7-7-7-7-7-7-7-7-7-7-7------|
A|--1-1-1-1-1-1-1-1-1-1-1-1-1-1-1-1--|--5-5-5-5-5-5-5-5-5-5-5-5-5-5-5-5------|
D|-----------------------------------|---------------------------------------|

e|-----------------------------------|-------------------|-------------------|
B|-----------------------------------|-------------------|--5-5-5-5-5-5-5-5--|
G|-----------------------------------|-------------------|--5-5-5-5-5-5-5-5--|
D|--5-5-5-5-5-5-5-5-5-5-5-5-5-5-5-77-|--7-7-7-7-7-7-7-7--|--5-5-5-5-5-5-5-5--|
A|--5-5-5-5-7-7-8-8-5-5-5-5-7-7-8-33-|--3-3-3-3-3-3-3-3--|--3-3-3-3-3-3-3-3--|
D|--5-5-5-5-5-5-5-5-5-5-5-5-5-5-5-33-|--3-3-3-3-3-3-3-3--|-------------------|



OUTRO:

e|-----------------------------------------------------------------------|
B|----------------------------------13b--\--------------8----------------|
G|--------14------------------12----------------7---9--------------------|
D|--15----------15--15--14------------------8-----------------------0----|
A|-----12----12-12--12-----10----10-----------5---5---5---5-8-7-5\3-0----|
D|-----12----12-12--12-----10----10-----------5---5---5---5---------0----|


-------------------------------------------------------------------------------
			   WORKER BEES - Billy Talent
-------------------------------------------------------------------------------
Tabbed by: Barry Miles
Email: shoebox_of_lies@hotmail.com

Tuning: Drop D (DADGBe)

PreVerse:
e|-3---------------|-------------------|-----------------|-------------------|
B|-4-------4-------|-------------------|-----------------|-------------------|
G|-5-------5-------|-10---12---13------|-8-------7-------|-8---12---10-------|
D|-5-------5-------|-10---13---13------|-6-------5-------|-8---13---10-------|
A|---------6-------|-8----10---11------|-6-------5-------|-6---10---8--------|
D|-----------------|-------------------|-6-------9-------|-------------------|
 "March    On       Wor - ker  Bees     Know    Your       En - e - my"

Verse:
e|---------------------------------|-----------------------------------------|
B|-8-8-8-8-8-8-8-8-4-4-4-4-4-4-4-4-|-6-6-6-6-8-8-8-8-9--9--9--9--9--9--9--9--|
G|-8-8-8-8-8-8-8-8-5-5-5-5-5-5-5-5-|-7-7-7-7-8-8-8-8-10-10-10-10-10-10-10-10-|
D|---------------------------------|-----------------------------------------|
A|---------------------------------|-----------------------------------------|
D|---------------------------------|-----------------------------------------|
 "We take our orders given by the queen..."

e|---------------------------------|---------------------------------|
B|---------------------------------|-4-4-4-4-8-8-8-8-6-6-6-6-6-6-6-6-|
G|-8-8-8-8-8-8-8-8-7-7-7-7-7-7-7-7-|-5-5-5-5-8-8-8-8-7-7-7-7-7-7-7-7-|
D|-6-6-6-6-6-6-6-6-5-5-5-5-5-5-5-5-|---------------------------------|
A|---------------------------------|---------------------------------|
D|---------------------------------|---------------------------------|

e|---------------------------------|-----------------------------------------|
B|-8-8-8-8-8-8-8-8-4-4-4-4-4-4-4-4-|-6-6-6-6-8-8-8-8-9--9--9--9--9--9--9--9--|
G|-8-8-8-8-8-8-8-8-5-5-5-5-5-5-5-5-|-7-7-7-7-8-8-8-8-10-10-10-10-10-10-10-10-|
D|---------------------------------|-----------------------------------------|
A|---------------------------------|-----------------------------------------|
D|---------------------------------|-----------------------------------------|

e|---------------------------------|---------------------------------|
B|-----------------3-3-3-3-3-3-3-3-|-4-4-4-4-6-6-6-6-8-8-8-8-8-8-8-8-|
G|-8-8-8-8-8-8-8-8-4-4-4-4-4-4-4-4-|-5-5-5-5-7-7-7-7-8-8-8-8-8-8-8-8-|
D|-6-6-6-6-6-6-6-6-----------------|---------------------------------|
A|---------------------------------|---------------------------------|
D|---------------------------------|---------------------------------|

Chorus:
e|------------------------------------|---------------------------------|
B|-9--9--9----8-8-8---6-6-6-----------|-------------------------8-8-8-8-|
G|-10-10-10---8-8-8---7-7-7---8-8-8---|---------8-------7-------7-7-7-7-| x3
D|-10-10-10---8-8-8---7-7-7---6-6-6---|-5-5-5-5---5-5-5---5-5-5-5-5-5-5-|
A|-8--8--8----6-6-6---5-5-5---6-6-6---|-5-5-5-5---5-5-5---5-5-5-5-5-5-5-|
D|----------------------------6-6-6---|-5-5-5-5---5-5-5---5-5-5---------|
                                       "Protect the hive from enemies!"

e|-------------------------|-------------------------|
B|-4--4--4--4--3--3--3--3--|-------------------------|
G|-5--5--5--5--3--3--3--3--|-8--8--8--8--8--8--8--8--|
D|-5--5--5--5--3--3--3--3--|-6--6--6--6--6--6--6--6--|
A|-3--3--3--3--1--1--1--1--|-6--6--6--6--6--6--6--6--|
D|-------------------------|-6--6--6--6--6--6--6--6--|

Bridge:
e|-------------------------|-------------------------|
B|-------------------------|-------------------------|
G|-3--3--3-----3--3--3-----|-8--8--8--8--8--8--8-----|
D|-1--1--1-----1--1--1-----|-6--6--6--6--6--6--6-----|
A|-1--1--1-----1--1--1-----|-6--6--6--6--6--6--6-----|
D|-1--1--1--0--1--1--1--0--|-6--6--6--6--6--6--6--0--|
 "And we'll march along..."

e|-------------------------|-------------------------|
B|-------------------------|-4--4--4--4--4--4--4--4--|
G|-3--3--3-----3--3--3-----|-5--5--5--5--5--5--5--5--|
D|-1--1--1-----1--1--1-----|-5--5--5--5--5--5--5--5--|
A|-1--1--1-----1--1--1-----|-3--3--3--3--3--3--3--3--|
D|-1--1--1--0--1--1--1--0--|-------------------------|

e|-------------------------|-------------------------|
B|-------------------------|-------------------------|
G|-7--7--7--7--7--7--7--7--|-8--8--8--8--8--8--8--8--|
D|-5--5--5--5--5--5--5--5--|-6--6--6--6--6--6--6--6--|
A|-5--5--5--5--5--5--5--5--|-6--6--6--6--6--6--6--6--|
D|-5--5--5--5--5--5--5--5--|-6--6--6--6--6--6--6--6--|

e|-------------------------|-------------------------|
B|-4--4--4--4--3--3--3--3--|-------------------------|
G|-5--5--5--5--3--3--3--3--|-8--8--8--8--8--8--8--8--|
D|-5--5--5--5--3--3--3--3--|-6--6--6--6--6--6--6--6--|
A|-3--3--3--3--1--1--1--1--|-6--6--6--6--6--6--6--6--|
D|-------------------------|-6--6--6--6--6--6--6--6--|

Guitar Solo:
e|-------------------------------------------------------------------------|
B|-8-8-8-8-8-8-8-8-4-4-4-4-4-4-4-4-6-6-6-6-8-8-8-8-9--9--9--9--9--9--9--9--|
G|-8-8-8-8-8-8-8-8-5-5-5-5-5-5-5-5-7-7-7-7-8-8-8-8-10-10-10-10-10-10-10-10-|
D|-------------------------------------------------------------------------|
A|-------------------------------------------------------------------------|
D|-------------------------------------------------------------------------|

e|-----------------------------------------------------------------------------------------|
B|-9-9-9-9-9-9-9-9-13-13-13-13-13-13-13-13-12-12-12-12-12-12-12-12-13-13-13-13-15-15-15-15-|
G|-8-8-8-8-8-8-8-8-8--8--8--8--8--8--8--8--7--7--7--7--7--7--7--7--8--8--8--8--10-10-10-10-|
D|-----------------------------------------------------------------------------------------|
A|-----------------------------------------------------------------------------------------|
D|-----------------------------------------------------------------------------------------|

e|-------------------------------------------------|
B|-16-16-16-16-16-16-16-16-13-13-13-13-13-13-13-13-|
G|-12-12-12-12-12-12-12-12-8--8--8--8--8--8--8--8--|
D|-------------------------------------------------|
A|-------------------------------------------------|
D|-------------------------------------------------|

e|-------------------------------------------------|
B|-15-15-15-15-16-16-16-16-18-18-18-18-18-18-18-18-|
G|-10-10-10-10-12-12-12-12-13-13-13-13-13-13-13-13-|
D|-------------------------------------------------|
A|-------------------------------------------------|
D|-------------------------------------------------|

e|-------------------------------------------------|
B|-16-16-16-16-18-18-18-18-20-20-20-20-20-20-20-20-|
G|-12-12-12-12-13-13-13-13-15-15-15-15-15-15-15-15-|
D|-------------------------------------------------|
A|-------------------------------------------------|
D|-------------------------------------------------|

 (start bending G string) (...Then both strings)
e|-------------------------------------------------|
B|-20-20-20-20-20-20-20-20-20-20-20-20-20-20-------|
G|-15-15-15-15-15-15-15-15-15-15-15-15-15-15-------|
D|-------------------------------------------------|
A|-------------------------------------------------|
D|---------------------------------------------\0--|


-----------------------------------------------------------------------------------
                            BILLY TALENT - PINS AND NEEDLES
-----------------------------------------------------------------------------------

Here's Pins and Needles. I'm pretty sure it's 100% correct, find any corrections?

Name: Brendan
Email: x-parasite@e-dimensionz.com

Updated: July 19th

  Put in an alternate intro that I found was easier and sounds more like the CD, and I
in slides in the verse that I didn't hear the first time. Should be PERFECT now.

     Q    E   E  E  E  E  E     E  E  E  E   E  E  Q
e||--------------------------|---------------5------------|
B||--------------------------|--6-----8---------6---------|
G||--------------------------|--7-----8------------7/-----|
D||--------------7-----8-----|----------------------------|
A||-------5h--6--------------|----------------------------|
D||--5--------------5-----0--|-----0-----0----------------|


  Q    E   E  E  E  Q       Q    E  E  E  E  Q       Q    E   E  E  E  E  E
-------------------------|------------------------|--------------------------|
-------------------------|-------------------1----|--------------------------|
-------------------------|----------0--2----------|--------------------------|
--------------0-----3----|-------3----------------|--------------7-----8-----|
-------1h--3-------------|------------------------|-------5h--6--------------|
--1--------------1-------|--0-------------0-------|--5--------------5-----0--|


  E  E  E  E   E   E  Q        Q    E   E  E  E  Q       Q    E  E  E  E  Q
----------------------------|-------------------------|------------------------|
--6-----8-----10------------|-------------------------|-------------------1----|
--7-----8---------10--7\----|-------------------------|----------0--2----------|
----------------------------|--------------0-----3----|-------3----------------|
----------------------------|-------1h--3-------------|------------------------|
-----0-----0----------------|--1--------------1-------|--0-------------0-------|


  W                   W                   W                   W
-------------------|-------------------|-------------------|-------------------|
-------------------|-------------------|-------------------|-------------------|
-------------------|-------------------|-------------------|-------------------|
--5----------------|--0----------------|--1----------------|--0----------------|
--5----------------|--0----------------|--1----------------|--0----------------|
--5----------------|--0----------------|--1----------------|--0----------------|


  W                   W                   Q    E   E  E  E  Q
-------------------|-------------------|-------------------------|
-------------------|-------------------|-------------------------|
-------------------|-------------------|-------------------------|
--5----------------|--0----------------|--------------0-----3----|
--5----------------|--0----------------|-------1h--3-------------|
--5----------------|--0----------------|--1--------------1-------|


  Q    E  E  E  E  Q       Q    E  E  Q    E  E     Q    E  E  E  E  Q
------------------------|--3----------3----------|------------------------|
-------------------1----|--4----4----------------|------------------------|
----------0--2----------|--5-------5-------5-----|-------------------5----|
-------3----------------|--5------------------5--|--3----7-----5--7-------|
------------------------|--3---------------------|--3---------------------|
--0-------------0-------|------------------------|--3-------3-------------|


  E   E  E  E  E  E  Q       E  E  E  E  E  E  Q        Q    E  E  E  E  E  E
--------------------------|--------------------------|-------------------------|
--------------------------|--------------------------|-------------------------|
--------------------------|--------5-----------------|-------------------------|
------------5--8--7--5----|--7-----------8-----7\----|----------3--5--3--1-----|
---------8----------------|--------------------------|-------1--------------0--|
--3S--5-------------------|-----0-----0-----0--------|--1----------------------|


  Q    Q    E  E   Q       W                   W
------------------------|--3----------------|-------------------|
---------------1S--3----|--4----------------|-------------------|
------------3-----------|--5----------------|-------------------|
-------3----------------|--5----------------|--3----------------|
--1---------------------|--3----------------|--3----------------|
------------------------|-------------------|--3----------------|


  Q    E   E  E  E  E  E     E  E  E  E   E  E  Q
--------------------------|---------------5------------|
--------------------------|--6-----8---------6---------|
--------------------------|--7-----8------------7\-----|
--------------7-----8-----|----------------------------|
-------5h--6--------------|----------------------------|
--5--------------5-----0--|-----0-----0----------------|


  Q    E   E  E  E  Q       Q    E  E  E  E  Q       Q    E   E  E  E  E  E
-------------------------|------------------------|--------------------------|
-------------------------|-------------------1----|--------------------------|
-------------------------|----------0--2----------|--------------------------|
--------------0-----3----|-------3----------------|--------------7-----8-----|
-------1h--3-------------|------------------------|-------5h--6--------------|
--1--------------1-------|--0-------------0-------|--5--------------5-----0--|


  E  E  E  E   E  E  Q        Q    E   E  E  E  Q       Q    E  E  E  E  Q
---------------5------------|-------------------------|------------------------|
--6-----8---------6---------|-------------------------|-------------------1----|
--7-----8------------7/-----|-------------------------|----------0--2----------|
----------------------------|--------------0-----3----|-------3----------------|
----------------------------|-------1h--3-------------|------------------------|
-----0-----0----------------|--1--------------1-------|--0-------------0-------|

W                   W                   W                   W
-------------------|-------------------|-------------------|-------------------|
-------------------|-------------------|-------------------|-------------------|
-------------------|-------------------|-------------------|-------------------|
--5/---------------|--0----------------|--1----------------|--0----------------|
--5/---------------|--0----------------|--1----------------|--0----------------|
--5/---------------|--0----------------|--1----------------|--0----------------|


  W                   W                   Q    E   E  E  E  Q
-------------------|-------------------|-------------------------|
-------------------|-------------------|-------------------------|
-------------------|-------------------|-------------------------|
--5/---------------|--0----------------|--------------0-----3----|
--5/---------------|--0----------------|-------1h--3-------------|
--5/---------------|--0----------------|--1--------------1-------|


  Q    E  E  E  E  Q       W                   W
------------------------|-------------------|-------------------|
-------------------1----|-------------------|-------------------|
----------0--2----------|-------------------|-------------------|
-------3----------------|--5/---------------|--0----------------|
------------------------|--5/---------------|--0----------------|
--0-------------0-------|--5/---------------|--0----------------|


  W                   W                   W                   W
-------------------|-------------------|-------------------|-------------------|
-------------------|-------------------|-------------------|-------------------|
-------------------|-------------------|-------------------|-------------------|
--1----------------|--0----------------|--5/---------------|--0----------------|
--1----------------|--0----------------|--5/---------------|--0----------------|
--1----------------|--0----------------|--5/---------------|--0----------------|


  Q    E   E  E  E  Q       Q    E  E  E  E  Q       Q    E  E  Q    E  E
-------------------------|------------------------|--3----------3----------|
-------------------------|-------------------1----|--4----4----------------|
-------------------------|----------0--2----------|--5-------5-------5-----|
--------------0-----3----|-------3----------------|--5------------------5--|
-------1h--3-------------|------------------------|--3---------------------|
--1--------------1-------|--0-------------0-------|------------------------|


  Q    E  E  E  E  Q       E   E  E  E  E  E  Q       E  E  E  E  E  E  Q
------------------------|--------------------------|--------------------------|
------------------------|--------------------------|--------------------------|
-------------------5----|--------------------------|--------5-----------------|
--3----7-----5--7-------|------------5--8--7--5----|--7-----------8-----7\----|
--3---------------------|---------8----------------|--------------------------|
--3-------3-------------|--3S--5-------------------|-----0-----0-----0--------|


  Q    E  E  E  E  E  E     Q    Q    E  E   Q       Q    E  E  Q    E  E
-------------------------|------------------------|--3----------3----------|
-------------------------|---------------1S--3----|--4----4----------------|
-------------------------|------------3-----------|--5-------5-------5-----|
----------3--5--3--1-----|-------3----------------|--5------------------5--|
-------1--------------0--|--1---------------------|--3---------------------|
--1----------------------|------------------------|------------------------|


  Q    E  E  E  E  Q       E   E  E  E  E  E  Q       E  E  E  E  E  E  Q
------------------------|--------------------------|--------------------------|
------------------------|--------------------------|--------------------------|
-------------------5----|--------------------------|--------5-----------------|
--3----7-----5--7-------|------------5--8--7--5----|--7-----------8-----7\----|
--3---------------------|---------8----------------|--------------------------|
--3-------3-------------|--3S--5-------------------|-----0-----0-----0--------|


  Q    E  E  E  E  E  E     Q    Q    E  E   Q       W
-------------------------|------------------------|--3----------------|
-------------------------|---------------1S--3----|--4----------------|
-------------------------|------------3-----------|--5----------------|
----------3--5--3--1-----|-------3----------------|--5----------------|
-------1--------------0--|--1---------------------|--3----------------|
--1----------------------|------------------------|-------------------|


  W                   Q    E   E  E  E  E  E     E  E  E  E   E   E  Q
-------------------|--------------------------|----------------------------|
-------------------|--------------------------|--6-----8-----10------------|
-------------------|--------------------------|--7-----8---------10--7\----|
--3----------------|--------------7-----8-----|----------------------------|
--3----------------|-------5h--6--------------|----------------------------|
--3----------------|--5--------------5-----0--|-----0-----0----------------|


  Q    E   E  E  E  Q       Q    E  E  E  E  Q       E  E  E  E  E  E  E  E
-------------------------|------------------------|--------------------------|
-------------------------|-------------------1----|--------------------------|
-------------------------|----------0--2----------|--------------------------|
--------------0-----3----|-------3----------------|--1--1--1--1--1--1--1--1--|
-------1h--3-------------|------------------------|--1--1--1--1--1--1--1--1--|
--1--------------1-------|--0-------------0-------|--1--1--1--1--1--1--1--1--|


  E  E  E  E  E  E  E  E     E  E  E  E  E  E  Q       Q    Q    Q    Q
--------------------------|-------------------------|----------------------|
--------------------------|-------------------------|----------------------|
--------------------------|--------------------5----|----------------------|
--5--5--5--5--5--5--5--5--|--3--3--7--3--5--7-------|--1----1----1----1----|
--5--5--5--5--5--5--5--5--|--3--3-----3-------------|--1----1----1----1----|
--5--5--5--5--5--5--5--5--|--3--3-----3-------------|--1----1----1----1----|


  E  E  E  E  E  E  E  E     E  E  E  E  E  E  E  E     E  E  E  E  E  E  Q
--------------------------|--------------------------|-------------------------|
--------------------------|--------------------------|-------------------------|
--------------------------|--------------------------|--------------------5----|
--1--1--1--1--1--1--1--1--|--5--5--5--5--5--5--5--5--|--3--3--7--3--5--7-------|
--1--1--1--1--1--1--1--1--|--5--5--5--5--5--5--5--5--|--3--3-----3-------------|
--1--1--1--1--1--1--1--1--|--5--5--5--5--5--5--5--5--|--3--3-----3-------------|


  Q    Q    Q    Q       E  E  E  E  E  E  E  E     E  E  E  E  E  E  E  E
----------------------|--------------------------|--------------------------|
----------------------|--------------------------|--------------------------|
----------------------|--------------------------|--------------------------|
--1----1----1----1----|--1--1--1--1--1--1--1--1--|--5--5--5--5--5--5--5--5--|
--1----1----1----1----|--1--1--1--1--1--1--1--1--|--5--5--5--5--5--5--5--5--|
--1----1----1----1----|--1--1--1--1--1--1--1--1--|--5--5--5--5--5--5--5--5--|


  E  E  E  E  E  E  Q       Q    Q    Q    Q       E  E  E  E  E  E  E  E
-------------------------|----------------------|--------------------------|
-------------------------|----------------------|--------------------------|
--------------------5----|----------------------|--------------------------|
--3--3--7--3--5--7-------|--1----1----1----1----|--1--1--1--1--1--1--1--1--|
--3--3-----3-------------|--1----1----1----1----|--1--1--1--1--1--1--1--1--|
--3--3-----3-------------|--1----1----1----1----|--1--1--1--1--1--1--1--1--|


  E  E  E  E  E  E  E  E     E  E  E  E  E  E  Q       Q    Q    Q    Q
--------------------------|-------------------------|----------------------|
--------------------------|-------------------------|----------------------|
--------------------------|--------------------5----|----------------------|
--5--5--5--5--5--5--5--5--|--3--3--7--3--5--7-------|--1----1----1----1----|
--5--5--5--5--5--5--5--5--|--3--3-----3-------------|--1----1----1----1----|
--5--5--5--5--5--5--5--5--|--3--3-----3-------------|--1----1----1----1----|


  Q    E  E  Q    E  E     Q    E  E  E  E  Q       E   E  E  E  E  E  Q
--3----------3----------|------------------------|--------------------------|
--4----4----------------|------------------------|--------------------------|
--5-------5-------5-----|-------------------5----|--------------------------|
--5------------------5--|--3----7-----5--7-------|------------5--8--7--5----|
--3---------------------|--3---------------------|---------8----------------|
------------------------|--3-------3-------------|--3S--5-------------------|


  E  E  E  E  E  E  Q        Q    E  E  E  E  E  E     Q    Q    E  E   Q
--------------------------|-------------------------|------------------------|
--------------------------|-------------------------|---------------1S--3----|
--------5-----------------|-------------------------|------------3-----------|
--7-----------8-----7\----|----------3--5--3--1-----|-------3----------------|
--------------------------|-------1--------------0--|--1---------------------|
-----0-----0-----0--------|--1----------------------|------------------------|


  Q    E  E  Q    E  E     Q    E  E  E  E  Q       E   E  E  E  E  E  Q
--3----------3----------|------------------------|--------------------------|
--4----4----------------|------------------------|--------------------------|
--5-------5-------5-----|-------------------5----|--------------------------|
--5------------------5--|--3----7-----5--7-------|------------5--8--7--5----|
--3---------------------|--3---------------------|---------8----------------|
------------------------|--3-------3-------------|--3S--5-------------------|


  E  E  E  E  E  E  Q        Q    E  E  E  E  E  E     Q    Q    E  E   Q
--------------------------|-------------------------|------------------------|
--------------------------|-------------------------|---------------1S--3----|
--------5-----------------|-------------------------|------------3-----------|
--7-----------8-----7\----|----------3--5--3--1-----|-------3----------------|
--------------------------|-------1--------------0--|--1---------------------|
-----0-----0-----0--------|--1----------------------|------------------------|


  Q    E  E  Q    E  E     Q    E  E  E  E  Q       E  E   E  E  E  E  E  E
--3----------3----------|------------------------|---------------------------|
--4----4----------------|------------------------|---------------------------|
--5-------5-------5-----|-------------------5----|--L------------------------|
--5------------------5--|--3----7-----5--7-------|---------------5--8--7--5--|
--3---------------------|--3---------------------|------------8--------------|
------------------------|--3-------3-------------|-----3S--5-----------------|


  E  E  E  E  E  E  E  E      E  E  E  E  Q    Q       E  Q    Q    E  E   E
---------------------------|------------------------|-------------------------|
---------------------------|------------------------|------------------1S--3--|
-----------5---------------|------------------------|---------------3---------|
--L--7-----------8-----7S--|--1--1--5--3--1----0----|----------3--------------|
---------------------------|------------------------|--0--1-------------------|
--------0-----0-----0------|------------------------|-------------------------|


  W                   W                   Q    E   E  E  E  E  E
--3----------------|-------------------|--------------------------|
--4----------------|-------------------|--------------------------|
--5----------------|-------------------|--------------------------|
--5----------------|--3----------------|--------------7-----8-----|
--3----------------|--3----------------|-------5h--6--------------|
-------------------|--3----------------|--5--------------5-----0--|


  E  E  E  E   E  E  Q        Q    E   E  E  E  Q       Q    E  E  E  E  Q
---------------5-----------|-------------------------|------------------------|
--6-----8---------6--------|-------------------------|-------------------1----|
--7-----8------------7\----|-------------------------|----------0--2----------|
---------------------------|--------------0-----3----|-------3----------------|
---------------------------|-------1h--3-------------|------------------------|
-----0-----0---------------|--1--------------1-------|--0-------------0-------|


  Q    E   E  E  E  E  E     E  E  E  E   E  E  Q
--------------------------|---------------5------------|
--------------------------|--6-----8---------6---------|
--------------------------|--7-----8------------7\-----|
--------------7-----8-----|----------------------------|
-------5h--6--------------|----------------------------|
--5--------------5-----0--|-----0-----0----------------|


  Q    E   E  E  E  Q       Q    E  E  E  E  Q       W
-------------------------|------------------------|-------------------|
-------------------------|-------------------1----|-------------------|
-------------------------|----------0--2----------|-------------------|
--------------0-----3----|-------3----------------|--5----------------|
-------1h--3-------------|------------------------|--5----------------|
--1--------------1-------|--0-------------0-------|--5----------------|


  W
-------------------------------------------------------------------------------|
-------------------------------------------------------------------------------|
-------------------------------------------------------------------------------|
--L----------------------------------------------------------------------------|
--L----------------------------------------------------------------------------|
--L----------------------------------------------------------------------------|
-------------------------------------------------------------------------------|
                      BILLY TALENT - FALLEN LEAVES
------------------------------------------------------------------------------
Here's Fallen Leaves. Find any corrections? Email me.

Name: Brendan
Email: x-parasite@e-dimensionz.com

Updated: July 29th-change in riff, and verse. -  george92

Alternate riff for intro: - monachima505

e|----------------------------------------------------------------------|
B|-4-4-4-4-3-3-3-3-3-6-4-4-4-4-4-1-1-1-1---------1-1-1/3-0-0-0-0--------|
G|-5-0-5-0-4-0-4-0-4-0-0-3-0-3-0-1-0-1-0-5-5-5-5-x-x-x---0-0-0-0--------|
D|---------------------------------------3-3-3-3-1-1-1/3-0-0-0-0--------|
A|----------------------------------------------------------------------|
D|----------------------------------------------------------------------|

=============================================================================

Intro Part 1
Light Distortion
e|----------------------------------------------------------------------|
B|-4-4-4-4-3-3-3-3-3-6-4-4-4-4-4-4-4-4-4-1-1-1-1-1-1-1---0-0-0-0--------|
G|-5-0-5-0-4-0-4-0-4-0-0-3-0-3-0-1-0-1-1-x-x-x-x-x-x-x---0-0-0-0--------|
D|---------------------------------------3-3-3-3-1-1-1/3-0-0-0-0--------| x2
A|----------------------------------------------------------------------|
D|----------------------------------------------------------------------|

Intro Part 2
Heavy Distortion
e|----------------------------------------------------------------------|
B|----------------------------------------------------------------------|
G|-5--5-----------------------------------------------------------------|
D|-5--5-0-5--5--5--5-6-5-3-1--1-1-6--6-5-3--3-3--1-1-1-3--5-5-5-5-5-----|
A|-3--3-0-5--5--5--5-6-5-3-1--1-1-6--6-5-3--3-3--1-1-1-3--5-5-5-5-5-----|
D|------0-5--5--5--5-6-5-3-1--1-1-6--6-5-3--3-3--1-1-1-3--5-5-5-5-5-----|

Verse Part 1
Clean/Light Distortion
e|-3-----------------------3--------------------------------------------|
B|-4-----------7-----------4-----------8--------------------------------|
G|-5-----------8-----------5-----------8--------------------------------|
D|-5----5-5-1--8----5-5-1--5----5-5-1--8--5-5-1-------------------------|
A|-3----5-5-1--6----5-5-1--3----5-5-1--6--5-5-1-------------------------|
D|------5-5-1-------5-5-1-------5-5-1-----5-5-1-------------------------|

Verse Part 2
Light Distortion
e|----------------------------------------------------------------------|
B|----------------------------------------------------------------------|
G|--5-5-5-5-------------------------------------------------------------|
D|--5-5-5-5--6-6-6-6--8-8-8-8--1-1-1-1--6-6-6-5-3-3-3-2-1-1-1-3-5-5-5-5-|
A|--3-3-3-3--6-6-6-6--8-8-8-8--1-1-1-1--6-6-6-5-3-3-3-2-1-1-1-3-5-5-5-5-|
D|-----------6-6-6-6--8-8-8-8--1-1-1-1--6-6-6-5-3-3-3-2-1-1-1-3-5-5-5-5-|

Pre-chorus
Light Distortion
e|----------------------------------------------------------------------|
B|----------------------------------------------------------------------|
G|--5-5-5-5---------------------------------------------4-4-4-4-4-4-4-4-|
D|--5-5-5-5--6-6-6-6--8-8-8-8--1-1-1-1--6-6-6-6-6-6-6-6-4-4-4-4-4-4-4-4-|
A|--3-3-3-3--6-6-6-6--8-8-8-8--1-1-1-1--6-6-6-6-6-6-6-6-2-2-2-2-2-2-2-2-|
D|-----------6-6-6-6--8-8-8-8--1-1-1-1--6-6-6-6-6-6-6-6-----------------|

Chorus
Heavy Distortion
e|----------------------------------------------------------------------|
B|----------------------------------------------------------------------|
G|-5--5-----------------------------------------------------------------|
D|-5--5-0-5--5--5--5-6-5-3-1--1-1-6--6-5-3--3-3--1-1-1-3--5-5-5-5-5-----| x2
A|-3--3-0-5--5--5--5-6-5-3-1--1-1-6--6-5-3--3-3--1-1-1-3--5-5-5-5-5-----|
D|------0-5--5--5--5-6-5-3-1--1-1-6--6-5-3--3-3--1-1-1-3--5-5-5-5-5-----|

Post Chorus
Light/Heavy Distortion
e|-3---3--3---------------------------3---3--3--------------------------|
B|-4---4--4---------8--8-8------------4---4--4---------8--8-8-----------|
G|-5---5--5---------8--8-8------------5---5--5---------8--8-8-----------|
D|(5)-(5)(5)-5-5-1--8--8-8-----5-5-1-(5)-(5)(5)-5-5-1--8--8-8--5-5-1----|
A|(3)-(3)(3)-5-5-1--6--6-6-----5-5-1-(3)-(3)(3)-5-5-1--6--6-6--5-5-1----|
D|-----------5-5-1-------------5-5-1------------5-5-1----------5-5-1----|

Verse Part 1
Clean/Light Distortion
e|-3-----------------------3--------------------------------------------|
B|-4-----------7-----------4-----------8--------------------------------|
G|-5-----------8-----------5-----------8--------------------------------|
D|-5----5-5-1--8----5-5-1--5----5-5-1--8--5-5-1-------------------------|
A|-3----5-5-1--6----5-5-1--3----5-5-1--6--5-5-1-------------------------|
D|------5-5-1-------5-5-1-------5-5-1-----5-5-1-------------------------|

Pre-chorus
Light Distortion
e|----------------------------------------------------------------------|
B|----------------------------------------------------------------------|
G|--5-5-5-5---------------------------------------------4-4-4-4-4-4-4-4-|
D|--5-5-5-5--6-6-6-6--8-8-8-8--1-1-1-1--6-6-6-6-6-6-6-6-4-4-4-4-4-4-4-4-|
A|--3-3-3-3--6-6-6-6--8-8-8-8--1-1-1-1--6-6-6-6-6-6-6-6-2-2-2-2-2-2-2-2-|
D|-----------6-6-6-6--8-8-8-8--1-1-1-1--6-6-6-6-6-6-6-6-----------------|

Chorus
Heavy Distortion
e|----------------------------------------------------------------------|
B|----------------------------------------------------------------------|
G|-5--5-----------------------------------------------------------------|
D|-5--5-0-5--5--5--5-6-5-3-1--1-1-6--6-5-3--3-3--1-1-1-3--5-5-5-5-5-----| x2
A|-3--3-0-5--5--5--5-6-5-3-1--1-1-6--6-5-3--3-3--1-1-1-3--5-5-5-5-5-----|
D|------0-5--5--5--5-6-5-3-1--1-1-6--6-5-3--3-3--1-1-1-3--5-5-5-5-5-----|

Solo
Light Distortion
E|-------------------------------------------------------------------------|
B|--------------8v---------------8v--------8h9-----8h9----8-7-6---11/13/15-|
G|-5h7h8-5h7-4-----7h8h10-7h8-------10-------8--------8--------------------|
D|-----------------------------8--------10------10------8------------------|
A|-------------------------------------------------------------------------|
E|-------------------------------------------------------------------------|

E|-------------------------------------------------------------------------|
B|-------------8v---------------8v--------8h9-----8h9----8-7-6-------------|
G|-5h7h8-5h7-4-----7h8h10-7h8-------10--------8-------8--------7-----------|
D|-----------------------------8--------10------10------8---------8\-------|
A|-------------------------------------------------------------------------|
E|-------------------------------------------------------------------------|

Bridge
Light Distortion
e|-4----------3-3-3-3-3--4----------------------3-3-3-3-3--4------------|
B|-6-------4--4-4-4-4-4--6-------------4-4-3----4-4-4-4-4--6------------|
G|-5-------5--5-5-5-5-5--5-------------5-----5--5-5-5-5-5--5------------|
D|----5-5--5--5-5-5-5-5-----3-5-6-5-5--5--------5-5-5-5-5-----3-5-6-5-5-|
A|----5-5-----6-6-6-6-6-----------5-5-----------6-6-6-6-6-----------5-5-|
D|----5-5-------------------------5-5-------------------------------5-5-|

e|-----------3-3-3-3-3--------------------------------------------------|
B|--4-4-3----4-4-4-4-4--------------------------------------------------|
G|--5-----5--5-5-5-5-5-------------------4-4-4-4-4-4-4-4----------------|
D|--5--------5-5-5-5-5--5-5-5-5-5-5-5-5--5-5-5-5-5-5-5-5----------------|
A|-----------6-6-6-6-6--5-5-5-5-5-5-5-5--2-2-2-2-2-2-2-2----------------|
D|----------------------5-5-5-5-5-5-5-5---------------------------------|

Riff 1
Light Distortion
e|----------------------------------------------------------------------|
B|-4-4-4-4-3-3-3-3-3-6-4-4-4-4-4-4-4-4-4-1-1-1-1-1-1-1---0-0-0-0--------|
G|-5-0-5-0-4-0-4-0-4-0-0-3-0-3-0-1-0-1-1-x-x-x-x-x-x-x---0-0-0-0--------|
D|---------------------------------------3-3-3-3-1-1-1/3-0-0-0-0--------| x2
A|----------------------------------------------------------------------|
D|----------------------------------------------------------------------|

Chorus
Heavy Distortion
e|-----------------------------------------------------------------------------|
B|-----------------------------------------------------------------------------|
G|-5--5------------------------------------------------------------------------|
D|-5--5-0-5--5--5--5-6-5-3-1--1-1-6--6-5-3--3-3--1-1-1-3--5-5-5-5-5------------| x4
A|-3--3-0-5--5--5--5-6-5-3-1--1-1-6--6-5-3--3-3--1-1-1-3--5-5-5-5-5------------|
D|------0-5--5--5--5-6-5-3-1--1-1-6--6-5-3--3-3--1-1-1-3--5-5-5-5-5------------|
-------------------------------------------------------------------------------|
                         BILLY TALENT - WHERE IS THE LINE?
------------------------------------------------------------------------------

FINALLY EDITED

INTRO
======
e|---------------------------------|-------------0---------------0---|
B|-------3-------3-------3-------3-|-----5-------3-------5-------3---|
G|-----0-------0-------0-------0---|-----7-------0-------7-------0---|
D|---4-------4-------4-------4-----|-5-5-5---2-2-----5-5-5---2-2-----|
A|-2-------4-------5---------------|-5-5-----2-2-----5-5-----2-2-----|
D|-------------------------0-------|-5-5-----2-2-----5-5-----2-2-----|
                                     . .     . .     . .     . .

e|---------------------------------|-5~~~~~~~~~~~~~~-2~~~~~~~~~~~~~~-|
B|-------3-------3-------3-------3-|-7~~~~~~~~~~~~~~-3~~~~~~~~~~~~~~-|
G|-----0-------0-------0-------0---|-7~~~~~~~~~~~~~~-4~~~~~~~~~~~~~~-|
D|---4-------4-------4-------4-----|-5~~~~~~~~~~~~~~-2~~~~~~~~~~~~~~-|
A|-2-------4-------5---------------|-5~~~~~~~~~~~~~~-2~~~~~~~~~~~~~~-|
D|-------------------------0-------|-5~~~~~~~~~~~~~~-2~~~~~~~~~~~~~~-|

e|-5---5---5-5-5-5---5-5---5-5-5-5-|---------------------------------|
B|-7---7---7-7-7-7---7-7---7-7-7-7-|-7---7---7-7-7-7---7-7---7-7-7-7-|
G|-7---7---7-7-7-7---7-7---7-7-7-7-|-7---7---7-7-7-7---7-7---7-7-7-7-|
D|-7---7---7-7-7-7---7-7---7-7-7-7-|-5---5---5-5-5-5---5-5---5-5-5-5-|
A|-5---5---5-5-5-5---5-5---5-5-5-5-|-7---7---7-7-7-7---7-7---7-7-7-7-|
D|---------------------------------|---------------------------------|

e|-0---0---0-0-0-0---0-0---0-0-0-0-|-0-0-0-0-------------------------|
B|-3---3---3-3-3-3---3-3---3-3-3-3-|-2-2-2-2-2h3p2-------------------|
G|-4---4---4-4-4-4---4-4---4-4-4-4-|-2-2-2-2-------------------------|
D|-4---4---4-4-4-4---4-4---4-4-4-4-|-2-2-2-2-------4---4-4-4-4-4-4-4-|
A|-2---2---2-2-2-2---2-2---2-2-2-2-|-0-0-0-0-------4---4-4-4-4-4-4-4-|
D|---------------------------------|---------------4---4-4-4-4-4-4-4-|


VERSE
======
e|-5~~~~~~~~~~~~~-0~~~~~~~~~~~~~~~-|-2~~~~~~~~~~~~~~-0~~~~~~~~~~~~~~-|
B|-7~~~~~~~~~~~~~-7~~~~~~~~~~~~~~~-|-3~~~~~~~~~~~~~~-2~~~~~~~~~~~~~~-|
G|-7~~~~~~~~~~~~~-7~~~~~~~~~~~~~~~-|-4~~~~~~~~~~~~~~-0~~~~~~~~~~~~~~-|
D|-7~~~~~~~~~~~~~-5~~~~~~~~~~~~~~~-|-4~~~~~~~~~~~~~~-2~~~~~~~~~~~~~~-|
A|---------------------------------|----------------(0)~~~~~~~~~~~~~-|
D|---------------------------------|---------------------------------|

e|-5~~~~~~~~~~~~~-0~~~~~~~~~~~~~~~-|-2~~~~~~~~~~~~~~-0-0-0-0-------0-|
B|-7~~~~~~~~~~~~~-7~~~~~~~~~~~~~~~-|-3~~~~~~~~~~~~~~-2-2-2-2-2h3p2-2-|
G|-7~~~~~~~~~~~~~-7~~~~~~~~~~~~~~~-|-4~~~~~~~~~~~~~~-2-2-2-2-------2-|
D|-7~~~~~~~~~~~~~-5~~~~~~~~~~~~~~~-|-4~~~~~~~~~~~~~~-2-2-2-2-------2-|
A|---------------------------------|-------------------------------0-|
D|---------------------------------|---------------------------------|


PRE-CHORUS
===========
e|---------------------------------|---------------------------------|
B|---------------------------------|-3-3-3-3-3-3-3-3-5-5-5-5-5-5-5-5-|
G|---------------------------------|-4-4-4-4-4-4-4-4-6-6-6-6-6-6-6-6-|
D|-2---2-2-2---2---5---5-5-5---5---|-4-4-4-4-4-4-4-4-0-0-0-0-0-0-0-0-|
A|-2---2-2-2---2---5---5-5-5---5---|-2-2-2-2-2-2-2-2-4-4-4-4-4-4-4-4-|
D|-2---2-2-2---2---5---5-5-5---5---|---------------------------------|

e|---------------------------------|---------------------------------|
B|---------------------------------|-3-3-3-3-3-3-3-3-5~~~~~~~~~------|
G|---------------------------------|-4-4-4-4-4-4-4-4-6~~~~~~~~~------|
D|-2---2-2-2---2---5---5-5-5---5---|-4-4-4-4-4-4-4-4-0~~~~~~~~~------|
A|-2---2-2-2---2---5---5-5-5---5---|-2-2-2-2-2-2-2-2-4~~~~~~~~~-////-|
D|-2---2-2-2---2---5---5-5-5---5---|---------------------------------|


CHORUS (x2)
============
e|-5---5---5-5-5-5---5-5---5-5-5-5-|---------------------------------|
B|-7---7---7-7-7-7---7-7---7-7-7-7-|-7---7---7-7-7-7---7-7---7-7-7-7-|
G|-7---7---7-7-7-7---7-7---7-7-7-7-|-7---7---7-7-7-7---7-7---7-7-7-7-|
D|-7---7---7-7-7-7---7-7---7-7-7-7-|-5---5---5-5-5-5---5-5---5-5-5-5-|
A|-5---5---5-5-5-5---5-5---5-5-5-5-|-7---7---7-7-7-7---7-7---7-7-7-7-|
D|---------------------------------|---------------------------------|

e|-0---0---0-0-0-0---0-0---0-0-0-0-|-0-0-0-0-------------------------|
B|-3---3---3-3-3-3---3-3---3-3-3-3-|-2-2-2-2-2h3p2-------------------|
G|-4---4---4-4-4-4---4-4---4-4-4-4-|-2-2-2-2-------------------------|
D|-4---4---4-4-4-4---4-4---4-4-4-4-|-2-2-2-2-------4---4-4-4-4-4-4-4-|
A|-2---2---2-2-2-2---2-2---2-2-2-2-|-0-0-0-0-------4---4-4-4-4-4-4-4-|
D|---------------------------------|---------------4---4-4-4-4-4-4-4-|

VERSE
======
e|-5~~~~~~~~~~~~~-0~~~~~~~~~~~~~~~-|-2~~~~~~~~~~~~~~-0~~~~~~~~~~~~~~-|
B|-7~~~~~~~~~~~~~-7~~~~~~~~~~~~~~~-|-3~~~~~~~~~~~~~~-2~~~~~~~~~~~~~~-|
G|-7~~~~~~~~~~~~~-7~~~~~~~~~~~~~~~-|-4~~~~~~~~~~~~~~-0~~~~~~~~~~~~~~-|
D|-7~~~~~~~~~~~~~-5~~~~~~~~~~~~~~~-|-4~~~~~~~~~~~~~~-2~~~~~~~~~~~~~~-|
A|---------------------------------|----------------(0)~~~~~~~~~~~~~-|
D|---------------------------------|---------------------------------|

e|-5~~~~~~~~~~~~~-0~~~~~~~~~~~~~~~-|-2~~~~~~~~~~~~~~-0-0-0-0-------0-|
B|-7~~~~~~~~~~~~~-7~~~~~~~~~~~~~~~-|-3~~~~~~~~~~~~~~-2-2-2-2-2h3p2-2-|
G|-7~~~~~~~~~~~~~-7~~~~~~~~~~~~~~~-|-4~~~~~~~~~~~~~~-2-2-2-2-------2-|
D|-7~~~~~~~~~~~~~-5~~~~~~~~~~~~~~~-|-4~~~~~~~~~~~~~~-2-2-2-2-------2-|
A|---------------------------------|-------------------------------0-|
D|---------------------------------|---------------------------------|


PRE-CHORUS
===========
e|---------------------------------|---------------------------------|
B|---------------------------------|-3-3-3-3-3-3-3-3-5-5-5-5-5-5-5-5-|
G|---------------------------------|-4-4-4-4-4-4-4-4-6-6-6-6-6-6-6-6-|
D|-2---2-2-2---2---5---5-5-5---5---|-4-4-4-4-4-4-4-4-0-0-0-0-0-0-0-0-|
A|-2---2-2-2---2---5---5-5-5---5---|-2-2-2-2-2-2-2-2-4-4-4-4-4-4-4-4-|
D|-2---2-2-2---2---5---5-5-5---5---|---------------------------------|

e|---------------------------------|---------------------------------|
B|---------------------------------|-3-3-3-3-3-3-3-3-5~~~~~~~~~------|
G|---------------------------------|-4-4-4-4-4-4-4-4-6~~~~~~~~~------|
D|-2---2-2-2---2---5---5-5-5---5---|-4-4-4-4-4-4-4-4-0~~~~~~~~~------|
A|-2---2-2-2---2---5---5-5-5---5---|-2-2-2-2-2-2-2-2-4~~~~~~~~~-////-|
D|-2---2-2-2---2---5---5-5-5---5---|---------------------------------|


CHORUS (x2)
============
e|-5---5---5-5-5-5---5-5---5-5-5-5-|---------------------------------|
B|-7---7---7-7-7-7---7-7---7-7-7-7-|-7---7---7-7-7-7---7-7---7-7-7-7-|
G|-7---7---7-7-7-7---7-7---7-7-7-7-|-7---7---7-7-7-7---7-7---7-7-7-7-|
D|-7---7---7-7-7-7---7-7---7-7-7-7-|-5---5---5-5-5-5---5-5---5-5-5-5-|
A|-5---5---5-5-5-5---5-5---5-5-5-5-|-7---7---7-7-7-7---7-7---7-7-7-7-|
D|---------------------------------|---------------------------------|

e|-0---0---0-0-0-0---0-0---0-0-0-0-|-0-0-0-0-------------------------|
B|-3---3---3-3-3-3---3-3---3-3-3-3-|-2-2-2-2-2h3p2-------------------|
G|-4---4---4-4-4-4---4-4---4-4-4-4-|-2-2-2-2-------------------------|
D|-4---4---4-4-4-4---4-4---4-4-4-4-|-2-2-2-2-------4---4-4-4-4-4-4-4-|
A|-2---2---2-2-2-2---2-2---2-2-2-2-|-0-0-0-0-------4---4-4-4-4-4-4-4-|
D|---------------------------------|---------------4---4-4-4-4-4-4-4-|
                                                       . . . .

BRIDGE (x2)
============
e|---------------------|-----------------|-----------------|------------------|
B|---------------------|-----------------|-----------------|------------------|
G|---------------------|-----------------|---------7---9---|-11--11--11-9p7---|
D|-9-9-9-9-11h12p11----|-2-2-2-2-4h5-4p0-|-5-5-9-5---5---5-|-7---7---7--5p4---|
A|-9-9-9-9----------12-|-2-2-2-2---------|-5-5---5---5---5-|-0---0---0----0---|
D|-9-9-9-9-------------|-2-2-2-2---------|-5-5---5---5---5-|-0---0---0----0---|

e|---------------------------------|----------------------------------|
B|---------------------------------|----------------------------------|
G|-7-7-7-7-7-7-7-7-4-4-4-4-4-4-4-4-|-9-9-9-9-9h11p9-9-7---7-7-6---6-6-|
D|-5-5-5-5-5-5-5-5-2-2-2-2-2-2-2-2-|-7-7-7-7-7-7--7-7-5---5-5-4---4-4-|
A|-5-5-5-5-5-5-5-5-2-2-2-2-2-2-2-2-|-7-7-7-7-7-7--7-7-5---5-5-4---4-4-|
D|-5-5-5-5-5-5-5-5-2-2-2-2-2-2-2-2-|-7-7-7-7-7-7--7-7-5---5-5-4---4-4-|


PRE-CHORUS
===========
e|---------------------------------|-------------0---------------0---|
B|-------3-------3-------3-------3-|-----5-------3-------5-------3---|
G|-----0-------0-------0-------0---|-----7-------0-------7-------0---|
D|---4-------4-------4-------4-----|-5-5-5---2-2-----5-5-5---2-2-----|
A|-2-------4-------5---------------|-5-5-----2-2-----5-5-----2-2-----|
D|-------------------------0-------|-5-5-----2-2-----5-5-----2-2-----|
                                     . .     . .     . .     . .

e|---------------------------------|-5~~~~~~~~~~~~~~-2~~~~~~~~~~~~~~-|
B|-------3-------3-------3-------3-|-7~~~~~~~~~~~~~~-3~~~~~~~~~~~~~~-|
G|-----0-------0-------0-------0---|-7~~~~~~~~~~~~~~-4~~~~~~~~~~~~~~-|
D|---4-------4-------4-------4-----|-5~~~~~~~~~~~~~~-2~~~~~~~~~~~~~~-|
A|-2-------4-------5---------------|-5~~~~~~~~~~~~~~-2~~~~~~~~~~~~~~-|
D|-------------------------0-------|-5~~~~~~~~~~~~~~-2~~~~~~~~~~~~~~-|


CHORUS (x2)
============
e|-5---5---5-5-5-5---5-5---5-5-5-5-|---------------------------------|
B|-7---7---7-7-7-7---7-7---7-7-7-7-|-7---7---7-7-7-7---7-7---7-7-7-7-|
G|-7---7---7-7-7-7---7-7---7-7-7-7-|-7---7---7-7-7-7---7-7---7-7-7-7-|
D|-7---7---7-7-7-7---7-7---7-7-7-7-|-5---5---5-5-5-5---5-5---5-5-5-5-|
A|-5---5---5-5-5-5---5-5---5-5-5-5-|-7---7---7-7-7-7---7-7---7-7-7-7-|
D|---------------------------------|---------------------------------|

e|-0---0---0-0-0-0---0-0---0-0-0-0-|-0-0-0-0-------------------------|
B|-3---3---3-3-3-3---3-3---3-3-3-3-|-2-2-2-2-2h3p2-------------------|
G|-4---4---4-4-4-4---4-4---4-4-4-4-|-2-2-2-2-------------------------|
D|-4---4---4-4-4-4---4-4---4-4-4-4-|-2-2-2-2-------4---4-4-4-4-4-4-4-|
A|-2---2---2-2-2-2---2-2---2-2-2-2-|-0-0-0-0-------4---4-4-4-4-4-4-4-|
D|---------------------------------|---------------4---4-4-4-4-4-4-4-|


OUTRO (x2)
===========
    x16     x16     x16
e|---5---|-------|---0---|-0-0-0-0-------0---0-0-0---------|
B|---7---|---7---|---3---|-2-2-2-2-2h3p2-2---2-2-2-2h3p2---|
G|---7---|---7---|---4---|-2-2-2-2-------2---2-2-2---------|
D|---7---|---5---|---4---|-2-2-2-2-------2---2-2-2---------|
A|---5---|---7---|---2---|-0-0-0-0-------0---0-0-0---------|
D|-------|-------|-------|---------------------------------|

e|-----------------------|
B|-----------------------|
G|-----------------------|
D|-0~~~~~~~~~~~~~~~~~~---|
A|-0~~~~~~~~~~~~~~~~~~---|
D|-0~~~~~~~~~~~~~~~~~~---|
-------------------------------------------------------------------------------
		       Covered in Cowardice - Billy Talent
-------------------------------------------------------------------------------
Tabbed by: A_GOOD_TABBER (Neil)

Tuning: Drop D Tunning

Intro
E|------------------------------------------------------------------------------|
B|------------------------------------7~ ---------------------------------------|
G|-------------------------------7----7~ ---------------------------------------|
D|--------------------7-----8---------7~ ---------------------------------------|
A|--5-----7-----8---------------------5~----------------------------------------|
D|----5-5---5-5---5-5---5-5---5----5--------------------------------------------|

E|------------------------------------------------------------------------------|
B|--------------------------------------8---------------------------------------|
G|--------------------------------10----8---------------------------------------|
D|----------------------10----12--------8---------------------------------------|
A|--8-----10-----12---------------------6---------------------------------------|
D|----8-8----8-8----8-8---8-8---8----8------------------------------------------|
						       ^   ^   ^
E|------------------------------------------------------------------------------|
B|----------------------------------------------7-7-7-7-7-7-7-7-----------------|
G|---------------------------------------7------7-7-7-7-7-7-7-7-----------------|
D|--5-5-5-----5-5-----5-5--7--5-5--8--5-----5---7-7-7-7-7-7-7-7-----------------|
A|--5-5-5--7--5-5--8--5-5-----5-5-----5-----5-----------------------------------|
D|--5-5-5-----5-5-----5-5-----5-5-----5-----5-----------------------------------|

E|------------------------------------------------------------------------------|
B|--------------------------------------------------8-8-8-8-8-8-8-8-------------|
G|-------------------------------------------10-----8-8-8-8-8-8-8-8-------------|
D|--8-8-8------8-8------8-8--10--8-8--12--8------8--8-8-8-8-8-8-8-8-------------|
A|--8-8-8--10--8-8--12--8-8------8-8------8------8------------------------------|
D|--8-8-8------8-8------8-8------8-8------8------8------------------------------|


Verse
E|----------------------------------------5-------------------------------------|
B|----------------------------------------7-------------------------------------|
G|-5-5-5\---------------------------------7-------------------------------------|
D|-5-5-5\----5---------------------------(5)------------------------------------|
A|-3-3-3\----5---------------------------(5)------------------------------------|
D|-----------5---------------------------(5)------------------------------------|
            “Twisted Tongues will put you in their category.....”

E|--1------------------------------3-----------------------------|
B|--3------------------------------4-----------------------------|
G|--3------------------------------3-----------------------------|
D|---------------------------------------------------------------|
A|---------------------------------------------------------------|
D|---------------------------------------------------------------|
   “Face to Face, you’ll hear them tell a different story...”

E|----------------------------------5----------------------------|
B|----------------------------------7----------------------------|
G|--7------7----7---7----7h8p7------7----------------------------|
D|---------------------------------------------------------------|
A|---------------------------------------------------------------|
D|---------------------------------------------------------------|
    “Loose Lips may sink ships, But Honesty’s forever...”

E|------------------------3-3-3-3-3-3-3-3------------------------|
B|------------------------4-4-4-4-4-4-4-4------------------------|
G|---7----7--7-7--7h8p7---3-3-3-3-3-3-3-3------------------------|
D|---------------------------------------------------------------|
A|---------------------------------------------------------------|
D|---------------------------------------------------------------|
    “Eyes of Envy try to  cut and try to sever...”

Pre-Chorus
E|---------------------3-3-3-3-3-3-3-3---------------------------|
B|-4-4-4-4-4-4-4-4-----4-4-4-4-4-4-4-4---------------------------|
G|-3-3-3-3-3-3-3-3-----5-5-5-5-5-5-5-5---------------------------|
D|-1-1-1-1-1-1-1-1-----5-5-5-5-5-5-5-5---------------------------|
A|-1-1-1-1-1-1-1-1-----3-3-3-3-3-3-3-3---------------------------|
D|-1-1-1-1-1-1-1-1-----------------------------------------------|
      “Cowards Who     hide behind their words...”

E|----------------------8--8--8--8--8--8--8--8-------------------|
B|-8-8-8-8-8-8-8-8------10-10-10-10-10-10-10-10------------------|
G|-7-7-7-7-7-7-7-7------10-10-10-10-10-10-10-10------------------|
D|-5-5-5-5-5-5-5-5------10-10-10-10-10-10-10-10------------------|
A|-5-5-5-5-5-5-5-5------8--8--8--8--8--8--8--8-------------------|
D|-5-5-5-5-5-5-5-5-----------------------------------------------|
      “Don’t Care who’s feelings will get hurt”

E|---------------------3-3-3-3-3-3-3-3---------------------------|
B|-4-4-4-4-4-4-4-4-----4-4-4-4-4-4-4-4---------------------------|
G|-3-3-3-3-3-3-3-3-----5-5-5-5-5-5-5-5---------------------------|
D|-1-1-1-1-1-1-1-1-----5-5-5-5-5-5-5-5---------------------------|
A|-1-1-1-1-1-1-1-1-----3-3-3-3-3-3-3-3---------------------------|
D|-1-1-1-1-1-1-1-1-----------------------------------------------|
      “Beware The      Voice without a face...”


E|--------------------8~ ----------------------------|
B|-8-8-8-8-8-8-8-8---10~ ----------------------------|
G|-7-7-7-7-7-7-7-7---10~ ----------------------------|
D|-5-5-5-5-5-5-5-5---10~ ----------------------------|
A|-5-5-5-5-5-5-5-5----8~ ----------------------------|
D|-5-5-5-5-5-5-5-5-----------------------------------|
      “That’s Hidden underneath the...”

Chorus
E|------------------------------------------------------------|
B|------------------------------------------------------------|
G|----------------------------------------3-------------------|
D|--5-5-5-5---------------------5-----3-------0---------------|
A|--5-5-5-5-------^-------------------------------------------|
D|--5-5-5-5-------7-------------------------------------------|
   “Cover of Cowardice”        “Can’t You See Them!?!”
E|----------------------------------------------------------|
B|----------------------------------------------------------|
G|----------------------------------------------------------|
D|--5-5-5-5-------------------0-----------------------------|
A|--5-5-5-5---------^---------0-----------------------------|
D|--5-5-5-5---------7---------0-----------------------------|
   “Covered in Cowardice”    “Can’t You Hear Them!?!”

E|---------------------3-3-3-3-3-3-3-3---------------------------|
B|-4-4-4-4-4-4-4-4-----4-4-4-4-4-4-4-4---------------------------|
G|-3-3-3-3-3-3-3-3-----5-5-5-5-5-5-5-5---------------------------|
D|-1-1-1-1-1-1-1-1-----5-5-5-5-5-5-5-5---------------------------|
A|-1-1-1-1-1-1-1-1-----3-3-3-3-3-3-3-3---------------------------|
D|-1-1-1-1-1-1-1-1-----------------------------------------------|
      “Beware The      Voice without a face...”

E|-------------------------------------------------------|
B|-8-8-8-8-8-8-8-8---------------------------------------|
G|-7-7-7-7-7-7-7-7---------------------------------------|
D|-5-5-5-5-5-5-5-5---3~ ---------------------------------|
A|-5-5-5-5-5-5-5-5---3~ ---------------------------------|
D|-5-5-5-5-5-5-5-5---3~ ---------------------------------|
      “That’s Hidden underneath the...”

E|--------------------------------------------------------------|
B|--------------------------------------------------------------|
G|----------------------------------------3---------------------|
D|--5-5-5-5---------------------------3-------------------------|
A|--5-5-5-5-------^---------------------------------------------|
D|--5-5-5-5-------7-------------5-------------0-----------------|
   “Cover of Cowardice”        “Can’t You See Them!?!”


E|--------------------------------------------------------------|
B|--------------------------------------------------------------|
G|--------------------------------------------------------------|
D|--5-5-5-5-------------------0---------------------------------|
A|--5-5-5-5---------^---------0---------------------------------|
D|--5-5-5-5---------7---------0---------------------------------|
   “Covered in Cowardice”    “Can’t You Hear Them!?!”

E|---------------------3-3-3-3-3-3-3-3--------------------------|
B|-4-4-4-4-4-4-4-4-----4-4-4-4-4-4-4-4--------------------------|
G|-3-3-3-3-3-3-3-3-----5-5-5-5-5-5-5-5--------------------------|
D|-1-1-1-1-1-1-1-1-----5-5-5-5-5-5-5-5--------------------------|
A|-1-1-1-1-1-1-1-1-----3-3-3-3-3-3-3-3--------------------------|
D|-1-1-1-1-1-1-1-1----------------------------------------------|
      “Cowards Who     hide behind their words...”

E|----------------------8--8--8--8--8--8--8--8------------------|
B|-8-8-8-8-8-8-8-8------10-10-10-10-10-10-10-10-----------------|
G|-7-7-7-7-7-7-7-7------10-10-10-10-10-10-10-10-----------------|
D|-5-5-5-5-5-5-5-5------10-10-10-10-10-10-10-10-----------------|
A|-5-5-5-5-5-5-5-5------8--8--8--8--8--8--8--8------------------|
D|-5-5-5-5-5-5-5-5----------------------------------------------|
      “Don’t Care who’s feelings will get hurt”

E|--------------------3-3-3-3-3-3-3-3---------------------------|
B|-4-4-4-4-4-4-4-4----4-4-4-4-4-4-4-4---------------------------|
G|-3-3-3-3-3-3-3-3----5-5-5-5-5-5-5-5---------------------------|
D|-1-1-1-1-1-1-1-1----5-5-5-5-5-5-5-5---------------------------|
A|-1-1-1-1-1-1-1-1----3-3-3-3-3-3-3-3---------------------------|
D|-1-1-1-1-1-1-1-1----------------------------------------------|
      “Their Eyes are Blinded by their rage...”

E|-----------------------------------------------------------------|
B|-----------------------------------------------------------------|
G|-----------------------------------------------------------------|
D|--5-5-5-5-------------------------0------------------------------|
A|--5-5-5-5-----------^-------------0------------------------------|
D|--5-5-5-5-----------7-------------0------------------------------|
       “Beware        the           Voice without a face...”

Verse 2                         ^   ^   ^
E|-------------------------7----7---7---7-----------------|
B|-------------------------7----7---7---7-----------------|
G|--7-7---7---7-7h8p7------7----7---7---7-----------------|
D|--------------------------------------------------------|
A|--------------------------------------------------------|
D|--------------------------------------------------------|


E|-----------------------------3~ ---------------------------------|
B|-----------------------------4~ ---------------------------------|
G|-7----7---7---7---7h8p7------3~ ---------------------------------|
D|-----------------------------------------------------------------|
A|-----------------------------------------------------------------|
D|-----------------------------------------------------------------|

E|------------6--------------------------5-------------------------|
B|------------8--------------------------7-------------------------|
G|--5-5-5-----7--------------------------7-------------------------|
D|--5-5-5-----5--------------------------7-------------------------|
A|--3-3-3-----5--------------------------5-------------------------|
D|------------5----------------------------------------------------|
   “When your insecure, They’ll find the fuel to start a fire...”

E|---------1-----------------------6-------------------------------|
B|---------3-----------------------8-------------------------------|
G|---------3-----------------------8-------------------------------|
D|---------3-----------------------8-------------------------------|
A|---------1-----------------------6-------------------------------|
D|-----------------------------------------------------------------|
  “They’re Bitter Pricks with only hatrid to Inspire...”

                                        ^       ^       ^
E|-----------------------------------------------------------------|
B|------------------------7----------------------------------------|
G|-7-7---7-----7--7h8p----7----------------------------------------|
D|------------------------7----------------------------------------|
A|-----------------------------------------------------------------|
D|-----------------------------------------------------------------|
  “Level Heads prevail... Revenge won’t make it better...”


E|------------------------3-3-3-3-3-3--333-------------------------|
B|------------------------4-4-4-4-4-4--444-------------------------|
G|-7-7----7----7--7h8p7---3-3-3-3-3-3--333-------------------------|
D|-----------------------------------------------------------------|
A|-----------------------------------------------------------------|
D|-----------------------------------------------------------------|

Play Pre-Chorus
Play Chorus

E|---6-6-6-6-8--8--8--8--10-10-10-10-10-10-10-10-10-10-----------|
B|---8-8-8-8-10-10-10-10-11-11-11-11-11-11-11-11-11-11-----------|
G|---8-8-8-8-10-10-10-10-12-12-12-12-12-12-12-12-12-12-----------|
D|---8-8-8-8-10-10-10-10-12-12-12-12-12-12-12-12-12-12-----------|
A|---6-6-6-6-8--8--8--8--10-10-10-10-10-10-10-10-10-10-----------|
D|---------------------------------------------------------------|


E|---3-3-3-3-6-6-6-6-8--8--8--8--8--8--8--8---3-3-3-3-------------------|
B|---4-4-4-4-8-8-8-8-10-10-10-10-10-10-10-10--4-4-4-4-------8-8-8-8-----|
G|---5-5-5-5-8-8-8-8-10-10-10-10-10-10-10-10--5-5-5-5-------7-7-7-7-----|
D|--------------------------------------------5-5-5-5---^---5-5-5-5-----|
A|--------------------------------------------3-3-3-3---5---5-5-5-5---^-|
D|----------------------------------------------------------5-5-5-5---7-|

E|---------------------------------------------------------------|
B|---------------------------------------------------------------|
G|--7-8-5-3-2-3-3/5--3-3-3-3-------------------------------------|
D|--0~ -------------------1-1-1-1--------------------------------|
A|--0~ -------------------1-1-1-1--------------------------------|
D|--0~ -------------------1-1-1-1--------------------------------|


E|---6-6-6-6-8--8--8--8--10-10-10-10-10-10-10-10-10-10-----------|
B|---8-8-8-8-10-10-10-10-11-11-11-11-11-11-11-11-11-11-----------|
G|---8-8-8-8-10-10-10-10-12-12-12-12-12-12-12-12-12-12-----------|
D|---8-8-8-8-10-10-10-10-12-12-12-12-12-12-12-12-12-12-----------|
A|---6-6-6-6-8--8--8--8--10-10-10-10-10-10-10-10-10-10-----------|
D|---------------------------------------------------------------|


E|---3-3-3-3-6-6-6-6-8--8--8--8--8--8--8--8---3-3-3-3-------------------|
B|---4-4-4-4-8-8-8-8-10-10-10-10-10-10-10-10--4-4-4-4-------8-8-8-8-----|
G|---5-5-5-5-8-8-8-8-10-10-10-10-10-10-10-10--5-5-5-5-------7-7-7-7-----|
D|--------------------------------------------5-5-5-5---^---5-5-5-5-----|
A|--------------------------------------------3-3-3-3---5---5-5-5-5---^-|
D|----------------------------------------------------------5-5-5-5---7-|


E|---------------------------------------------------------------|
B|---------------------------------------------------------------|
G|--7-8-7-3-2-3-3/5--3~(3)(3)(3)(3)(3)(3)(3)---------------------|
D|--0~ --------------1--1--1--1--1--1--1--1----------------------|
A|--0~ --------------1--1--1--1--1--1--1--1----------------------|
D|--0~ --------------1--1--1--1--1--1--1--1----------------------|
			     PALM MUTE


Intro
E|-----------------------------------------^----^----^---------------|
B|------------------------------------7~ ----------------------------|
G|-------------------------------7----7~ ----------------------------|
D|--------------------7----8----------7~ ----------------------------|
A|--5-----7-----8---------------------5~-----------------------------|
D|----5-5---5-5---5-5---5-5---5----5---------------------------------|

E|--------------------------------------------------------------------|
B|-----------------------------------------------8--------------------|
G|---------------------------------------10----8---------5-5-5--------|
D|-------------------------10----12----------8---------5-5-5----------|
A|--8-----10-----12------------------------------------3-3-3----------|
D|----8-8----8-8----8-8---8-8---8-------------------------------------|

Final Chorus!
E|---------------------------------------------------------------|
B|---------------------------------------------------------------|
G|-----------------------------------------3---------------------|
D|--5-5-5-5----------------------------3-------------------------|
A|--5-5-5-5-------^----------------------------------------------|
D|--5-5-5-5-------7---------------5------------0-----------------|
   “Cover of Cowardice”        “Can’t You See Them!?!”


E|---------------------------------------------------------------|
B|---------------------------------------------------------------|
G|---------------------------------------------------------------|
D|--5-5-5-5---------------------0--------------------------------|
A|--5-5-5-5-----------^---------0--------------------------------|
D|--5-5-5-5-----------7---------0--------------------------------|
     “Covered in Cowardice”    “Can’t You Hear Them!?!”

E|---------------------3-3-3-3-3-3-3-3---------------------------|
B|-4-4-4-4-4-4-4-4-----4-4-4-4-4-4-4-4---------------------------|
G|-3-3-3-3-3-3-3-3-----5-5-5-5-5-5-5-5---------------------------|
D|-1-1-1-1-1-1-1-1-----5-5-5-5-5-5-5-5---------------------------|
A|-1-1-1-1-1-1-1-1-----3-3-3-3-3-3-3-3---------------------------|
D|-1-1-1-1-1-1-1-1-----------------------------------------------|
           “Beware The      Voice without a face...”

E|---------------------------------------------------------------|
B|---------------------------------------------------------------|
G|---------------------------------------------------------------|
D|---5-5-5-5----------3~ ----------------------------------------|
A|---5-5-5-5----^-----3~ ----------------------------------------|
D|---5-5-5-5----7-----3~ ----------------------------------------|

E|---------------------------------------------------------------|
B|---------------------------------------------------------------|
G|-----------------------------------------3---------------------|
D|--5-5-5-5----------------------------3-------------------------|
A|--5-5-5-5-------^----------------------------------------------|
D|--5-5-5-5-------7---------------5------------0-----------------|
   “Cover of Cowardice”        “Can’t You See Them!?!”
E|---------------------------------------------------------------|
B|---------------------------------------------------------------|
G|---------------------------------------------------------------|
D|--5-5-5-5-----------------------0------------------------------|
A|--5-5-5-5---------^-------------0------------------------------|
D|--5-5-5-5---------7-------------0------------------------------|
   “Covered in Cowardice”    “Can’t You Hear Them!?!”

E|---------------------3-3-3-3-3-3-3-3---------------------------|
B|-4-4-4-4-4-4-4-4-----4-4-4-4-4-4-4-4---------------------------|
G|-3-3-3-3-3-3-3-3-----5-5-5-5-5-5-5-5---------------------------|
D|-1-1-1-1-1-1-1-1-----5-5-5-5-5-5-5-5---------------------------|
A|-1-1-1-1-1-1-1-1-----3-3-3-3-3-3-3-3---------------------------|
D|-1-1-1-1-1-1-1-1-----------------------------------------------|
      “Cowards Who hide behind their words...”

E|--------------------8--8--8--8--8--8--8--8---------------------|
B|-8-8-8-8-8-8-8-8---10-10-10-10-10-10-10-10---------------------|
G|-7-7-7-7-7-7-7-7---10-10-10-10-10-10-10-10---------------------|
D|-5-5-5-5-5-5-5-5---10-10-10-10-10-10-10-10---------------------|
A|-5-5-5-5-5-5-5-5----8--8--8--8--8--8--8--8---------------------|
D|-5-5-5-5-5-5-5-5-----------------------------------------------|
    “Don’t Care who’s feelings will get hurt”

E|---------------------3-3-3-3-3-3-3-3---------------------------|
B|-4-4-4-4-4-4-4-4-----4-4-4-4-4-4-4-4---------------------------|
G|-3-3-3-3-3-3-3-3-----5-5-5-5-5-5-5-5---------------------------|
D|-1-1-1-1-1-1-1-1-----5-5-5-5-5-5-5-5---------------------------|
A|-1-1-1-1-1-1-1-1-----3-3-3-3-3-3-3-3---------------------------|
D|-1-1-1-1-1-1-1-1-----------------------------------------------|
       “Their eyes are Blinded by their Rage...”

E|----------------------------------------------------------------|
B|-8-8-8-8-8-8-8-8----6-6-6-6-6-6-6-------------------------------|
G|-7-7-7-7-7-7-7-7----5-5-5-5-5-5-5-------------------------------|
D|-5-5-5-5-5-5-5-5----3-3-3-3-3-3-3-------------------------------|
A|-5-5-5-5-5-5-5-5----3-3-3-3-3-3-3-------------------------------|
D|-5-5-5-5-5-5-5-5----3-3-3-3-3-3-3-------------------------------|
     “Beware the      Voice without a Face...”

E|---------------------3-3-3-3-3-3-3-3---------------------------|
B|-4-4-4-4-4-4-4-4-----4-4-4-4-4-4-4-4---------------------------|
G|-3-3-3-3-3-3-3-3-----5-5-5-5-5-5-5-5---------------------------|
D|-1-1-1-1-1-1-1-1-----5-5-5-5-5-5-5-5---------------------------|
A|-1-1-1-1-1-1-1-1-----3-3-3-3-3-3-3-3---------------------------|
D|-1-1-1-1-1-1-1-1-----------------------------------------------|
                      “Voice Without a Face...“

E|---------------------------------------------------------------|
B|-8-8-8-8-8-8-8-8----6-6-6-6-6-6-6------------------------------|
G|-7-7-7-7-7-7-7-7----5-5-5-5-5-5-5------------------------------|
D|-5-5-5-5-5-5-5-5----3-3-3-3-3-3-3------------------------------|
A|-5-5-5-5-5-5-5-5----3-3-3-3-3-3-3------------------------------|
D|-5-5-5-5-5-5-5-5----3-3-3-3-3-3-3------------------------------|
                     “Voice Without a Face...“

E|---------------------3-3-3-3-3-3-3-3---------------------------|
B|-4-4-4-4-4-4-4-4-----4-4-4-4-4-4-4-4---------------------------|
G|-3-3-3-3-3-3-3-3-----5-5-5-5-5-5-5-5---------------------------|
D|-1-1-1-1-1-1-1-1-----5-5-5-5-5-5-5-5---------------------------|
A|-1-1-1-1-1-1-1-1-----3-3-3-3-3-3-3-3---------------------------|
D|-1-1-1-1-1-1-1-1-----------------------------------------------|
                      “VOICE WITHOUT A!!!”

E|---------------------------------------------------------------------|
B|---------------------------------------------------------------------|
G|-------------------------3-------------------------------------------|
D|--5-5-5-5--------------3------------5-5-5-5----------5~- ------------|
A|--5-5-5-5----^----------------------5-5-5-5----^-----5~ -------------|
D|--5-5-5-5----7-----5--------0-------5-5-5-5----7-----5~ -------------|

-----------------------------------------------------------------------
		          SURRENDER - Billy Talent
-----------------------------------------------------------------------

Tabbed by: devintaylor
Email: devin.taylor@hotmail.com

Thanks to my friend Brahm for checking over the tab for correctness and whatnot.

Tuning: Drop D (DADGBe)

Intro

e--------7--------7-------------8-------8------------|
B--------0--------0-------------0-------0------------|
G-----5--------5-----5--------0-------0-------0------|
D--7--------7-----------7--5-------5-------5---------|
A----------------------------------------------------|
D----------------------------------------------------|

e--------12-------12--------------10-----------------|
B----------------------------------------------9-----|
G-----10-------10----10---------9-----------7--------|
D--12-------12----------12--10-------10--9--------9--|
A----------------------------------------------------|
D----------------------------------------------------|

e--------7--------7-------------8-------8------------|
B----------------------------------------------------|
G-----5--------5-----5--------0-------0-------0------|
D--7--------7-----------7--5-------5-------5---------|
A----------------------------------------------------|
D----------------------------------------------------|

e--------12-------12--------------10-----------------|
B----------------------------------------------9-----|
G-----10-------10----10---------9-----------7--------|
D--12-------12----------12--10-------10--9--------9--|
A----------------------------------------------------|
D----------------------------------------------------|


Verse I

e------------------------------------|
B------------------------------------|
G--5--7--10---9--9--5--7--10---9--9--|
D--7--5--12--10--9--7--5--12--10--9--|
A------------------------------------|
D------------------------------------|

e------------------------------------|
B------------------------------------|
G--5--7--10---9--9--5--7--10---9--9--|
D--7--5--12--10--9--7--5--12--10--9--|
A------------------------------------|
D------------------------------------|


Chorus

e----------------------------------------------------|
B----------------------------------------------------|
G--------------0-----------------------0-------------|
D--------7--------7--------------9--------9----------|
A-----3-----3--------3--------5-----5--------5-------|
D--3--------------------3--5--------------------5----|

e-------------------------------------------0-----0--|
B---------------0------------------------5-----------|
G------------------0---------------2-----------2-----|
D--------10-----------10--------------4--------------|
A-----7------7------------0-----0--------------------|
D--7-------------------------0-----------------------|

e----------------------------------------------------|
B----------------------------------------------------|
G--------------0-----------------------0-------------|
D--------7--------7--------------9--------9----------|
A-----3-----3--------3--------5-----5--------5-------|
D--3--------------------3--5--------------------5----|

e-------------------------------------------0-----0--|
B---------------0------------------------5-----------|
G------------------0---------------2-----------2-----|
D--------10-----------10--------------4--------------|
A-----7------7------------0-----0--------------------|
D--7-------------------------0-----------------------|

e--------------------------------------------------0--~~
B--------------------------------------------------5--~~
G--------------0-----------------------0-----------5--~~
D--------7--------7--------------9--------9--------0--~~
A-----3-----3--------3--------5-----5--------5-----5--~~
D--3--------------------3--5--------------------5-----~~


Post-Chorus

e--------7--------7-------------8-------8------------|
B--------0--------0-------------0-------0------------|
G-----5--------5-----5--------0-------0-------0------|
D--7--------7-----------7--5-------5-------5---------|
A----------------------------------------------------|
D----------------------------------------------------|

e--------12-------12--------------10-----------------|
B----------------------------------------------9-----|
G-----10-------10----10---------9-----------7--------|
D--12-------12----------12--10-------10--9--------9--|
A----------------------------------------------------|
D----------------------------------------------------|


Verse II

e------------------------------------|
B------------------------------------|
G--5--7--10---9--9--5--7--10---9--9--|
D--7--5--12--10--9--7--5--12--10--9--|
A------------------------------------|
D------------------------------------|


Chorus

e----------------------------------------------------|
B----------------------------------------------------|
G--------------0-----------------------0-------------|
D--------7--------7--------------9--------9----------|
A-----3-----3--------3--------5-----5--------5-------|
D--3--------------------3--5--------------------5----|

e-------------------------------------------0-----0--|
B---------------0------------------------5-----------|
G------------------0---------------2-----------2-----|
D--------10-----------10--------------4--------------|
A-----7------7------------0-----0--------------------|
D--7-------------------------0-----------------------|

e----------------------------------------------------|
B----------------------------------------------------|
G--------------0-----------------------0-------------|
D--------7--------7--------------9--------9----------|
A-----3-----3--------3--------5-----5--------5-------|
D--3--------------------3--5--------------------5----|

e-------------------------------------------0-----0--|
B---------------0------------------------5-----------|
G------------------0---------------2-----------2-----|
D--------10-----------10--------------4--------------|
A-----7------7------------0-----0--------------------|
D--7-------------------------0-----------------------|

e--------------------------------------------------0--~~
B--------------------------------------------------5--~~
G--------------0-----------------------0-----------5--~~
D--------7--------7--------------9--------9--------0--~~
A-----3-----3--------3--------5-----5--------5-----5--~~
D--3--------------------3--5--------------------5-----~~


Bridge

e-----------------------------------------------------------------|
B-----------------------------------------------------------------|
G-----------------------------------------------------------------|
D--7-7-7-7-7-7-7-7-8-8-8-8-8-8-8-8-3-3-3-3-3-3-3-3-5-5-5-5-5-5-5-5|
A--7-7-7-7-7-7-7-7-8-8-8-8-8-8-8-8-3-3-3-3-3-3-3-3-5-5-5-5-5-5-5-5|
D--7-7-7-7-7-7-7-7-8-8-8-8-8-8-8-8-3-3-3-3-3-3-3-3-5-5-5-5-5-5-5-5|


e----------------------------------0---00--00-0-00----------------|
B----------------------------------6---66--66-6-55----------------|
G----------------------------------0---00--00-0-00----------------|
D--7-7-7-7-7-7-7-7-8-8-8-8-8-8-8-8-7---77--77-7-55-0-2---222------|
A--7-7-7-7-7-7-7-7-8-8-8-8-8-8-8-8-5---55--55-5-33-0-2---222------|
D--7-7-7-7-7-7-7-7-8-8-8-8-8-8-8-8-----------------0-2---222------|

e-----------------------------------------------------------------|
B-----------------------------------------------------------------|
G-----------------------------------------------------------------|
D--7-7-7-7-7-7-7-7-8-8-8-8-8-8-8-8-3-3-3-3-3-3-3-3-5-5-5-5-5-5-5-5|
A--7-7-7-7-7-7-7-7-8-8-8-8-8-8-8-8-3-3-3-3-3-3-3-3-5-5-5-5-5-5-5-5|
D--7-7-7-7-7-7-7-7-8-8-8-8-8-8-8-8-3-3-3-3-3-3-3-3-5-5-5-5-5-5-5-5|

e----------------------------------0---00--00-0-00----------------|
B----------------------------------6---66--66-6-55----------------|
G----------------------------------0---00--00-0-00----------------|
D--7-7-7-7-7-7-7-7-8-8-8-8-8-8-8-8-7---77--77-7-55-0-2---222------|
A--7-7-7-7-7-7-7-7-8-8-8-8-8-8-8-8-5---55--55-5-33-0-2---222------|
D--7-7-7-7-7-7-7-7-8-8-8-8-8-8-8-8-----------------0-2---222------|

e---0---00--00-0-00----------------|
B---6---66--66-6-55----------------|
G---0---00--00-0-00----------------|
D---7---77--77-7-55-0-2---222------| x3
A---5---55--55-5-33-0-2---222------|
D-------------------0-2---222------|

Outro

e----------------------------------------------------|
B----------------------------------------------------|
G--------------0-----------------------0-------------|
D--------7--------7--------------9--------9----------|
A-----3-----3--------3--------5-----5--------5-------|
D--3--------------------3--5--------------------5----|

e-------------------------------------------0-----0--|
B---------------0------------------------5-----------|
G------------------0---------------2-----------2-----|
D--------10-----------10--------------4--------------|
A-----7------7------------0-----0--------------------|
D--7-------------------------0-----------------------|

(x8)


Then:

e----------------------------------------------------|
B----------------------------------------------------|
G--------------0-----------------------0-------------|
D--------7--------7--------------9--------9----------|
A-----3-----3--------3--------5-----5--------5-------|
D--3--------------------3--5--------------------5----|

e--------7--------7-------------8-------8------------|
B--------0--------0-------------0-------0------------|
G-----5--------5-----5--------0-------0-------0------|
D--7--------7-----------7--5-------5-------5---------|
A----------------------------------------------------|
D----------------------------------------------------|

e--------12-------12--------------10-----------------7--~~----------------------|
B----------------------------------------------9-----0--~~----------------------|
G-----10-------10----10---------9-----------7--------5--~~----------------------|
D--12-------12----------12--10-------10--9--------9--7--~~----------------------|
A-------------------------------------------------------~~----------------------|
D-------------------------------------------------------~~----------------------|

-------------------------------------------------------------------------------
			 THE NAVY SONG - Billy Talent
-------------------------------------------------------------------------------
Tabbed by: Barry Miles
Email: shoebox_of_lies@hotmail.com

Tuning: Drop D (DADGBe)

Intro:
e|-----------------------12p0----10p0---------------------------|
B|-------10p0----12p0--------------------12p0----10p0----12-----|
G|-----9--------------------------------------------------------|
D|-10---------10------10------10------10------10------10--------|
A|--------------------------------------------------------------|
D|--------------------------------------------------------------|

e|------------------8p0---7p0---------------------|
B|------7p0---8p0---------------8p0---7p0---5p0---|
G|----5-------------------------------------------|
D|-7--------7-----7-----7-----7-----7-----7-----7-|
A|------------------------------------------------|
D|------------------------------------------------|

e|-----------------------12p0----10p0---------------------------|
B|-------10p0----12p0--------------------12p0----10p0----12-----|
G|-----9--------------------------------------------------------|
D|-10---------10------10------10------10------10------10--------|
A|--------------------------------------------------------------|
D|--------------------------------------------------------------|

e|------------------8p0---7p0---------------------|
B|------7p0---8p0---------------8p0---7-7-7-7-7-7-|
G|----5-------------------------------5-5-5-5-5-5-|
D|-7--------7-----7-----7-----7-----7-7-7-7-7-7-7-|
A|------------------------------------------------|
D|------------------------------------------------|

Verse:
e|------------------------------------------------------------------|
B|-----0-----------------------------3------------------------------|
G|-----4-----------------------------0------------------------------|
D|-----5-----------------------------2------------------------------|
A|------------------------------------------------------------------|
D|------------------------------------------------------------------|
  Time, rolling along with the waves   A thousand miles away

e|---(0)----------------------------(2)-----------------------------|
B|----0------------------------------3------------------------------|
G|----4------------------------------0------------------------------|
D|----5------------------------------2------------------------------|
A|------------------------------------------------------------------|
D|------------------------------------------------------------------|
       Holding you close in the rain   Seems just like yesterday

e|-------------------------------------------------------------------------|
B|-------------------0--0--0--0--0--0--7--7--7--7--7--7--8--8--8--8--8--8--|
G|-9--9--9--9--9--9--9--9--9--9--9--9--9--9--9--9--9--9--9--9--9--9--9--9--|
D|-10-10-10-10-10-10-10-10-10-10-10-10-10-10-10-10-10-10-10-10-10-10-10-10-|
A|-------------------------------------------------------------------------|
D|-------------------------------------------------------------------------|

e|-7-7-7-7-7-7-5-5-5-5-5-5-------------------------|
B|-x-x-x-x-x-x-x-x-x-x-x-x-8-8-8-8-8-8-7-7-7-7-7-7-|
G|-5-5-5-5-5-5-5-5-5-5-5-5-5-5-5-5-5-5-5-5-5-5-5-5-|
D|-7-7-7-7-7-7-7-7-7-7-7-7-7-7-7-7-7-7-7-7-7-7-7-7-|
A|-------------------------------------------------|
D|-------------------------------------------------|

e|--------------------------------------------------------|
B|----0-------------------------3-------------------------|
G|----4-------------------------0-------------------------|
D|----5-------------------------2-------------------------|
A|--------------------------------------------------------|
D|--------------------------------------------------------|
  Lost, hope in a faraway place    And in my hand remains

e|--(0)--------------------------------(0)---------------------|
B|---0----------------------------------3----------------------|
G|---4----------------------------------0----------------------|
D|---5----------------------------------2----------------------|
A|-------------------------------------------------------------|
D|-------------------------------------------------------------|
      A black and white print of a face   I'll never see again

Prechorus:
e|-----------------------12p0----10p0--------------------------|
B|-------10p0----12p0--------------------12p0----10p0----12----|
G|-----9-------------------------------------------------------|
D|-10---------10------10------10------10------10------10-------|
A|-------------------------------------------------------------|
D|-------------------------------------------------------------|

e|------------------8p0---7p0---------------------|
B|------7p0---8p0---------------8p0---7p0---5p0---|
G|----5-------------------------------------------|
D|-7--------7-----7-----7-----7-----7-----7-----7-|
A|------------------------------------------------|
D|------------------------------------------------|

e|------------------7p0---5p0---------------------|
B|------5p0---7p0---------------7p0---5p0---7-----|
G|----0-------------------------------------------|
D|-5--------5-----5-----5-----5-----5-----5-------|
A|------------------------------------------------|
D|------------------------------------------------|

e|-------------------------------------------|
B|-------------------------------------------|
G|-6--6---6-6-6--6---6-6-7--7---7-7-6--6--6--|
D|-4--4---4-4-4--4---4-4-4--4---4-4-4--4--4--|
A|-4--4---4-4-4--4---4-4-4--4---4-4-4--4--4--|
D|-4--4---4-4-4--4---4-4-4--4---4-4-4--4--4--|

Chorus:
e|-------------------------------------------------|
B|-3-3-3-3-3-3-3-3-3-3-3-3-5-5-5-5-5-5-7-7-7-7-7-7-|
G|-x-x-x-x-x-x-x-x-x-x-x-x-x-x-x-x-x-x-x-x-x-x-x-x-|
D|-4-4-4-4-4-4-4-4-4-4-4-4-6-6-6-6-6-6-7-7-7-7-7-7-|
A|-2-2-2-2-2-2-2-2-2-2-2-2-4-4-4-4-4-4-5-5-5-5-5-5-|
D|-------------------------------------------------|
   I gave my life to save her

e|-------------------------------------------------|
B|-------------------------------------------------|
G|-------------------------------------------------|
D|-5---5-9-7-5-5---5-9-7-5-5---5-9-7-5-5---5-9-7-5-|
A|-5---5-------5---5-------5---5-------5---5-------|
D|-5---5-------5---5-------5---5-------5---5-------|
  The ocean turned to red

e|-------------------------------------------------------|
B|-------------------------------------------------------|
G|-7-7-7-7-7-7-7-7-7-7-7-7-9-9-9-9-9-9-11-11-11-11-11-11-|
D|-0-0-0-0-0-0-0-0-0-0-0-0-0-0-0-0-0-0-0--0--0--0--0--0--|
A|-5-5-5-5-5-5-5-5-5-5-5-5-7-7-7-7-7-7-9--9--9--9--9--9--|
D|-0-0-0-0-0-0-0-0-0-0-0-0-0-0-0-0-0-0-0--0--0--0--0--0--|
  In the fall, in the fall, when the tide took them all
 
e|-------------------------------------------|
B|-------------------------------------------|
G|-6--6---6-6-6--6---6-6-7--7---7-7-6--6--6--|
D|-4--4---4-4-4--4---4-4-4--4---4-4-4--4--4--|
A|-4--4---4-4-4--4---4-4-4--4---4-4-4--4--4--|
D|-4--4---4-4-4--4---4-4-4--4---4-4-4--4--4--|
  In the fall, in the fall, when the tide took them all

e|-------------------------------------------------|
B|-3-3-3-3-3-3-3-3-3-3-3-3-5-5-5-5-5-5-7-7-7-7-7-7-|
G|-x-x-x-x-x-x-x-x-x-x-x-x-x-x-x-x-x-x-x-x-x-x-x-x-|
D|-4-4-4-4-4-4-4-4-4-4-4-4-6-6-6-6-6-6-7-7-7-7-7-7-|
A|-2-2-2-2-2-2-2-2-2-2-2-2-4-4-4-4-4-4-5-5-5-5-5-5-|
D|-------------------------------------------------|
  Cut down like lambs at slaughter

e|-------------------------------------------------|
B|-------------------------------------------------|
G|-------------------------------------------------|
D|-5---5-9-7-5-5---5-9-7-5-5---5-9-7-5-5---5-9-7-5-|
A|-5---5-------5---5-------5---5-------5---5-------|
D|-5---5-------5---5-------5---5-------5---5-------|
  Good men were left for dead

e|-------------------------------------------------------|
B|-------------------------------------------------------|
G|-7-7-7-7-7-7-7-7-7-7-7-7-9-9-9-9-9-9-11-11-11-11-11-11-|
D|-0-0-0-0-0-0-0-0-0-0-0-0-0-0-0-0-0-0-0--0--0--0--0--0--|
A|-5-5-5-5-5-5-5-5-5-5-5-5-7-7-7-7-7-7-9--9--9--9--9--9--|
D|-0-0-0-0-0-0-0-0-0-0-0-0-0-0-0-0-0-0-0--0--0--0--0--0--|
  In the fall, in the fall, when the tide took them all

e|-------------------------------------------|
B|-------------------------------------------|
G|-6--6---6-6-6--6---6-6-7--7---7-7-6--6--6--|
D|-4--4---4-4-4--4---4-4-4--4---4-4-4--4--4--|
A|-4--4---4-4-4--4---4-4-4--4---4-4-4--4--4--|
D|-4--4---4-4-4--4---4-4-4--4---4-4-4--4--4--|
  In the fall, in the fall, when the tide took them all

Interlude:
e|---------0-------2-------3-------|
B|-0-------0-------0-------0-------|
G|-5-------5-------5-------5-------|
D|-5-------------------------------|
A|-3-------------------------------|
D|---------------------------------|

e|-7-7-7-7-7-7-5-5-5-5-5-5-------------------------|
B|-x-x-x-x-x-x-x-x-x-x-x-x-8-8-8-8-8-8-7-7-7-7-7-7-|
G|-5-5-5-5-5-5-5-5-5-5-5-5-5-5-5-5-5-5-5-5-5-5-5-5-|
D|-7-7-7-7-7-7-7-7-7-7-7-7-7-7-7-7-7-7-7-7-7-7-7-7-|
A|-------------------------------------------------|
D|-------------------------------------------------|

Verse 2:
e|--(0)--------------------------------(0)---------------------|
B|---0----------------------------------3----------------------|
G|---4----------------------------------0----------------------|
D|---5----------------------------------2----------------------|
A|-------------------------------------------------------------|
D|-------------------------------------------------------------|
 Love, served until death do us part,    I'm drifting in the dark

e|--(0)--------------------------------(0)---------------------|
B|---0----------------------------------3----------------------|
G|---4----------------------------------0----------------------|
D|---5----------------------------------2----------------------|
A|-------------------------------------------------------------|
D|-------------------------------------------------------------|
     Wounded and wishing to fall,  Into your faithful arms

Prechorus (same as previous)
Chorus (same as previous)

Bridge:
e|-----------0---------2---------3---------|
B|-0---0-0-0-0---0-0-0-0---0-0-0-0---0-0-0-|
G|-5---5-5-5-5---5-5-5-5---5-5-5-5---5-5-5-|
D|-5---------2---------4---------5---------|
A|-3---------------------------------------|
D|-----------------------------------------|

e|-7-7-7-7-7-7-5-5-5-5-5-5-------------------------|
B|-x-x-x-x-x-x-x-x-x-x-x-x-8-8-8-8-8-8-7-7-7-7-7-7-|
G|-5-5-5-5-5-5-5-5-5-5-5-5-5-5-5-5-5-5-5-5-5-5-5-5-|
D|-7-7-7-7-7-7-7-7-7-7-7-7-7-7-7-7-7-7-7-7-7-7-7-7-|
A|-------------------------------------------------|
D|-------------------------------------------------|
                Beneath the sky of hate

e|-----------0---------2---------3---------|
B|-0---0-0-0-0---0-0-0-0---0-0-0-0---0-0-0-|
G|-5---5-5-5-5---5-5-5-5---5-5-5-5---5-5-5-|
D|-5---------2---------4---------5---------|
A|-3---------------------------------------|
D|-----------------------------------------|

e|-7-7-7-7-7-7-5-5-5-5-5-5-------------------------|
B|-x-x-x-x-x-x-x-x-x-x-x-x-8-8-8-8-8-8-7-7-7-7-7-7-|
G|-5-5-5-5-5-5-5-5-5-5-5-5-5-5-5-5-5-5-5-5-5-5-5-5-|
D|-7-7-7-7-7-7-7-7-7-7-7-7-7-7-7-7-7-7-7-7-7-7-7-7-|
A|-------------------------------------------------|
D|-------------------------------------------------|
                Beyond the sea of pain

e|---------------------------------------------------------------------------|
B|-10---10-10-10-------------------------------------------------------------|
G|-x----x--x--x--10-10-10-10-10-10-9--9--9--9--9--9--7--7--7--7--7--7--------|
D|-10---10-10-10-10-10-10-10-10-10-10-10-10-10-10-10-10-10-10-10-10-10-------|
A|-8----8--8--8--8--8--8--8--8--8--8--8--8--8--8--8--8--8--8--8--8--8--------|
D|---------------------------------------------------------------------------|

e|-12---12-12-12-10-10-10-10-10-10-12-12-12-12-12-12-10-10-10-10-10-10-------|
B|-x----x--x--x--x--x--x--x--x--x--x--x--x--x--x--x--x--x--x--x--x--x--------|
G|-10---10-10-10-10-10-10-10-10-10-10-10-10-10-10-10-10-10-10-10-10-10-------|
D|-10---10-10-10-10-10-10-10-10-10-10-10-10-10-10-10-10-10-10-10-10-10-------|
A|---------------------------------------------------------------------------|
D|---------------------------------------------------------------------------|
                            In heaven I will wait

e|---------------------------------------------------------------------------|
B|-10---10-10-10-------------------------------------------------------------|
G|-x----x--x--x--10-10-10-10-10-10-9--9--9--9--9--9--7--7--7--7--7--7--------|
D|-10---10-10-10-10-10-10-10-10-10-10-10-10-10-10-10-10-10-10-10-10-10-------|
A|-8----8--8--8--8--8--8--8--8--8--8--8--8--8--8--8--8--8--8--8--8--8--------|
D|---------------------------------------------------------------------------|

e|-12---12-12-12-10-10-10-10-10-10-12-12-12-12-12-12-10-10-10-10-10-10-------|
B|-x----x--x--x--x--x--x--x--x--x--x--x--x--x--x--x--x--x--x--x--x--x--------|
G|-10---10-10-10-10-10-10-10-10-10-10-10-10-10-10-10-10-10-10-10-10-10-------|
D|-10---10-10-10-10-10-10-10-10-10-10-10-10-10-10-10-10-10-10-10-10-10-------|
A|---------------------------------------------------------------------------|
D|---------------------------------------------------------------------------|
                           Until we meet again

Prechorus
Chorus x2

Outro:
e|------0----2----3----7----5---------5-5-5-5-5-5-------0--------------------|
B|-0----0----0----0----x----x----8----x-x-x-x-x-x-------0--------------------|
G|-5----5----5----5----5----5----5----5-5-5-5-5-5-------4--------------------|
D|-x----2----4----3----7----7----7----7-7-7-7-7-7-------5--------------------|
A|-3-------------------------------------------------------------------------|
D|---------------------------------------------------------------------------|

| /  slide up
| \  slide down
| h  hammer-on
| p  pull-off
| ~  vibrato
| +  harmonic
| x  Mute note

------------------------------------------------------------------------------
                   BILLY TALENT - PERFECT WORLD
------------------------------------------------------------------------------
Tabbed by: Zuka (zuka4077@hotmail.com)

Very good song. Has the classic BT arpeggios. Drop D tuning. Note that on the
verse you'll want to let almost every note ring.
**Edited July 9***-> Thanks to the_bear_shark for the tweak on the chorus.
                     I also fixed the verse and interlude.
Intro:

e|-0-0-0-0-0-0-0-0-|
B|-----------------|
G|-----------------|  X4
D|-----------------|
A|-----------------|
D|-----------------|

e|-----0-0-0-0-0-0---0-0-0-0-0-0-------0-0-0-0-0-0---0-0-0-0-0-0--|
B|----------------------------------------------------------------|
G|----------------------------------------------------------------|  X1
D|-2-2-------------5-------------10-10-------------7--------------|
A|-2-2-------------5-------------10-10-------------7--------------|
D|-2-2-------------5-------------10-10-------------7--------------|

e|-----0-0-0-0-0-0---0-0-0-0-0-0-------0-0-0-0-0-0--5--|
B|--------------------------------------------------7--|
G|--------------------------------------------------7--|
D|-2-2-------------5-------------10-10--------------5--|
A|-2-2-------------5-------------10-10--------------5--|
D|-2-2-------------5-------------10-10--------------5--|

Verse:

e|----------------------------------|
B|-----0-----------0-----2-----3----|
G|-4-----2---0---2---4-4---4-4---0--| X2
D|---5-----5---5--------------------|
A|----------------------------------|
D|----------------------------------|

e|-----0---0------------------------|
B|-5-5---7---7-5-0--1-----3---3-1-0-|
G|--------------------5-5---5-------| X1
D|----------------------------------|
A|----------------------------------|
D|----------------------------------|

e|--7----7----|
B|--8----7----| X2
G|--7----7----|
D|--x----4----|
A|--10--------|
D|------------|

e|-----0---0------------------------|
B|-5-5---7---7-5-0--1-----3---3-1-0-|
G|--------------------5-5---5-------| X2
D|----------------------------------|
A|----------------------------------|
D|----------------------------------|

Chorus: X2
e|-------------------------------------------------------------------------|
B|-------------------------------------------------------------------------|
G|---------------------------------------------------------7-7-7-7-7-7-7-7-|
D|-2-2-2-2-2-2-2-2-5-5-5-5-5-5-5-5-10-10-10-10-10-10-10-10-7-7-7-7-7-7-7-7-|
A|-2-2-2-2-2-2-2-2-5-5-5-5-5-5-5-5-10-10-10-10-10-10-10-10-5-5-5-5-5-5-5-5-|
D|-2-2-2-2-2-2-2-2-5-5-5-5-5-5-5-5-10-10-10-10-10-10-10-10-----------------|


(Repeat Verse, then Chorus 4 times)

Interlude:

e|-------------------33-3333-----------------------------------------------|
B|-88-8888--33-33-3--55-5555-----------33-3333-----------77-7777--66-------|
G|-99-9999--44-44-4--55-5555-----------44-4444-----------77-7777--77-------|
D|-99-9999--44-44-4--55-5555--55-55-5--44-4444--22-22-2--77-7777--77x05750-|
A|-77-7777--22-22-2--33-3333--55-55-5--22-2222--22-22-2--55-5555--55x05750-|
D|----------------------------55-55-5-----------22-22-2-------------x05750-|
 (Interlude is played 3 times)

Then...

e|-----0-0-0-0-0-0---0-0-0-0-0-0-------0-0-0-0-0-0---0-0-0-0-0-0--|
B|----------------------------------------------------------------|
G|----------------------------------------------------------------|  X2
D|-2-2-------------5-------------10-10-------------7--------------|
A|-2-2-------------5-------------10-10-------------7--------------|
D|-2-2-------------5-------------10-10-------------7--------------|

e|-----0-0-0-0-0-0---0-0-0-0-0-0-------0-0-0-0-0-0--5--|
B|--------------------------------------------------7--|
G|--------------------------------------------------7--|
D|-2-2-------------5-------------10-10--------------5--|
A|-2-2-------------5-------------10-10--------------5--|
D|-2-2-------------5-------------10-10--------------5--|

(The chorus is then played 4 times)

Chorus (4th time)
e|-----------------------------------------------------------------------------------|
B|-----------------------------------------------------------------------------------|
G|-----------------------------------------------------------------------------------|
D|-2-2-2-2-2-2-2-2-5-5-5-5-5-5-5-5-10-10-10-10-10-10-10-10-0--0--0--0----------------|
A|-2-2-2-2-2-2-2-2-5-5-5-5-5-5-5-5-10-10-10-10-10-10-10-10-0--0--0--0----------------|
D|-2-2-2-2-2-2-2-2-5-5-5-5-5-5-5-5-10-10-10-10-10-10-10-10-0--0--0--0----------------|
-------------------------------------------------------------------------------------|
			       SYMPATHY - Billy Talent
------------------------------------------------------------------------------------
Tabbed by: Mark Monachino
Email: billytalentpunk0@hotmail.com

Tuning: Drop D Tuning (DADGBe)

From Billy Talent II, another cool song....
I don't think it'll make single, but you gotta love that solo!

Update - Thanks to bakuryu399 for noticing a mistake in the solo!


INTRO:

e|-------------------------------------6-6-6-6-------------------------6--6\------|
B|-----------8-8-8-8----10-10-10-10----8-8-8-8----8-8-8----10-10-10----8--8\------|
G|-----------8-8-8-8----12-12-12-12----7-7-7-7----8-8-8----12-12-12----7--7\------|
D|--10\------8-8-8-8----13-13-13-13----5-5-5-5----8-8-8----13-13-13----5--5\------|
A|--10\------6-6-6-6----10-10-10-10----5-5-5-5----6-6-6----10-10-10----5--5\------|
D|--10\-----------------10-10-10-10----5-5-5-5-------------10-10-10----5--5\------|

                            H
e|--5----------------1------3-----------------------------------------------------|
B|--6------3--3------3------4-----------------------------------------------------|
G|--5------3--3------2------3-----------------------------------------------------|
D|--3------3--3------0------1-----------------------------------------------------|
A|--3------1--1------0------1-----------------------------------------------------|
D|--3----------------0------1-----------------------------------------------------|


VERSE:
                                                                                              x2
e|----------------------------------------------------------------------------------------|
B|----------------------------------------------------------------------------------------|
G|----------------------------------------------------------------------------------------|
D|----------------------------------------------------------------------1---------0-------|
A|-------------------1-1-1-1-1-1-----------------------3-3-3-3-3-3---------1--------0-----|
D|--5-5-5-5-5-5-----------------------3-3-3-3-3-3-----------------------------5--1----4--0|

Played on top of VERSE the second time:
e|----------------------------------------------------------------------|
B|-------------------3-3-3-3-3-3-----------------------4-4-4-4-4-4------|
G|--3-3-3-3-3-3------3-3-3-3-3-3-----------------------5-5-5-5-5-5------|
D|--5-5-5-5-5-5------3-3-3-3-3-3------7-7-7-7-7-7------5-5-5-5-5-5------|
A|--5-5-5-5-5-5------1-1-1-1-1-1------3-3-3-3-3-3------3-3-3-3-3-3------|
D|--5-5-5-5-5-5-----------------------3-3-3-3-3-3-----------------------|

PRE-CHORUS:

e|-----------------------------|--------------------------|--------------------------|
B|--3--3--3--3--3--3--3--3--3--|--6--6--6--6--6--6--6--6--|--3--3--3--3--3--3--3--3--|
G|--3--3--3--3--3--3--3--3--3--|--5--5--5--5--5--5--5--5--|--3--3--3--3--3--3--3--3--|
D|--5--5--5--5--5--5--5--5--5--|--7--7--7--7--7--7--7--7--|--3--3--3--3--3--3--3--3--|
A|--5--5--5--5--5--5--5--5--5--|--0--0--0--0--0--0--0--0--|--1--1--1--1--1--1--1--1--|
D|--5--5--5--5--5--5--5--5--5--|--------------------------|--------------------------|

e|--2--2--2--2--2--2-----------|
B|--1--1--1--1--1--1-----------|
G|--2--2--2--2--2--2-----------|
D|--0--0--0--0--0--0--10\------|
A|--0--0--0--0--0--0--10\------|
D|--0--0--0--0--0--0--10\------|


CHORUS:
                                                                       x3
e|----------------------------6-6-6-6-------------------------6--6-------|
B|--8-8-8-8----10-10-10-10----8-8-8-8----8-8-8----10-10-10----8--8-------|
G|--8-8-8-8----12-12-12-12----7-7-7-7----8-8-8----12-12-12----7--7-------|
D|--8-8-8-8----13-13-13-13----5-5-5-5----8-8-8----13-13-13----5--5-------|
A|--6-6-6-6----10-10-10-10----5-5-5-5----6-6-6----10-10-10----5--5-------|
D|-------------10-10-10-10----5-5-5-5-------------10-10-10----5--5-------|

e|--5----------------1------3----3----3--3--3--3-------------------------|
B|--6------3--3------3------4----4----4--4--4--4-------------------------|
G|--5------3--3------2------3----3----3--3--3--3-------------------------|
D|--3------3--3------0------1----1----1--1--1--1-------------------------|
A|--3------1--1------0------1----1----1--1--1--1-------------------------|
D|--3----------------0------1----1----1--1--1--1-------------------------|


VERSE:
                                                                                              x2
e|----------------------------------------------------------------------------------------|
B|----------------------------------------------------------------------------------------|
G|----------------------------------------------------------------------------------------|
D|----------------------------------------------------------------------1---------0-------|
A|-------------------1-1-1-1-1-1-----------------------3-3-3-3-3-3---------1--------0-----|
D|--5-5-5-5-5-5-----------------------3-3-3-3-3-3-----------------------------5--1----4--0|

Played on top of VERSE the second time:
e|----------------------------------------------------------------------|
B|-------------------3-3-3-3-3-3-----------------------4-4-4-4-4-4------|
G|--3-3-3-3-3-3------3-3-3-3-3-3-----------------------5-5-5-5-5-5------|
D|--5-5-5-5-5-5------3-3-3-3-3-3------7-7-7-7-7-7------5-5-5-5-5-5------|
A|--5-5-5-5-5-5------1-1-1-1-1-1------3-3-3-3-3-3------3-3-3-3-3-3------|
D|--5-5-5-5-5-5-----------------------3-3-3-3-3-3-----------------------|


PRE-CHORUS:

e|-----------------------------|--------------------------|--------------------------|
B|--3--3--3--3--3--3--3--3--3--|--6--6--6--6--6--6--6--6--|--3--3--3--3--3--3--3--3--|
G|--3--3--3--3--3--3--3--3--3--|--5--5--5--5--5--5--5--5--|--3--3--3--3--3--3--3--3--|
D|--5--5--5--5--5--5--5--5--5--|--7--7--7--7--7--7--7--7--|--3--3--3--3--3--3--3--3--|
A|--5--5--5--5--5--5--5--5--5--|--0--0--0--0--0--0--0--0--|--1--1--1--1--1--1--1--1--|
D|--5--5--5--5--5--5--5--5--5--|--------------------------|--------------------------|

e|--2--2--2--2--2--2-----------|
B|--1--1--1--1--1--1-----------|
G|--2--2--2--2--2--2-----------|
D|--0--0--0--0--0--0--10\------|
A|--0--0--0--0--0--0--10\------|
D|--0--0--0--0--0--0--10\------|


CHORUS:  (entire CHORUS x2)
                                                                       x3
e|----------------------------6-6-6-6-------------------------6--6-------|
B|--8-8-8-8----10-10-10-10----8-8-8-8----8-8-8----10-10-10----8--8-------|
G|--8-8-8-8----12-12-12-12----7-7-7-7----8-8-8----12-12-12----7--7-------|
D|--8-8-8-8----13-13-13-13----5-5-5-5----8-8-8----13-13-13----5--5-------|
A|--6-6-6-6----10-10-10-10----5-5-5-5----6-6-6----10-10-10----5--5-------|
D|-------------10-10-10-10----5-5-5-5-------------10-10-10----5--5-------|

e|--5----------------1------3----3----3--3--3--3-------------------------|
B|--6------3--3------3------4----4----4--4--4--4-------------------------|
G|--5------3--3------2------3----3----3--3--3--3-------------------------|
D|--3------3--3------0------1----1----1--1--1--1-------------------------|
A|--3------1--1------0------1----1----1--1--1--1-------------------------|
D|--3----------------0------1----1----1--1--1--1-------------------------|

Played one more time before SOLO:
e|--5----------------1------3----3----3--3--3--3-------------------------|
B|--6------3--3------3------4----4----4--4--4--4-------------------------|
G|--5------3--3------2------3----3----3--3--3--3-------------------------|
D|--3------3--3------0------1----1----1--1--1--1-------------------------|
A|--3------1--1------0------1----1----1--1--1--1-------------------------|
D|--3----------------0------1----1----1--1--1--1-------------------------|


SOLO:  (look at the spacing in between each note, and that will help tell
        you when and how long to pause in the solo)

e|-----------------------------------------------------------------------|
B|-----------------------------------------------------------------------|
G|-----------------------------------------------------------------------|
D|------5--------5--7--8--------8--7-5-7--------7--8--10-----------------|
A|--/5--------5--------5-----5---------3-----3-----5--6------------------|
D|-----------------------------------------------------------------------|

e|------------------------------------------------------------10---------|
B|-------8--------8--11--10-----7---8--10--11--------11--10-8-10---------|
G|---0---8-----8---------7------7---7--7---7------7-----------7----------|
D|--/10------------------------------------------------------------------|
A|-----------------------------------------------------------------------|
D|-----------------------------------------------------------------------|

e|-----------------------6-----------------------------------------------------------------|
B|------8-------------8-----6-------------6--8--10----------------10--11--13-----------13\-|
G|--/7------7------7------------7------7-------------10-------10---------------12-------12-|
D|-------------8-------------------8---------------------10------------------------13------|
A|-----------------------------------------------------------------------------------------|
D|-----------------------------------------------------------------------------------------|


e|-----------------------------------------------------------------------|
B|--8------8------8--11--10------10------8--10--11--11--11--11--11--11---|
G|--8---8------8---------7----7-------7--7--7---7---7---7---7---7---7----|
D|-----------------------------------------------------------------------|
A|-----------------------------------------------------------------------|
D|-----------------------------------------------------------------------|

e|--8--8--10--10--10--10--10--10-----------------------------------------|
B|--8--8--8---8---8---8---7---7------------------------------------------|
G|--7--7--7---7---7---7---7---7------------------------------------------|
D|--------------------------------10\------------------------------------|
A|--------------------------------10\------------------------------------|
D|--------------------------------10\------------------------------------|


CHORUS:  (entire CHORUS x2)
                                                                       x3
e|----------------------------6-6-6-6-------------------------6--6-------|
B|--8-8-8-8----10-10-10-10----8-8-8-8----8-8-8----10-10-10----8--8-------|
G|--8-8-8-8----12-12-12-12----7-7-7-7----8-8-8----12-12-12----7--7-------|
D|--8-8-8-8----13-13-13-13----5-5-5-5----8-8-8----13-13-13----5--5-------|
A|--6-6-6-6----10-10-10-10----5-5-5-5----6-6-6----10-10-10----5--5-------|
D|-------------10-10-10-10----5-5-5-5-------------10-10-10----5--5-------|

e|--5----------------1------3----3----3--3--3--3-------------------------|
B|--6------3--3------3------4----4----4--4--4--4-------------------------|
G|--5------3--3------2------3----3----3--3--3--3-------------------------|
D|--3------3--3------0------1----1----1--1--1--1-------------------------|
A|--3------1--1------0------1----1----1--1--1--1-------------------------|
D|--3----------------0------1----1----1--1--1--1-------------------------|

Played after CHORUS is played twice:
e|--5----------------1------3----3----3--3--3--3-------------------------|
B|--6------3--3------3------4----4----4--4--4--4-------------------------|
G|--5------3--3------2------3----3----3--3--3--3-------------------------|
D|--3------3--3------0------1----1----1--1--1--1-------------------------|
A|--3------1--1------0------1----1----1--1--1--1-------------------------|
D|--3----------------0------1----1----1--1--1--1-------------------------|

                            H
e|--5----------------1----------------------------------------------------------|
B|--6------3--3------3------4---------------------------------------------------|
G|--5------3--3------2------3---------------------------------------------------|
D|--3------3--3------0------1---------------------------------------------------|
A|--3------1--1------0------1---------------------------------------------------|
D|--3----------------0------1---------------------------------------------------|
--------------------------------------------------------------------------------|
			BURN THE EVIDENCE - Billy Talent
-------------------------------------------------------------------------------
Tabbed by: Mark Monachino
Email: billytalentpunk0@hotmail.com

Tuning: Drop D Tuning (DADGBe)

UPDATE - Thanks to george92 for correcting the PRE-CHOURUS and the CHORUS!

NOTE: This song begins with its verse.


VERSE:
               (use your pinky to slide up)                                x2
e|---------------|---------------------|------------------|------------------|
B|----------6----|--7/10--------10-----|-----------10-----|-----------10-----|
G|-------0-------|-----------0---------|--------0---------|--------0---------|
D|-----7---------|--------10-----------|-----10-----------|-----10-----------|
A|--5------------|---------------------|--8---------------|--0---------------|
D|---------------|---------------------|------------------|------------------|

                    L
e|-----------------------------------|---------------------------------------|
B|---------------10------------------|---------------10----------------------|
G|-----------0--------------0--------|-----------0--------------0------------|
D|---------8--------8-----0-------0--|---------8--------8-----0-------0------|
A|----10----------------8-----8------|--8-10----------------8-----8----------|
D|-----------------------------------|---------------------------------------|

e|-----------------------------------|---------------------------------------|
B|---------------10------------------|------------5---------------8----------|
G|-----------0--------------0--------|--------0------------------------------|
D|---------8--------8-----0-------0--|------5-----------------5--------------|
A|--8-10----------------8-----8------|--3-----------3-------5----------------|
D|-----------------------------------|------------------5--------------------|

e|-----------------------------------|---------------------------------------|
B|---------------10------------------|---------------10----------------------|
G|-----------0--------------0--------|-----------0--------------0------------|
D|---------8--------8-----0-------0--|---------8--------8-----0-------0------|
A|--7/10----------------8-----8------|--8-10----------------8-----8----------|
D|-----------------------------------|---------------------------------------|

                                        H
e|-----------------------------------|--0------------------------------------|
B|---------------10------------------|--5------------------------------------|
G|-----------0--------------0--------|--3------------------------------------|
D|---------8--------8-----0-------0--|--5------------------------------------|
A|--8-10----------------8-----8------|---------------------------------------|
D|-----------------------------------|---------------------------------------|



PRE-CHORUS #1:

e|---------------0---0-0-----------------------------------------------------|
B|--6---6-6------8---8-8------5-5-5-5-5-5-5-5------6---6-6-------------------|
G|--7---7-7------6---6-6------0-0-0-0-0-0-0-0------7---7-7-------------------|
D|--7---7-7------8---8-8------7-7-7-7-7-7-7-7------7---7-7-------------------|
A|--5---5-5------7---7-7------4-4-0-0-4-0-0-4------5---5-5-------------------|
D|---------------------------------------------------------------------------|

e|---------------0---0-0-----------------------------------------------------|
B|--6---6-6------8---8-8------5-5-5-5-5---5-5------6---6-6-------------------|
G|--7---7-7------6---6-6------0-0-0-0-0---0-0------7---7-7-------------------|
D|--7---7-7------8---8-8------7-7-7-7-7---7-7------7---7-7-------------------|
A|--5---5-5------7---7-7------4-4-0-0-4---0-4------5---5-5-------------------|
D|---------------------------------------------------------------------------|

                              H             H
e|---------------0---0-0-----------------------------------------------------|
B|--6---6-6------8---8-8------5-------------3--------------------------------|
G|--7---7-7------6---6-6------5-------------0--------------------------------|
D|--7---7-7------8---8-8------5-------------3--------------------------------|
A|--5---5-5------7---7-7------3-------------1--------------------------------|
D|---------------------------------------------------------------------------|


INTERLUDE:
                                                                           x2
e|---------------|--------------0------|-----------0------|-----------0------|
B|----------6----|--7/10--------10-----|-----------10-----|-----------10-----|
G|-------0-------|-----------0---------|--------0---------|--------0---------|
D|-----7------7--|--------10-------10--|-----10-------10--|-----10-------10--|
A|--5------------|---------------------|--8---------------|--0---------------|
D|---------------|---------------------|------------------|------------------|


VERSE: (Same As Above)


PRE-CHORUS #2:

e|---------------0---0-0-----------------------------------------------------|
B|--6---6-6------8---8-8------5-5-5-5-5-5-5-5------6---6-6-------------------|
G|--7---7-7------6---6-6------0-0-0-0-0-0-0-0------7---7-7-------------------|
D|--7---7-7------8---8-8------7-7-7-7-7-7-7-7------7---7-7-------------------|
A|--5---5-5------7---7-7------4-4-0-0-4-0-0-4------5---5-5-------------------|
D|---------------------------------------------------------------------------|

e|---------------0---0-0-----------------------------------------------------|
B|--6---6-6------8---8-8------5-5-5-5-5---5-5------6---6-6-------------------|
G|--7---7-7------6---6-6------0-0-0-0-0---0-0------7---7-7-------------------|
D|--7---7-7------8---8-8------7-7-7-7-7---7-7------7---7-7-------------------|
A|--5---5-5------7---7-7------4-4-0-0-4---0-4------5---5-5-------------------|
D|---------------------------------------------------------------------------|

e|---------------0---0-0-----------------------------------------------------|
B|--6---6-6------8---8-8------5-5-5-5-5---5-5------6---6-6-6-6-6-------------|
G|--7---7-7------6---6-6------0-0-0-0-0---0-0------7---7-7-7-7-7-------------|
D|--7---7-7------8---8-8------7-7-7-7-7---7-7------7---7-7-7-7-7-------------|
A|--5---5-5------7---7-7------4-4-0-0-4---0-4------5---5-5-5-5-5-------------|
D|---------------------------------------------------------------------------|


CHORUS: (x2)

e|-------------------------------|----------------------------0--------------|
B|-------------------------------|----------------------------8--------------|
G|-------------------------------|----------------------------6--------------|
D|--5---5-5-5-5-5-0---0---0---0--|--5---5-5-5-5-5-0---0---0---5--------------|
A|--5---5-5-5-5-5-0---0---0---0--|--5---5-5-5-5-5-0---0---0---7--------------|
D|--5---5-5-5-5-5-0---0---0---0--|--5---5-5-5-5-5-0---0---0------------------|

e|-------------------------------|-------------------------------------------|
B|-------------------------------|--5---5---5---5---3---3---3---3------------|
G|-------------------------------|--5---5---5---5---0---0---0---0------------|
D|--5---5-5-5-5-5-0---0---0---0--|--5---5---5---5---3---3---3---3------------|
A|--5---5-5-5-5-5-0---0---0---0--|--3---3---3---3---1---1---1---1------------|
D|--5---5-5-5-5-5-0---0---0---0--|-------------------------------------------|


BRIDGE:

PART 1: (x2)

e|--0-0---0-0-0-0-0---0-0-0-0-0-0-0--|--0-0---0-0-0-0-0---0-0-0-0-0-0-0------|
B|--6-6---6-6-6-6-6---6-6-6-6-6-6-6--|--8-8---8-8-8-8-8---8-8-8-8-8-8-8------|
G|--0-0---0-0-0-0-0---0-0-0-0-0-0-0--|--6-6---6-6-6-6-6---6-6-6-6-6-6-6------|
D|--7-7---7-7-7-7-7---7-7-7-7-7-7-7--|--8-8---8-8-8-8-8---8-8-8-8-8-8-8------|
A|--5-5---5-5-5-5-5---5-5-5-5-5-5-5--|--7-7---7-7-7-7-7---7-7-7-7-7-7-7------|
D|-----------------------------------|---------------------------------------|

e|--8--8--8--8--8--8--8--8--8--8--8--8--8--8--8--8---------------------------|
B|--10-10-10-10-10-10-10-10-10-10-10-10-10-10-10-10--------------------------|
G|--10-10-10-10-10-10-10-10-10-10-10-10-10-10-10-10--------------------------|
D|--10-10-10-10-10-10-10-10-10-10-10-10-10-10-10-10--------------------------|
A|--8--8--8--8--8--8--8--8--8--8--8--8--8--8--8--8---------------------------|
D|---------------------------------------------------------------------------|

e|--8--8--8--8--8--8--8--8--8--8--8--8--8--8--8--8---------------------------|
B|--10-10-10-10-10-10-10-10-10-10-10-10-10-10-10-10--------------------------|
G|--9--9--9--9--9--9--9--9--9--9--9--9--9--9--9--9---------------------------|
D|--7--7--7--7--7--7--7--7--7--7--7--7--7--7--7--7---------------------------|
A|--7--7--7--7--7--7--7--7--7--7--7--7--7--7--7--7---------------------------|
D|--7--7--7--7--7--7--7--7--7--7--7--7--7--7--7--7---------------------------|

PART 2:

e|--0-0-0-0-0-0-0-0-0-0-0-0-0-0-0-0--|--0-0-0-0-0-0-0-0-0-0-0-0-0-0-0-0------|
B|--6-6-6-6-6-6-6-6-6-6-6-6-6-6-6-6--|--8-8-8-8-8-8-8-8-8-8-8-8-8-8-8-8------|
G|--0-0-0-0-0-0-0-0-0-0-0-0-0-0-0-0--|--6-6-6-6-6-6-6-6-6-6-6-6-6-6-6-6------|
D|--7-7-7-7-7-7-7-7-7-7-7-7-7-7-7-7--|--8-8-8-8-8-8-8-8-8-8-8-8-8-8-8-8------|
A|--5-5-5-5-5-5-5-5-5-5-5-5-5-5-5-5--|--7-7-7-7-7-7-7-7-7-7-7-7-7-7-7-7------|
D|-----------------------------------|---------------------------------------|

e|--8--8--8--8--8--8--8--8--8--8--8--8--8--8--8--8---------------------------|
B|--10-10-10-10-10-10-10-10-10-10-10-10-10-10-10-10--------------------------|
G|--10-10-10-10-10-10-10-10-10-10-10-10-10-10-10-10--------------------------|
D|--10-10-10-10-10-10-10-10-10-10-10-10-10-10-10-10--------------------------|
A|--8--8--8--8--8--8--8--8--8--8--8--8--8--8--8--8---------------------------|
D|---------------------------------------------------------------------------|

e|--8--8--8--8--8--8--8--8--8--8--8--8--8--8--8--8---------------------------|
B|--10-10-10-10-10-10-10-10-10-10-10-10-10-10-10-10--------------------------|
G|--9--9--9--9--9--9--9--9--9--9--9--9--9--9--9--9---------------------------|
D|--7--7--7--7--7--7--7--7--7--7--7--7--7--7--7--7---------------------------|
A|--7--7--7--7--7--7--7--7--7--7--7--7--7--7--7--7---------------------------|
D|--7--7--7--7--7--7--7--7--7--7--7--7--7--7--7--7---------------------------|


PRE-CHORUS #3:

  (volume is turned down)
e|---------------0---0-0-----------------------------------------------------|
B|--6---6-6------8---8-8------5-5-5-5-5-5-5-5------6---6-6-------------------|
G|--7---7-7------6---6-6------0-0-0-0-0-0-0-0------7---7-7-------------------|
D|--7---7-7------8---8-8------7-7-7-7-7-7-7-7------7---7-7-------------------|
A|--5---5-5------7---7-7------4-4-0-0-4-0-0-4------5---5-5-------------------|
D|---------------------------------------------------------------------------|

  (normal volume)
e|---------------0---0-0-----------------------------------------------------|
B|--6---6-6------8---8-8------5-5-5-5-5---5-5------6---6-6-6-6-6-------------|
G|--7---7-7------6---6-6------0-0-0-0-0---0-0------7---7-7-7-7-7-------------|
D|--7---7-7------8---8-8------7-7-7-7-7---7-7------7---7-7-7-7-7-------------|
A|--5---5-5------7---7-7------4-4-0-0-4---0-4------5---5-5-5-5-5-------------|
D|---------------------------------------------------------------------------|


CHORUS: (same as above, except for you play it x3 instead of x2)


Then play this as the 4th time:

e|-------------------------------|----------------------------0--------------|
B|-------------------------------|----------------------------8--------------|
G|-------------------------------|----------------------------6--------------|
D|--5---5-5-5-5-5-0---0---0---0--|--5---5-5-5-5-5-0---0---0---5--------------|
A|--5---5-5-5-5-5-0---0---0---0--|--5---5-5-5-5-5-0---0---0---7--------------|
D|--5---5-5-5-5-5-0---0---0---0--|--5---5-5-5-5-5-0---0---0------------------|

                                    H               H
e|-------------------------------|-------------------------------------------|
B|-------------------------------|--5---------------3------------------------|
G|-------------------------------|--5---------------0------------------------|
D|--5---5-5-5-5-5-0---0---0---0--|--5---------------3------------------------|
A|--5---5-5-5-5-5-0---0---0---0--|--3---------------1------------------------|
D|--5---5-5-5-5-5-0---0---0---0--|-------------------------------------------|


OUTRO:
                                                                           x2
e|---------------|---------------------|------------------|------------------|
B|----------6----|--7/10--------10-----|-----------10-----|-----------10-----|
G|-------0-------|-----------0---------|--------0---------|--------0---------|
D|-----7---------|--------10-----------|-----10-----------|-----10-----------|
A|--5------------|---------------------|--8---------------|--0---------------|
D|---------------|---------------------|------------------|------------------|

    H
e|--0------------------------------------------------------------------------|
B|--6------------------------------------------------------------------------|
G|--0------------------------------------------------------------------------|
D|--7------------------------------------------------------------------------|
A|--5------------------------------------------------------------------------|
D|---------------------------------------------------------------------------|
comments
print report bad tab
14 comments total. Showing first comments.
0 reply
A_GOOD_TABBER wrote on November 4 2006, 09:58 am

I also edited The ending and Intro to "The navy song". Sorry about some of the titles that turned out screwy but hope you can still enjoy the tabs.

0 reply
Bri-guy wrote on November 4 2006, 11:45 am

umm so wait is there only one guitarist or sumthing? no lead AND rythem? if they do have a rythem and a lead then its pretty ****ed up that no one tabs the chords for it. but yea oh well thats cool that u put all these tabs on the same thing i guess

0 reply
A_GOOD_TABBER wrote on November 4 2006, 07:16 pm

It's only one guitarist, The guitarist arranged it so that he could bar rythym chords with his index and do melodic notes with the rest of his available fingers. It's a pretty cool style. Glad you appreciated the sticking together and editing of the tabs...

I want to post or [tab]
guest
You may want to rate the tab now too:
select rating
Please do not post tabs as comments. Select "correction" instead!