Oops, an error
Loading. Please wait.

Billy Talent Ii Bass Tab

ver2
ver2

Album

More versions @911Tabs.com
3,405 views 3 this week
1 commentread comment
1 2 3 4 5
excellent!
x 2
add to favorites launch autoscroll
font size
0
reset
Autoscroll
+/-
esc
set tempo
stop
Contributor
WARNING: You are trying to view
                                    content from Ultimate-Guitar.com
                                    in an unauthorized application,
                                    which is prohibited.

                                    Please use an official Ultimate
                                    Guitar Tabs application for iPhone,
                                    iPad or Android to access legitimate
                                    chords, guitar, bass, and drum tabs
                                    from Ultimate-Guitar.com database.

                                    Type "ultimate guitar tabs" in Apple
                                    App Store's or Android Market's
                                    search to find the application.
Album: Billy Talent II
Artist: Billy Talent

Here is the complete bass tab of Billy Talent’s latest release, Billy Talent II.
Yes, it is long, because I believe this is quite accurate and I did not take any
shortcuts simply for the sake of making it a shorter tab. If you only want a
particular song, I will be posting all of the songs individually as well. The
notes are always arranged according to the timing of the songs, and if you use
the font Courier New, size 9, every line of tab should end up on the same page.
This might not work with the album tab as I am still figuring it out.

All songs are in Drop D (D  A  D  G) tuning.

The album goes as follows:

 1.Devil In A Midnight Mass     |  2:51
 2.Red Flag                     |  3:15
 3.This Suffering               |  3:56
 4.Worker Bees                  |  3:44
 5.Pins And Needles             |  3:10
 6.Fallen Leaves                |  3:18
 7.Where Is The Line?           |  3:49
 8.Covered In Cowardice         |  4:12
 9.Surrender                    |  4:06
10.The Navy Song                |  4:30
11.Perfect World                |  3:06
12.Sympathy                     |  3:18
13.Burn The Evidence            |  3:40
   Billy Talent II              | 46:55


Please post any comments or corrections or whatever you want. Enjoy!

*******************************************************************************
***********************   1.Devil In A Midnight Mass   **********************
*******************************************************************************

This is an amazing song that kicks off their newest album.  It is actually quite
hard to play. The timing in this song can be very confusing, so if you have any
more questions about anything, post a comment and I will answer them. The notes
are often crowded, so just to make it simpler there are no notes above the 9th
fret, so each digit represents one note. One more comment: just before the chorus
there is one bar of 2/4 time, as opposed to the rest of the song, which is in 4/4
time. I have just put one shorter bar in that place.


INTRO   (0:04)

G|----------------|
D|----------------|
A|---------0-----5|
D|----------30578-|

G|----------------|
D|----------------|
A|-----8-7-0-----5|
D|08070-0-0-30578-|  x3

G|----------------|
D|----------------|
A|-----8-7-0------|
D|08070-0-0-305780|


VERSE 1   (0:16)

G|----------------|----------------|----------------|----------------|
D|----------------|----------------|----------------|----------------|
A|---------0------|---------0------|---------0------|---------0----3-|
D|---0-0-0--305780|---0-0-0--305780|---0-0-0--305780|---0-0-0--3057--|


PRE-CHORUS 1   (0:27)

G|----------------|----------------|----------------|----------------|
D|----------------|----------------|----------------|----------------|
A|1-------0-------|-----8-7-0----3-|1-------0-------|-----8-7-0----3-|
D|---------------0|-8070-0-0-3057--|---------------0|-8070-0-0-3057--|

G|----------------|----------------|----------------|-|--------|
D|----------------|----------------|----------------|2|--------|
A|1-------0-------|----------------|1-------0-------|4|-0-----5|
D|----------------|0-------3-------|----------------|-|--30578-|


CHORUS 1   (0:47)

G|-|----------------|----------------|----------------|----------------|
D|4|---------------3|---------------5|----------------|----------------|
A|4|----------------|----------------|---------------1|-1111110-0-----5|
D|-|-00-00-00-00-0--|-33-33-33-33-3--|-55555555555555-|----------30578-|

G|----------------|----------------|----------------|----------------|
D|---------------3|---------------5|--53--32--2-----|----------------|
A|----------------|----------------|-5---3---3-3-3-1|-11111111------5|
D|-00-00-00-00-0--|-33-33-33-33-3--|----------------|----------------|


PRE-VERSE   (1:09)

G|----------------|----------------|
D|----------------|----------------|
A|-----8-7-0-----5|-----8-7-0------|
D|08070-0-0-30578-|08070-0-0-305780|


VERSE 2   (1:14)  -> Play verse 1

PRE-CHORUS 2   (1:25)  -> Play pre-chorus 1

CHORUS 2   (1:45)  -> Play chorus 1 BUT replace last bar with this:

G|----------------|
D|----------------|
A|-111111110-----5|
D|----------30578-|


OUTRO   (2:06)

G|----------------|
D|----------------|
A|-----8-7-0-----5|
D|08070-0-0-30578-|   x7

G|----------------|
D|----------------|
A|-----8-7--------|
D|08070-0--------0|

G|----------------|
D|----------------|
A|-----8-7-0-----5|
D|-8070-0-0-30578-|

G|----------------|
D|----------------|
A|-----8-7-0-----5|
D|08070-0-0-30578-|   x6

G|----------------|
D|----------------|
A|-----8-7-0------|
D|08070-0-0-30578-|    -2:51

*******************************************************************************
*******************************   2.Red Flag   *******************************
*******************************************************************************

Easy song.

CHORUS 1   (0:12)

G|----------------|----------------|----------------|----------------|
D|----------------|----------------|----------------|----------------|
A|0---0-0-0-0-0-0-|3---0-3---0-3-0-|----------------|----------------|
D|----------------|----------------|5---5-5-5-5-5-5-|3---0-3---0-3-0-|

G|----------------|----------------|----------------|----------------|
D|----------------|----------------|----------------|----------------|
A|3---3-3-3-3-3-3-|----------------|----------------|----------------|
D|----------------|5---0-5---0-5-0-|2---2-2-2-2-2-2-|6---0-6---0-6-0-|


VERSE 1   (0:23)

G|----------------|----------------|----------------|----------------|
D|----------------|----------------|----------------|----------------|
A|0-0-0-0---------|----------------|2-2-2-2---------|----------------|
D|----------------|----------------|----------------|----------------|

G|----------------|----------------|----------------|----------------|
D|----------------|----------------|------------2-2-|2-2-2-----------|
A|0-0-0-0---------|----------------|2-2-2-2---------|----------------|
D|----------------|----------------|----------------|--------2---2---|


VERSE 2   (0:34)

G|----------------|----------------|----------------|----------------|
D|----------------|----------------|----------------|----------------|
A|0-0-0-0---0-3-3-|3-3-3---3---3---|2-2-2-2---2-----|----------------|
D|----------------|----------------|------------2-2-|2-2-2---2---2---|

G|----------------|----------------|----------------|----------------|
D|----------------|----------------|------------2-2-|2-2-2---2---2---|
A|0-0-0-0---0-3-3-|3-3-3---3---3---|2-2-2-2---2-----|----------------|
D|----------------|----------------|----------------|----------------|


PRE-CHORUS 1   (0:44)

G|----------------|----------------|----------------|----------------|
D|----------------|----------------|----------------|----------------|
A|----------------|5---------------|----------------|----------------|
D|3---------------|----------------|5-5-5-5-5-5-5---|7---------------|

G|----------------|----------------|----------------|----------------|
D|----------------|----------------|----------------|----------------|
A|----------------|----------------|----------------|----------------|
D|3---------------|0---------------|5-5-5-5-5-5-5---|2---------------|


CHORUS 2   (0:54)  -> Play chorus 1 twice


VERSE 3   (1:15)  -> Play verse 2 BUT replace last bar with this:

G|----------------|
D|2-2-2-----------|
A|----------------|
D|--------2---2---|


VERSE 4   (1:26)  -> Play verse 2

PRE-CHORUS   (1: 36)  -> Play pre-chorus 1

CHORUS 3   (1:47)  -> Play chorus 1


INTERLUDE   (2:08)

G|----------------|----------------|----------------|----------------|
D|----------------|----------------|----------------|----------------|
A|0-0-------------|----------------|----------------|----------------|
D|----------------|----------------|----------------|----------------|

G|----------------|----------------|----------------|----------------|
D|----------------|----------------|----------------|----------------|
A|0-0---0-0-0-0-0-|----------------|5-5---5-5-5-5-5-|----------------|
D|----------------|5-5---5-5-5-5-5-|----------------|3-3---3-3-3-3-3-|

G|----------------|----------------|----------------|----------------|
D|----------------|----------------|----------------|3-3---3-3-3-3-3-|
A|0-0---0-0-0-0-0-|----------------|5-5---5-5-5-5-5-|----------------|
D|----------------|5-5---5-5-5-5-5-|----------------|----------------|

G|----------------|----------------|----------------|----------------|
D|----------------|----------------|----------------|----------------|
A|0-0---0-0-0-0-0-|----------------|----------------|----------------|
D|----------------|5-5---5-5-5-5-5-|0-0---0-0-0-0-0-|3-3---3-3-3-3-3-|

G|----------------|----------------|----------------|----------------|
D|----------------|----------------|----------------|3-3-3-3-3-3-3-3-|
A|0-0-0-0-0-0-0-0-|----------------|5-5-5-5-5-5-5-5-|----------------|
D|----------------|5-5-5-5-5-5-5-5-|----------------|----------------|

G|----------------|----------------|----------------|--2-------------|
D|----------------|----------------|----------------|3---5-3-2-------|
A|0-0---0-0-0-0-0-|----------------|5-5---5-5-5-5-5-|----------5-0---|
D|----------------|5-5---5-5-5-5-5-|----------------|--------------5-|


OUTRO CHORUS   (2:39)

G|----------------|
D|----------------|
A|0---------------|
E|----------------|

Rest 9 bars

Play chorus 1 twice.

G|----------------|
D|----------------|
A|0-0-0-0---------|
D|----------------|    -3:15

*******************************************************************************
****************************   3.This Suffering   ****************************
*******************************************************************************

Another great song off of this amazing album. It is not hard to play and so I don’t need
say much. The third chorus is a jumble of different parts from the other choruses, so
avoid confusion, I have simply tabbed it out in full again.


INTRO   (0:04)

G|----------------|----------------|----------------|----------------|
D|----------------|----------------|----------------|0---------------|
A|----------------|----------------|----------------|--3-1-0---------|
D|----------------|----------------|----------------|--------0-------|   x2

G|----------------|----------------|----------------|----------------|
D|----------------|----------------|----------------|0---------------|
A|--5---5-5---5---|--3---3-3---3---|----------------|--3-1-0---------|
D|----------------|----------------|--5---5---5---5-|--------0-------|   x2


VERSE 1   (0:22)

G|----------------|----------------|----------------|----------------|
D|----------------|----------------|----------------|0---------------|
A|5---------------|3---------------|----------------|--3-1-0---------|
D|------------0---|----------------|--5---5---5---5-|--------0-------|   x2

G|----------------|----------------|----------------|----------------|
D|----------------|----------------|----------------|0---------------|
A|--5-5---5-------|--3-3---3-------|----------------|--3-1-0---------|
D|0---------------|0---------------|0-5---5---5---5-|--------0-------|

G|----------------|----------------|----------------|----------------|
D|----------------|----------------|----------------|0---------------|
A|--5-5---5-------|--3-3---3-------|----------------|--3-1-0-----0---|
D|0---------------|0---------------|0-5---5---5---5-|--------0-------|


CHORUS 1   (0:46)

G|----------------|----------------|----------------|----------------|
D|----------------|----------------|----------------|----------------|
A|1~~~~~~~~~~~~~~~|(1)-------------|----------------|----------------|
D|----------------|----------------|0~~~~~~~~~~~~~~~|(0)-------------|

G|----------------|----------------|----------------|----------------|
D|----------------|----------------|----------------|----------------|
A|----------------|----------------|----------------|3-3-3-3-3-3-3-3-|
D|5~~~~~~~~~~~~~~~|(5)-------------|3---3---3---3---|----------------|


G|----------------|----------------|----------------|----------------|
D|----------------|----------------|----------------|----------------|
A|1-1-1-1-1-1-1-1-|1-1-1-1-1-1-1-1-|5-5-5-5-5-5-5-5-|5-5-5-5-5-5-5-5-|
D|----------------|----------------|----------------|----------------|

G|----------------|----------------|----------------|----------------|
D|----------------|----------------|----------------|----------------|
A|----------------|----------------|----------------|3---------------|
D|5-5-5-5-5-5-5-5-|5-5-5-5-5-5-5-5-|3-3-3-3-3-3-3-3-|----------------|


PRE-VERSE   (1:09)

G|----------------|----------------|----------------|----------------|
D|----------------|----------------|----------------|0---------------|
A|--5---5-5---5---|--3---3-3---3---|----------------|--3-1-0---------|
D|----------------|----------------|--5---5---5---5-|--------0-------|   x2


VERSE 2   (1:16)  -> Play verse 1

CHORUS 2   (1:39)  -> Play the first half of chorus 1, then continue to this:


G|----------------|----------------|----------------|----------------|
D|----------------|----------------|----------------|----------------|
A|1-1-1-1-1-1-1-1-|1-1-1-1-1-1-1-1-|5-5-5-5-5-5-5-5-|5-5-5-5-5-5-5-5-|
D|----------------|----------------|----------------|----------------|  \
                                                                        |  x2
G|----------------|----------------|----------------|----------------|  /
D|----------------|----------------|----------------|----------------|
A|----------------|----------------|----------------|3-3-3-3-3-3-3-3-|
D|5-5-5-5-5-5-5-5-|5-5-5-5-5-5-5-5-|3-3-3-3-3-3-3-3-|----------------|

INTERLUDE   (2:15)

G|----------------|----------------|----------------|----------------|
D|----------------|----------------|----------------|----------------|
A|5-5-------------|----------------|0-0-------------|----------------|
D|----------------|----------------|----------------|----------------|

G|----------------|----------------|----------------|----------------|
D|----------------|----------------|----------------|----------------|
A|1-1-------------|----------------|----------------|----------------|
D|----------------|----------------|3-3-3-3-3-3-3-3-|2-2-2-2-2-2-2-2-|


G|----------------|----------------|----------------|----------------|
D|----------------|----------------|----------------|----------------|
A|5-5---0-5-5---0-|5-5---0-5-5-----|0-0-----0-0-----|0-0-----0-0-----|
D|----------------|----------------|------2-------2-|------2---------|

G|----------------|----------------|----------------|----------------|
D|----------------|----------------|----------------|----------------|
A|1-1-----1-1-----|1-1-----1-1-----|----------------|----------------|
D|------3-------3-|------3---------|3-3-3-3-3-3-3-3-|2-2-2-2-2-2-2-2-|


G|----------------|----------------|----------------|----------------|
D|----------------|----------------|----------------|----------------|
A|5-5-5-5-5-5-5-0-|5-5-5-5-5-5-5-3-|0-0-0-0-0-0-0---|0-0-0-0-0-0-0-3-|
D|----------------|----------------|--------------2-|----------------|

G|----------------|----------------|----------------|----------------|
D|----------------|----------------|----------------|----------------|
A|1-1-1-1-1-1-1---|1-1-1-1-1-1-1-3-|----------------|----------------|
D|--------------3-|----------------|3-3-3-3-3-3-3-3-|2-2-2-2-2-2-2-2-|

CHORUS 3   (2:50)

G|----------------|----------------|----------------|----------------|
D|----------------|----------------|----------------|----------------|
A|1~~~~~~~~~~~~~~~|(1)-------------|----------------|----------------|
D|----------------|----------------|0~~~~~~~~~~~~~~~|(0)-------------|

G|----------------|----------------|----------------|----------------|
D|----------------|----------------|----------------|----------------|
A|----------------|----------------|----------------|3---------------|
D|5~~~~~~~~~~~~~~~|(5)-------------|3---------------|----------------|

G|----------------|----------------|----------------|----------------|
D|----------------|----------------|----------------|----------------|
A|1~~~~~~~~~~~~~~~|(1)-------------|----------------|----------------|
D|----------------|----------------|0~~~~~~~~~~~~~~~|(0)-------------|

G|----------------|----------------|----------------|----------------|
D|----------------|----------------|----------------|----------------|
A|----------------|----------------|----------------|3-3-3-3-3-3-3-3-|
D|5~~~~~~~~~~~~~~~|(5)-------------|3---3---3---3---|----------------|


G|----------------|----------------|----------------|----------------|
D|----------------|----------------|----------------|----------------|
A|1-1-1-1-1-1-1-1-|1-1-1-1-1-1-1-1-|5-5-5-5-5-5-5-5-|5-5-5-5-5-5-5-5-|
D|----------------|----------------|----------------|----------------|

G|----------------|----------------|----------------|----------------|
D|----------------|----------------|----------------|----------------|
A|----------------|----------------|----------------|3-3-3-3-3-3-3-3-|
D|5-5-5-5-5-5-5-5-|5-5-5-5-5-5-5-5-|3-3-3-3-3-3-3-3-|----------------|

G|----------------|----------------|----------------|----------------|
D|----------------|----------------|----------------|----------------|
A|1-1-1-1-1-1-1-1-|1-1-1-1-1-1-1-1-|----------------|----------------|
D|----------------|----------------|0-0-0-0-0-0-0-0-|0-0-0-0-0-0-0-0-|  \
                                                                        |  x2
G|----------------|----------------|----------------|----------------|  /
D|----------------|----------------|----------------|----------------|
A|----------------|----------------|----------------|3-3-3-3-3-3-3-3-|
D|5-5-5-5-5-5-5-5-|5-5-5-5-5-5-5-5-|3-3-3-3-3-3-3-3-|----------------|


OUTRO   (3:49)

G|----------------|----------------|----------------|----------------|
D|----------------|----------------|----------------|0---------------|
A|--5---5-5---5---|--3---3-3---3---|----------------|--3-1-0---------|
D|----------------|----------------|--5---5---5---5-|--------0-------|    -3:56


*******************************************************************************
******************************   4.Worker Bees   *****************************
*******************************************************************************

This is an amazing song and very fun to play.


INTRO   (0:00)

G|----------------|
D|----------------|
A|3-------3-------|
D|----5-5-----5---|   x24

VERSE 1   (0:25)

G|----------------|----------------|----------------|----------------|
D|----------------|----------------|----------------|3-3-3-3-3-3-3-3-|
A|6-6-6-6-6-6-6-6-|3-3-3-3-3-3-3-3-|5-5-5-5-6-6-6-6-|----------------|
D|----------------|----------------|----------------|----------------|

G|----------------|----------------|----------------|----------------|
D|----------------|----------------|----------------|----------------|
A|----------------|----------------|3-3-3-3-6-6-6-6-|5-5-5-5-5-5-5-5-|
D|6-6-6-6-6-6-6-6-|5-5-5-5-5-5-5-5-|----------------|----------------|


G|----------------|----------------|----------------|----------------|
D|----------------|----------------|----------------|3-3-3-3-3-3-3-3-|
A|6-6-6-6-6-6-6-6-|3-3-3-3-3-3-3-3-|5-5-5-5-6-6-6-6-|----------------|
D|----------------|----------------|----------------|----------------|

G|----------------|----------------|----------------|----------------|
D|----------------|----------------|----------------|----------------|
A|----------------|----------------|3-3-3-3-5-5-5-5-|6-6-6-6-6-6-6-6-|
D|6-6-6-6-6-6-6-6-|5-5-5-5-5-5-5-5-|----------------|----------------|

CHORUS 1   (0:42)

G|----------------|----------------|----------------|----------------|
D|3-3-3-----------|----------------|----------------|--------5-5-5-5-|
A|---------6-6-6--|5-5-5-----------|----------------|----------------|
D|----------------|--------6-6-6---|5-5-5-5---5-5-5-|--5-5-5---------|   x2


G|----------------|----------------|----------------|----------------|
D|3-3-3-----------|----------------|----------------|--------5-5-5-5-|
A|---------6-6-6--|5-5-5-----------|----------------|----------------|
D|----------------|--------6-6-6---|5-5-5-5-5-5-5-5-|--5-5-5---------|

G|----------------|----------------|----------------|----------------|
D|----------------|----------------|----------------|----------------|
A|3---3-------3---|1---1-------1---|----------------|----------------|
D|--------5-------|--------3-------|6---6---6---6---|6---6-6-6-6-6-6-|


PRE-VERSE   (1:00)

G|----------------|
D|----------------|
A|3-------3-------|
D|----5-5-----5---|   x16


VERSE 2   (1:17)  -> Play verse 1

CHORUS 2   (1:34)  -> Play chorus 1 BUT replace last bar with:

G|----------------|
D|----------------|
A|----------------|
D|6---6---6---0---|


BRIDGE 1   (1:51)

G|----------------|----------------|----------------|----------------|
D|----------------|----------------|----------------|----------------|
A|----------------|----------------|--------1---3---|3---1-----------|
D|1---1-1-1---0---|1---1---1---0---|6---6-----------|--------6---5---|  \
                                                                        |
G|----------------|----------------|----------------|----------------|  |
D|----------------|----------------|----------------|----------------|  |
A|----------------|----------------|3---3---4---5---|3---3---4---5---|  |
D|1---1-1-1---0---|1---1---1---0---|----------------|----------------|  |
                                                                        |  x2
G|----------------|----------------|----------------|----------------|  |
D|----------------|----------------|----------------|----------------|  |
A|----------------|----------------|--------1---3---|3---1-----------|  |
D|5---5-5-5---3---|5---5---5---0---|6---6-----------|--------6---5---|  |
                                                                        |
G|----------------|----------------|----------------|----------------|  /
D|----------------|----------------|----------------|----------------|
A|3---3-------3---|1---1-------1---|----------------|----------------|
D|--------5-------|--------3-------|6---6---6---6---|6---6---6---6---|

G|----------------|----------------|----------------|----------------|
D|----------------|----------------|----------------|----------------|
A|3---3-------3---|1---1-------1---|----------------|----------------|
D|--------5-------|--------3-------|6---6---6---6---|6---6---6---6---|


GUITAR SOLO   (2:31)

G|----------------|----------------|----------------|----------------|
D|----------------|----------------|----------------|----------------|
A|3-------3-------|3-------3-------|5-------5-------|5-------5-------|
D|----5-5-----5---|----5-5-----5---|----8-8-----8---|----8-8-----8---|

G|----------------|----------------|----------------|----------------|
D|----------------|----------------|5-------5-------|5-------5-------|
A|6-------6-------|6-------6-------|----------------|----------------|
D|----6-6-----6---|----6-6-----6---|----5-5-----5---|----5-5-----5---|


G|----------------|----------------|----------------|----------------|
D|----------------|----------------|----------------|----------------|
A|3-------3-------|3-------3-------|5-------5-------|5-------5-------|
D|----5-5-----5---|----5-5-----5---|----8-8-----8---|----8-8-----8---|

G|----------------|----------------|----------------|----------------|
D|----------------|----------------|5---------------|----------------|
A|6-------6-------|6-------6-------|----------------|----------------|
D|----6-6-----6---|----6-6-----6---|----5---5---5---|5---5---5---5---|


BRIDGE 2   (2:48)

First play Bridge 1 in full, then:

G|----------------|----------------|----------------|----------------|
D|----------------|----------------|----------------|----------------|
A|3---3-------3---|1---1-------1---|----------------|----------------|
D|--------5-------|--------3-------|6---6---6---6---|6---6---6---6---|

G|----------------|
D|----------------|
A|3---------------|
D|----------------|    -3:44

*******************************************************************************
***************************   5.Pins And Needles   ***************************
*******************************************************************************

This song is extremely easy to play and so easy to figure out that it probably doesn’t
need a tab, but I’ll do one anyway. The bass doesn’t come in until the second verse.

VERSE 2   (0:39)

G|----------------|----------------|----------------|----------------|
D|----------------|----------------|----------------|----------------|
A|----------------|----------------|----------------|----------------|
D|5---5-----5-----|0---------0-----|1---1-----1-----|0---0-----0-----|   x2

G|----------------|----------------|----------------|----------------|
D|----------------|----------------|----------------|----------------|
A|----------------|----------------|----------------|----------------|
D|5---------------|0---------------|1---------------|0---------------|  \
                                                                        |  x2
G|----------------|----------------|----------------|----------------|  /
D|----------------|----------------|----------------|----------------|
A|----------------|----------------|----------------|----------------|
D|5---------------|0---------------|1---1------1----|0---0-----0—-(0)|
                                                                 * play this
                                                                   note 2nd time
                                                                   only.


CHORUS 2   (1:17)

G|----------------|----------------|----------------|----------------|
D|----------------|----------------|----------------|----------------|
A|3---3-----3-----|----------------|----------------|----------------|
D|----------------|3---3-----3-----|5---5-----5-----|0---0-----0-----|

G|----------------|----------------|----------------|----------------|
D|----------------|----------------|----------------|----------------|
A|----------------|1---1-----1-----|3---3-----3-----|----------------|
D|1---1-----1-----|----------------|----------------|3---3-----3-----|

G|----------------|----------------|----------------|----------------|
D|----------------|----------------|----------------|----------------|
A|----------------|----------------|----------------|1---1-----1-----|
D|5---5-----5-----|0---0-----0-----|1---1-----1-----|----------------|

G|----------------|----------------|
D|----------------|----------------|
A|3---------------|----------------|
D|----------------|3---------------|


INTERLUDE   (1:40)

G|----------------|----------------|----------------|----------------|
D|----------------|----------------|----------------|----------------|
A|----------------|----------------|----------------|----------------|
D|5---5-----5-----|0---------0-----|1---1-----1-----|0---0-0---0-0-0-|

G|----------------|----------------|----------------|----------------|
D|----------------|----------------|----------------|----------------|
A|6-6-6-6-6-6-6-6-|----------------|----------------|----------------|
D|----------------|5-5-5-5-5-5-5-5-|3-3---3---3---3-|1---1---1---1-0-|   x2

G|----------------|----------------|----------------|----------------|
D|----------------|----------------|----------------|----------------|
A|6-6-6-6-6-6-6-6-|----------------|----------------|----------------|
D|----------------|5-5-5-5-5-5-5-5-|3-3---3---3---3-|1---1---1---1---|


CHORUS 3   (2:12)

G|----------------|----------------|----------------|----------------|
D|----------------|----------------|----------------|----------------|
A|3-3-3-3-3-3-3-3-|----------------|----------------|----------------|
D|----------------|3-3-3-3-3-3-3-3-|5-5-5-5-5-5-5-5-|0-0-0-0-0-0-0-0-|

G|----------------|----------------|----------------|----------------|
D|----------------|----------------|----------------|----------------|
A|----------------|1-1-1-1-1-1-1-1-|3-3-3-3-3-3-3-3-|----------------|
D|1-1-1-1-1-1-1-1-|----------------|----------------|3-3-3-3-3-3-3-3-|

G|----------------|----------------|----------------|----------------|
D|----------------|----------------|----------------|----------------|
A|----------------|----------------|----------------|1-1-1-1-1-1-1-1-|
D|5-5-5-5-5-5-5-5-|0-0-0-0-0-0-0-0-|1-1-1-1-1-1-1-1-|----------------|

G|----------------|----------------|----------------|----------------|
D|----------------|----------------|----------------|----------------|
A|3-3-3-3-3-3-3-3-|----------------|----------------|----------------|
D|----------------|3-3-3-3-3-3-3-3-|5-5-5-5-5-5-5-5-|0-0-0-0-0-0-0-0-|

G|----------------|----------------|----------------|----------------|
D|----------------|----------------|----------------|----------------|
A|----------------|1-1-1-1-1-1-1-1-|3---------------|----------------|
D|1-1-1-1-1-1-1-1-|----------------|----------------|3---------------|

G|----------------|----------------|----------------|----------------|
D|----------------|----------------|----------------|----------------|
A|----------------|----------------|----------------|----------------|
D|5~~~~~~~~~~~~~~~|(5)~~~~~~~~~~~~~|(5)~~~~~~~~~~~~~|(5)~~~~~~~~~~~~~|

G|----------------|----------------|----------------|----------------|
D|----------------|----------------|----------------|----------------|
A|----------------|----------------|----------------|----------------|
D|(5)~~~~~~~~~~~~~|(5)-------------|----------------|----------------|

G|----------------|
D|----------------|
A|----------------|
D|5---------------|    -3:10


*******************************************************************************
*****************************   6.Fallen Leaves   ****************************
*******************************************************************************

This is a quite easy song to play. There is just one thing that seems to go unnoticed:
chorus riff is a little bit different from the intro; pay attention to that as the same
are not always used. This is the only thing that really is at all tricky about this song.

INTRO   (0:15)

G|----------------|----------------|----------------|----------------|
D|----------------|----------------|----------------|----------------|
A|3---3-1---------|----------------|----------------|----------------|
D|--------5---5--5|5-6-5-3-1---1-0-|6---6-5-3---3-0-|1-1-1-3-5-5-5-0-|


VERSE 1   (0:23)

G|----------------|----------------|----------------|----------------|
D|----------------|----------------|----------------|----------------|
A|3---------------|6---------------|3---------------|----------------|
D|----------5-5-0-|----------5-5-0-|----------5-5-0-|1---------5-5-0-|

G|----------------|----------------|----------------|----------------|
D|----------------|----------------|----------------|----------------|
A|3-3-3-3---------|----------------|----------------|----------------|
D|--------6-6-6-5-|8-8-8-8-1-1-1-1-|6-6-6-5-3-3-3-0-|1-1-1-3-5-5-5-5-|

G|----------------|----------------|----------------|----------------|
D|----------------|----------------|----------------|----------------|
A|3---------------|6---------------|3---------------|----------------|
D|----------5-5-0-|----------5-5-0-|----------5-5-0-|1---------5-5-0-|

G|----------------|----------------|----------------|----------------|
D|----------------|----------------|----------------|----------------|
A|3-3-3-3---------|----------------|----------------|2-2-2-2-2-2-2-2-|
D|--------6-6-6-5-|8-8-8-8-1-1-1-1-|6-6-6-6-6-6-6-6-|----------------|


CHORUS 1   (0:54)

G|----------------|----------------|----------------|----------------|
D|----------------|----------------|----------------|----------------|
A|3---3-1---------|----------------|----------------|----------------|
D|--------5---5--5|5-5-3-0-1---1-1-|6---6-5-3---3-0-|1-1-1-3-5-5-5-0-|   x2

PRE-VERSE   (1:09)

G|----------------|----------------|----------------|----------------|
D|----------------|----------------|----------------|----------------|
A|3---3-3---------|6---6-6---------|3---3-3---------|----------------|
D|----------5-5-0-|----------5-5-0-|----------5-5-0-|1---1-1---5-5-0-|


VERSE 2   (1:17)  -> Play second half of verse 1

CHORUS 2   (1:32)  -> Play chorus 1


GUITAR SOLO   (1:48)

G|----------------|----------------|----------------|----------------|
D|----------------|----------------|----------------|----------------|
A|3-3-3-3---------|----------------|----------------|----------------|
D|--------5-5-5-5-|5-5-3-3-1-1-1-1-|3-3-3-3-6-6-6-6-|3-3-3-3-1-1-1-1-|

G|----------------|----------------|----------------|----5-4-3---3---|
D|----------------|----------------|----------------|--5-------3-----|
A|3-3-3-3---------|----------------|----------------|3---------------|
D|--------5-5-5-5-|5-5-3-3-1-1-1-1-|3-3-3-3-6-6-6-6-|----------------|


INTERLUDE   (2:04)

G|----------------|----------------|
D|----------------|----------------|
A|----------------|3-------6-6-5-6-|
D|3-------5-5-----|----------------|   x2

G|----------------|----------------|----------------|----------------|
D|----------------|----------------|----------------|----------------|
A|----------------|3-3-3-3-6-6-5-3-|----------------|2-2-2-2-2-2-2-2-|
D|3-3-3-3-5-5-5-5-|----------------|5-5-5-5-5-5-5-5-|----------------|

G|----------------|
D|----------------|
A|3---------------|
D|----------------|

Rest 7 bars

CHORUS 3   (2:35)  -> Play chorus 1 then intro twice

FINAL NOTE   (3:07)

G|----------------|
D|----------------|
A|3---------------|
D|----------------|    -3:18

*******************************************************************************
**************************   7.Where Is The Line?   **************************
*******************************************************************************


This is a fairly easy song to play, but the patterns of the D notes in the intro, verses
choruses is a little tough at first. Everything else should be fine.

INTRO   (0:00)

G|----------------|----------------|----------------|----------------|
D|----------------|----------------|----------------|----------------|
A|2-------4-------|5---------------|----------------|----------------|
D|----------------|--------0-------|5-5-----2-2-----|5-5-----2-2-----|

G|----------------|----------------|----------------|----------------|
D|----------------|----------------|----------------|----------------|
A|2-------4-------|5---------------|----------------|----------------|
D|----------------|--------0-------|5---------------|2---------------|


G|----------------|----------------|----------------|----------------|
D|----------------|----------------|--------4-4-4-5-|--5---4-4-4-2-2-|
A|5---5---5-5---5-|--5---5-5-5-5-5-|----------------|----------------|
D|--0---0-----0---|0---0-----------|2---2-----------|----------------|

G|----------------|----------------|----------------|----------------|
D|----------------|----------------|----------------|----------------|
A|2---2---4-4---5-|--5---4-4-4-2-2-|0---0-0-0-0-0---|----------------|
D|----------------|----------------|--------------4-|--4-4-4-4-4-4-4-|


VERSE 1   (0:21)

G|----------------|----------------|----------------|----------------|
D|----------------|----------------|--------4-4-4-2-|----------------|
A|----5---5-5---5-|5-----5---5-----|----------------|----------------|
D|0-----0-----0---|--0-0-------0-0-|2---2-----------|--2-2-2---2-2-2-|  \
                                                                        |  x2
G|----------------|----------------|----2---2-2---2-|----------------|  /
D|--------2-2-2-0-|----------------|----------------|----------------|
A|2---2-----------|--2-2-2-2-2-2-2-|0-----0-----0---|--0-0-0-0-0-0-0-|
D|----------------|----------------|----------------|----------------|


PRE-CHORUS 1   (0:44)

G|----------------|----------------|----------------|----------------|
D|----------------|----------------|----------------|----------------|
A|----------------|----------------|2-2-2-2-2-2-2-2-|4-4-4-4-4-4-4-4-|
D|2-2-2-2-2-2-2-2-|5-5-5-5-5-5-5-5-|----------------|----------------|

G|----------------|----------------|----------------|----------------|
D|----------------|----------------|----------------|----------------|
A|----------------|----------------|2-2-2-2-2-2-2-2-|0---------------|
D|2-2-2-2-2-2-2-2-|5-5-5-5-5-5-5-5-|----------------|----------------|


CHORUS 1   (0:56)  -> Play second half of intro twice

VERSE 2   (1:18)  -> Play verse 1

PRE-CHORUS 2   (1:41)  -> Play pre-chorus 1

CHORUS 2   (1:53)  -> Play chorus 1, but replace last bar with:

G|----------------|
D|----------------|
A|----------------|
D|4-4-4-4-4-4-4-4-|


INTERLUDE   (2:15)

G|----------------|----------------|----------------|----------------|
D|----------------|----------------|----------------|----------------|
A|2-2-2-2-4-5-----|----------------|----------------|--------5-5-5-5-|
D|----------------|2-2-2-2-4-5-----|5-5---5---5---5-|0---0-----------|  \
                                                                        | x2
G|----------------|----------------|----------------|----------------|  /
D|----------------|----------------|----------------|----------------|
A|----------------|----------------|0---0---0-0-0-0-|----------------|
D|5-5-5-5-5-5-5-5-|2-2-2-2-2-2-2-2-|----------------|5-------4-------|


G|----------------|----------------|----------------|----------------|
D|----------------|----------------|----------------|----------------|
A|2-------4-------|5---------------|----------------|----------------|
D|----------------|--------0-------|5-5-----2-2-----|5-5-----2-2-----|

G|----------------|----------------|----------------|----------------|
D|----------------|----------------|----------------|----------------|
A|2-------4-------|5---------------|----------------|----------------|
D|----------------|--------0-------|5---------------|2---------------|


CHORUS 3   (2:49)  -> Play chorus 1

OUTRO   (3:11)

G|----------------|----------------|----------------|----------------|
D|----------------|----------------|2-2-2-2-2-2-2-2-|2-2-2-2-2-2-2-2-|
A|5-5-5-5-5-5-5-5-|5-5-5-5-5-5-5-5-|----------------|----------------|
D|----------------|----------------|----------------|----------------|  \
                                                                        | x2
G|----------------|----------------|----2---2-2---2-|----------------|  /
D|----------------|----------------|----------------|----------------|
A|2-2-2-2-2-2-2-2-|2-2-2-2-2-2-2-2-|0-----0-----0---|--0-0-0-0-0-0-0-|
D|----------------|----------------|----------------|----------------|

G|----------------|
D|----------------|
A|----------------|
D|0---------------|    -3:49

*******************************************************************************
*************************   8.Covered In Cowardice   *************************
*******************************************************************************

This is a fun song to play and it’s not very hard at all. Unfortunately I had to tab out
third chorus in full because it is slightly different from the other ones at the end,
watch for that.

INTRO   (0:11)

G|----------------|----------------|----------------|----------------|
D|----------------|----------------|----------------|----------------|
A|----------------|----------------|----------------|----------------|
D|5-5-5---5-5---5-|5---5-5---5---5-|0---0---0---0---|0---0---0---0---|

G|----------------|----------------|----------------|----------------|
D|----------------|----------------|----------------|----------------|
A|1-1-1---1-1---1-|1---1-1---1---1-|----------------|--------3-3-3---|
D|----------------|----------------|1---1---1---1---|1---1-----------|


VERSE 1   (0:22)

G|----------------|----------------|----------------|----------------|
D|----------------|----------------|----------------|----------------|
A|----------------|----------------|5~~~~~~~~~~~~~~~|(5)-------------|
D|5~~~~~~~~~~~~~~~|(5)-------------|----------------|----------------|

G|----------------|----------------|----------------|----------------|
D|----------------|----------------|----------------|----------------|
A|1~~~~~~~~~~~~~~~|(1)-------------|----------------|----------------|
D|----------------|----------------|1~~~~~~~~~~~~~~~|(1)-------------|

G|----------------|----------------|----------------|----------------|
D|----------------|----------------|----------------|----------------|
A|----------------|----------------|5---5---5---5---|5---5---5---5---|
D|5-5-5---5-5---5-|5---5-5---5---5-|----------------|----------------|

G|----------------|----------------|----------------|----------------|
D|----------------|----------------|----------------|----------------|
A|1-1-1---1-1---1-|1---1-1---1---1-|----------------|----------------|
D|----------------|----------------|1---1---1---1---|1---1-1-1-1-1-1-|

PRE-CHORUS 1   (0:45)

G|----------------|----------------|----------------|----------------|
D|----------------|----------------|----------------|----------------|
A|3-3-3-3-3-3-3-3-|6-6-6-6-6-6-6-6-|----------------|----------------|
D|----------------|----------------|5-5-5-5-5-5-5-5-|3-3-3-3-3-3-3-3-|

G|----------------|----------------|----------------|----------------|
D|----------------|----------------|----------------|----------------|
A|3-3-3-3-3-3-3-3-|6-6-6-6-6-6-6-6-|----------------|----------------|
D|----------------|----------------|5-5-5-5-5-5-5-5-|3---------------|

CHORUS 1   (0:57)

G|----------------|----------------|----------------|----------------|
D|----------------|--------5-------|----------------|----------------|
A|----------------|----5-----------|----------------|----------------|
D|5-5-5-5---8-----|5-----------0---|5-5-5-5---8-----|0---------------|

G|----------------|----------------|----------------|----------------|
D|----------------|----------------|----------------|----------------|
A|----------------|3-3-3-3-3-3-3-3-|----------------|----------------|
D|1-1-1-1-1-1-1-1-|----------------|5-5-5-5---8-----|3---------------|

G|----------------|----------------|----------------|----------------|
D|----------------|--------5-------|----------------|----------------|
A|----------------|----5-----------|----------------|----------------|
D|5-5-5-5---8-----|5-----------0---|5-5-5-5---8-----|0---------------|

G|----------------|----------------|----------------|----------------|
D|----------------|----------------|----------------|----------------|
A|----------------|3-3-3-3-3-3-3-3-|----------------|----------------|
D|1-1-1-1-1-1-1-1-|----------------|5-5-5-5-5-5-5-5-|3-3-3-3-3-3-3-3-|

G|----------------|----------------|----------------|----------------|
D|----------------|----------------|----------------|----------------|
A|----------------|3-3-3-3-3-3-3-3-|----------------|----------------|
D|1-1-1-1-1-1-1-1-|----------------|5-5-5-5---8-----|0---------------|


PRE-VERSE 2   (1:26)

G|----------------|----------------|----------------|----------------|
D|----------------|----------------|----------------|----------------|
A|----------------|----------------|5---5---5---5---|5---5---5---5\--|
D|5-5-5---5-5---5-|5---5-5---5---5-|----------------|----------------|

G|----------------|----------------|----------------|----------------|
D|----------------|----------------|----------------|----------------|
A|1-1-1---1-1---1-|1---1-1---1---1-|----------------|--------3-3-3---|
D|----------------|----------------|1---1---1---1---|1---1-----------|


VERSE 2   (1:38)  -> Play verse 1

PRE-CHORUS 2   (2:01)  -> Play pre-chorus 1

CHORUS 2   (2:13)  -> Play chorus 1

INTERLUDE   (2:42)

G|----------------|----------------|----------------|----------------|
D|----------------|----------------|----------------|5-5-5-5-8-8-8-8-|
A|----------------|--------5-5-5-5-|6-6-6-6-8-8-8-8-|----------------|
D|5-5-5-5-7-7-7-7-|8-8-8-8---------|----------------|----------------|

G|----------------|----------------|----------------|----------------|
D|----------------|----------------|----------------|----------------|
A|3-3-3-3---6-----|----------------|----------------|----------------|
D|----------------|5-5-5-5---8-----|0---------------|1---1---1---1---|

G|----------------|----------------|----------------|----------------|
D|----------------|----------------|----------------|5-5-5-5-8-8-8-8-|
A|----------------|--------5-5-5-5-|6-6-6-6-8-8-8-8-|----------------|
D|5-5-5-5-7-7-7-7-|8-8-8-8---------|----------------|----------------|

G|----------------|----------------|----------------|----------------|
D|----------------|----------------|----------------|----------------|
A|3-3-3-3---6-----|----------------|----------------|----------------|
D|----------------|5-5-5-5---8-----|0---------------|1-1-1-1-1-1-1-1-|


G|----------------|----------------|----------------|----------------|
D|----------------|----------------|----------------|----------------|
A|----------------|----------------|----------------|----------------|
D|5---------------|----------------|0~~~~~~~~~~~~~~~|(0)-------------|

G|----------------|----------------|----------------|----------------|
D|----------------|----------------|----------------|----------------|
A|1---------------|----------------|----------------|--------3-3-3---|
D|----------------|----------------|1~~~~~~~~~~~~~~~|(1)-------------|


CHORUS 3   (3:17)

G|----------------|----------------|----------------|----------------|
D|----------------|--------5-------|----------------|----------------|
A|----------------|----5-----------|----------------|----------------|
D|5-5-5-5---8-----|5-----------0---|5-5-5-5---8-----|0---------------|

G|----------------|----------------|----------------|----------------|
D|----------------|----------------|----------------|----------------|
A|----------------|3-3-3-3-3-3-3-3-|----------------|----------------|
D|1-1-1-1-1-1-1-1-|----------------|5-5-5-5---8-----|3---------------|

G|----------------|----------------|----------------|----------------|
D|----------------|--------5-------|----------------|----------------|
A|----------------|----5-----------|----------------|----------------|
D|5-5-5-5---8-----|5-----------0---|5-5-5-5---8-----|0---------------|

G|----------------|----------------|----------------|----------------|
D|----------------|----------------|----------------|----------------|
A|----------------|3-3-3-3-3-3-3-3-|----------------|----------------|
D|1-1-1-1-1-1-1-1-|----------------|5-5-5-5-5-5-5-5-|3-3-3-3-3-3-3-3-|  x3

G|----------------|----------------|----------------|----------------|
D|----------------|----------------|----------------|--------5-------|
A|----------------|3-3-3-3-3-3-3-3-|----------------|----5-----------|
D|1-1-1-1-1-1-1-1-|----------------|5-5-5-5---8-----|5-----------0---|

G|----------------|----------------|
D|----------------|----------------|
A|----------------|----------------|
D|5-5-5-5---8-----|5---------------|    -4:12

*******************************************************************************
******************************   9.Surrender   ******************************
*******************************************************************************

Super easy song to play. In the intro when you see 1’s and 0’s squished together that’s
Sorry about that.

INTRO   (0:07)

G|----------------|----------------|7---7---109-7---|----------------|
D|7-7-7-7-7-7-7-7-|----------------|--7---7-------9-|10101010--------|
A|----------------|1010101010101010|----------------|--------7-7-7-7-|
D|----------------|----------------|----------------|----------------|


VERSE 1   (0:15)

G|----------------|----------------|----------------|----------------|
D|----------------|----------------|----------------|----------------|
A|----------------|----------------|----------------|3---------------|
D|7---------------|5---------------|0---------------|--------2-------|  x2

G|----------------|----------------|----------------|----------------|
D|----------------|----------------|--------3-2-----|----------------|
A|----------------|----------------|5-0-5-0-----5-2-|3-3-3-3---------|
D|7-7-7-7-7-7-7-7-|5-5-5-5-5-5-5-5-|----------------|--------2-2-2-2-|

G|----------------|----------------|----------------|----------------|
D|----------------|----------------|--------3-2-----|----------------|
A|----------------|----------------|5-0-5-0-----5-2-|3-3-3-3---------|
D|7-7-7-7-7-7-7-7-|5-5-5-5-5-5-5-5-|----------------|--------2-------|


CHORUS 1   (0:48)

G|----------------|----------------|----------------|----------------|
D|----------------|----------------|----------------|----------------|
A|----------------|----------------|----------------|----------------|
D|3-3-3-3-3-3-3-3-|5-5-5-5-5-5-5-5-|7-7-7-7-7-7-7-7-|0-0-0-0-0-0-0-2-|  x2

G|----------------|----------------|----------------|----------------|
D|----------------|----------------|----------------|----------------|
A|----------------|----------------|----------------|----------------|
D|3-3-3-3-3-3-3-3-|5-5-5-5-5-5-5-5-|0~~~~~~~~~~~~~~~|(0)-------------|


PRE-VERSE 2   (1:12)  -> Play intro

VERSE 2   (1:20)  -> Play second half of verse 1, but replace last bar with:

G|----------------|
D|----------------|
A|3-3-3-3---------|
D|--------2-2-2---|

CHORUS 2   (1:36)  -> Play chorus 1 but replace last two bars with:

G|----------------|----------------|
D|----------------|----------------|
A|------------5---|----------------|
D|0---0-0-0-0---0-|0-0-0-0-0-------|


INTERLUDE   (2:00)

G|----------------|----------------|----------------|----------------|
D|7-7-7-7-7-7-7-8-|8-8-8-8-8-8-8---|--------------5-|5-5-5-5-5-5-5-7-|
A|----------------|--------------8-|8-8-8-8-8-8-8---|----------------|
D|----------------|----------------|----------------|----------------|

G|----------------|----------------|----------------|----------------|
D|7-7-7-7-7-7-7-8-|8-8-8-8-8-8-8-8-|----------------|----------------|
A|----------------|----------------|5---5-5---5---3-|--3-------------|
D|----------------|----------------|----------------|--------2-2-2-2-|

G|----------------|----------------|----------------|----------------|
D|7-7-7-7-7-7-7-8-|8-8-8-8-8-8-8---|--------------5-|5-5-5-5-5-5-5-7-|
A|----------------|--------------8-|8-8-8-8-8-8-8---|----------------|
D|----------------|----------------|----------------|----------------|

G|----------------|----------------|----------------|----------------|
D|7-7-7-7-7-7-7-8-|8-8-8-8-8-8-8-8-|----------------|----------------|
A|----------------|----------------|5---5-5---5---3-|--3-------------|
D|----------------|----------------|----------------|--------2---2---|

G|----------------|----------------|----------------|----------------|
D|----------------|----------------|----------------|----------------|
A|5---5-5---5---3-|--3-------------|5---5-5---5-----|3---------------|
D|----------------|--------2---2---|----------------|--------5-------|

G|----------------|----------------|----------------|----------------|
D|----------------|----------------|----------------|----------------|
A|----------------|----------------|----------------|----------------|
D|3---------------|5---------------|7---------------|0---------------|  x2

G|----------------|----------------|----------------|----------------|
D|----------------|----------------|----------------|----------------|
A|----------------|----------------|----------------|5---5---5---5---|
D|3---------------|5---------------|7---------------|--0---0---0-----|

CHORUS 3   (3:05)

G|----------------|----------------|----------------|----------------|
D|----------------|----------------|----------------|----------------|
A|----------------|----------------|----------------|5-5-5-5-5-5-5-5-|
D|3-3-3-3-3-3-3-3-|5-5-5-5-5-5-5-5-|7-7-7-7-7-7-7-7-|----------------|

G|----------------|----------------|----------------|----------------|
D|----------------|----------------|----------------|----------------|
A|----------------|----------------|----------------|5-5-5-5-3-2-0---|
D|3-3-3-3-3-3-3-3-|5-5-5-5-5-5-5-5-|7-7-7-7-7-7-7-7-|--------------5-|

G|----------------|----------------|----------------|----------------|
D|----------------|----------------|----------------|----------------|
A|----------------|----------------|----------------|5-5-5-5-5-5-5-5-|
D|3-3-3-3-3-3-3-3-|5-5-5-5-5-5-5-5-|7-7-7-7-7-7-7-7-|----------------|  x3

G|----------------|----------------|----------------|----------------|
D|3-3-3-3-3-3-3-3-|5-5-5-5-5-5-5-5-|----------------|----------------|
A|----------------|----------------|----------------|----------------|
D|----------------|----------------|7---------------|5---------------|

G|----------------|----------------|----------------|
D|----------------|----------------|----------------|
A|----------------|3-------2-------|0---------------|
D|0---------------|----------------|----------------|    -4:06

*******************************************************************************
****************************   10.The Navy Song   ****************************
*******************************************************************************

This song is easy to play. The only thing somewhat unusual about this song is that the
thing is played in triplets. Because of this, I divided each bar into four sets of eighth
triplets. The notes are often squished together, so just keep in mind that the only 
higher than the ninth fret are on the twelfth fret, and they are always followed by a
down symbol. This third chorus is very long but I wrote it out in full because I find it 
confusing this way.

INTRO   (0:06)

G|------------|------------|------------|------------|
D|------------|------------|------------|------------|
A|3~~~~~~~~~~~|(3)---------|0~~~~~~~~~~~|(0)---000000|
D|------------|------------|------------|------------|


VERSE 1   (0:14)

G|------------|------------|------------|------------|
D|------------|------------|------------|------------|
A|------------|------------|------------|------------|
D|---5~~~~~~~~|(5)---------|---2~~~~~~~~|(2)---------|  x2

G|------------|------------|------------|------------|
D|------------|------------|------------|------------|
A|3-----3-----|3-----3/----|12\---0-----|12\---0-----|
D|------------|------------|------------|------------|


VERSE 2   (0: 35)

G|------------|------------|------------|------------|
D|------------|------------|------------|------------|
A|------------|------------|------------|------------|
D|---5~~~~~~~~|(5)---------|---2~~~~~~~~|(2)---------|  x2

G|------------|------------|------------|------------|
D|------------|------------|------------|------------|
A|3~~~~~~~~~~~|(3)---------|0~~~~~~~~~~~|(0)---------|
D|------------|------------|------------|------------|

G|------------|------------|------------|------------|
D|------------|------------|------------|------------|
A|------------|------------|------------|------------|
D|5~~~~~~~~~~~|(5)---------|4-4-444-4-44|4-4-444-4-4-|


CHORUS 1   (1:03)

G|------------|------------|------------|------------|
D|------------|------------|------------|------------|
A|222222222222|444444555555|------------|------------|
D|------------|------------|5-5-555-5-55|5-5-555-5542|


G|------------|------------|------------|------------|
D|------------|------------|------------|------------|
A|------------|555555555555|------------|------------|
D|0-00-00-00-0|------------|4-4-444-4-44|4-4-44444444|

G|------------|------------|------------|------------|
D|------------|------------|------------|------------|
A|222222222222|444444555555|------------|------------|
D|------------|------------|5-5-555-5-55|5-5-555-5542|

G|------------|------------|------------|------------|
D|------------|------------|------------|---------444|
A|------------|555555555555|------------|------444---|
D|0-00-00-00-0|------------|4-4-444-4-44|4-4-44------|


G|------------|------------|------------|------------|
D|------------|------------|------------|------------|
A|3-----3-----|3-----3/----|12\---0-----|12\---0-----|
D|------------|------------|------------|------------|


VERSE 3   (1:38)  -> Play verse 2

CHORUS 2   (2:06)  -> Play chorus 1

INTERLUDE   (2:35)

G|------------|------------|------------|------------|
D|------------|------------|------------|------------|
A|3-----3-----|3-----3/----|12\---0-----|12\---3-----|
D|------------|------------|------------|------------|

G|------------|------------|------------|------------|
D|------------|------------|------------|------------|
A|------------|------------|------------|------------|
D|3-----3-----|3-----3/----|12\---0-----|12\---0-----|  x2


G|------------|------------|------------|------------|
D|------------|------------|------------|------------|
A|3~~~~~~~~~~~|(3)---------|0~~~~~~~~~~~|(0)---------|
D|------------|------------|------------|------------|

G|------------|------------|------------|------------|
D|------------|------------|------------|------------|
A|------------|------------|------------|------------|
D|5~~~~~~~~~~~|(5)---------|4-4-444-4-44|4-4-444-4-4-|

CHORUS 3   (3:17)

G|------------|------------|------------|------------|
D|------------|------------|------------|------------|
A|222222222222|444444555555|------------|------------|
D|------------|------------|5-5-555-5-55|5-5-555-5542|

G|------------|------------|------------|------------|
D|------------|------------|------------|------------|
A|------------|555555555555|------------|------------|
D|0-00-00-00-0|------------|4-4-444-4-44|4-4-44444444|

G|------------|------------|------------|------------|
D|------------|------------|------------|------------|
A|222222222222|444444555555|------------|------------|
D|------------|------------|5-5-555-5-55|5-5-555-5542|

G|------------|------------|------------|------------|
D|------------|------------|------------|---------444|
A|------------|555555555555|------------|------444---|
D|0-00-00-00-0|------------|4-4-444-4-44|4-4-44------|


G|------------|------------|------------|------------|
D|------------|------------|5-5-555-5-55|5-5-545-5542|
A|222222222222|444444555555|------------|------------|
D|------------|------------|------------|------------|

G|------------|------------|------------|------------|
D|------------|------------|4-4-444-4-44|4-4-44444444|
A|5-5-55555555|555555555555|------------|------------|
D|------------|------------|------------|------------|

G|------------|------------|------------|------------|
D|------------|------------|------------|------------|
A|222222222222|444444555555|------------|------------|
D|------------|------------|5-5-555-5-55|5-5-555-5542|

G|------------|------------|------------|------------|
D|------------|------------|------------|---------444|
A|------------|555555555555|------------|------444---|
D|0-00-00-00-0|------------|4-4-444-4-44|4-4-44------|

G|------------|------------|------------|------------|
D|------------|------------|------------|------------|
A|3-----3-----|3-----3/----|12\---0-----|12\---000000|
D|------------|------------|------------|------------|

G|------------|
D|------------|
A|------------|
D|---2--------|    -4:30

*******************************************************************************
****************************   11.Perfect World   ****************************
*******************************************************************************

This song is really easy to play and straightforward too.

INTRO   (0:17)

G|----------------|----------------|----------------|----------------|
D|----------------|----------------|----------------|----------------|
A|----------------|2-2-2-2-2-2-2-2-|----------------|2-2-2-2-2-2-2-2-|
D|5-5-5-5-5-5-5-5-|----------------|5-5-5-5-5-5-5-5-|----------------|

G|----------------|----------------|
D|----------------|----------------|
A|----------------|3-3-3-3-3-3-3-3-|
D|2-2-2-2-2-2-2-2-|----------------|


VERSE 1   (0:26)

G|----------------|----------------|----------------|----------------|
D|----------------|----------------|----------------|----------------|
A|----------------|2---------------|----------------|2---------------|
D|5---------------|----------------|5---------------|----------------|  \
                                                                        |  x2
G|----------------|----------------|----------------|----------------|  /
D|----------------|----------------|2-2-2-2-2-2-2-2-|----------------|
A|----------------|3-3-3-3-3-3-3-3-|----------------|3-3-3-3-3-3-3-3-|
D|2-2-2-2-2-2-2-2-|----------------|----------------|----------------|


CHORUS 1   (0:49)

G|----------------|----------------|----------------|----------------|
D|----------------|----------------|----------------|----------------|
A|----------------|----------------|3-3-3-3-3-3-3-3-|0-0-0-0-0-0-0-0-|
D|2-2-2-2-2-2-2-2-|5-5-5-5-5-5-5-5-|----------------|----------------|

G|----------------|----------------|----------------|----------------|
D|----------------|----------------|----------------|----------------|
A|----------------|----------------|3-3-3-3-3-3-3-3-|5-5-5-5-5-5-5-5-|
D|2-2-2-2-2-2-2-2-|5-5-5-5-5-5-5-5-|----------------|----------------|


PRE-VERSE   (1:01)  -> Play intro

VERSE 2   (1:09)  -> Play verse 1

CHORUS 2   (1:32)  -> Play chorus 1, then play this:

G|----------------|----------------|----------------|----------------|
D|----------------|----------------|----------------|----------------|
A|----------------|----------------|3-3-3-3-3-3-3-3-|0-0-0-0-0-0-0-0-|
D|2-2-2-2-2-2-2-2-|5-5-5-5-5-5-5-5-|----------------|----------------|

G|----------------|----------------|----------------|2-2-2-2-2-2-2---|
D|----------------|----------------|----------------|----------------|
A|----------------|----------------|3-3-3-3-3-3-3-3-|----------------|
D|2-2-2-2-2-2-2-2-|5-5-5-5-5-5-5-5-|----------------|--------------0-|

INTERLUDE   (1:56)

G|----------------|----------------|----------------|----------------|
D|----------------|----------------|----------------|----------------|
A|----------------|--2-2---2-2---2-|--3-3---3-3-3-3-|----------------|
D|--2-2---2-2-2-2-|----------------|----------------|--5-5---5-5---5-|  \
                                                                        |  x2
G|----------------|----------------|----------------|----------------|  /
D|----------------|----------------|----------------|----------------|
A|--2-2---2-2-2-2-|----------------|--5-----5-5-5-5-|----------------|
D|----------------|--2-2---2-2---2-|----0-0---------|--3-3-0-3-5-3-0-|


G|----------------|----------------|----------------|----------------|
D|----------------|----------------|----------------|----------------|
A|----------------|2-2-2-2-2-2-2-2-|3-3-3-3-3-3-3-3-|----------------|
D|--2-2-2-2-2-2-2-|----------------|----------------|5-5-5-5-5-5-5-5-|

G|----------------|----------------|----------------|----------------|
D|----------------|----------------|----------------|----------------|
A|2-2-2-2-2-2-2-2-|----------------|--5-----5-5-5-5-|----------------|
D|----------------|2-2-2-2-2-2-2-2-|----0-0---------|--3-3-0-3-5-3-0-|

Rest 7 bars

G|----------------|
D|----------------|
A|----------------|
D|--------12\-----|


CHORUS 3   (2:43)  -> Play chorus 1, then play this:

G|----------------|----------------|----------------|----------------|
D|----------------|----------------|----------------|----------------|
A|----------------|----------------|3-3-3-3-3-3-3-3-|0-0-0-0-0-0-0-0-|
D|2-2-2-2-2-2-2-2-|5-5-5-5-5-5-5-5-|----------------|----------------|

G|----------------|----------------|----------------|----------------|
D|----------------|----------------|----------------|----------------|
A|----------------|----------------|3-3-3-3-3-3-3---|----------------|
D|2-2-2-2-2-2-2-2-|5-5-5-5-5-5-5-5-|--------------0-|--0---0---0-----|    -3:06

*******************************************************************************
*******************************   12.Sympathy   ******************************
*******************************************************************************

This song is not particularly difficult to play, though it is harder than most other
on the album. At the end of the verse riff there are descending arpeggios that require
quick jumps up and down the fretboard.

INTRO   (0:00)

G|--------|----------------|----------------|----------------|----------------|
D|--------|----------------|----------------|----------------|----------------|
A|--------|6-6-6-6-----3-3-|3-3-------------|----6-6-6---3-3-|3---------------|
D|12\-----|----------------|--------5-5-5-5-|----------------|----5---5-------|

G|----------------|----------------|----------------|----------------|
D|----------------|----------------|----------------|1---0-----------|
A|------------1---|1---------------|----------------|--------3---1---|
D|3---------------|--------0-------|1-------1-------|----------------|


VERSE 1   (0:08)

G|----------------|----------------|----------------|----------------|
D|----------------|----------------|----------------|----------------|
A|----------------|----------------|1-1-1-1-1-1-----|----------------|
D|5-5-5-5-5-5-----|----------------|----------------|----------------|  \
                                                                        |
G|----------------|----------------|----------------|----------------|  |
D|----------------|----------------|----------------|----------------|  |
A|----------------|----------------|3-3-3-3-3-3-----|----------------|  |  x2
D|3-3-3-3-3-3-----|----------------|----------------|----------------|  |
                                                                        |
G|----------------|----------------|                                    /
D|1---------------|----------------|
A|----1-----------|5---0-----------|
D|--------5---1---|--------4---0---|


PRE-CHORUS 1   (0:27)

G|----------------|----------------|----------------|----------------|
D|----------------|----------------|----------------|----------------|
A|----------------|----------------|0---0---0---0---|0---0---0---0---|
D|5---5---5---5---|5---5---5---5---|----------------|----------------|

G|----------------|----------------|----------------|----------------|
D|----------------|----------------|----------------|----------------|
A|1---1---1---1---|3---3---5---5---|----------------|----------------|
D|----------------|----------------|0---0---0---0---|0---0---12\-----|


CHORUS 1   (0:36)

G|----------------|----------------|----------------|----------------|
D|----------------|----------------|----------------|----------------|
A|6-6-6-6-----3-3-|3-3-------------|----6-6-6---3-3-|3---------------|
D|----------------|--------5-5-5-5-|----------------|----5---5-------|

G|----------------|----------------|----------------|----------------|
D|----------------|----------------|----------------|----------------|
A|6-6-6-6-----3-3-|3-3-------------|----6-6-6---3-3-|3---------------|
D|----------------|--------5-5-5-5-|----------------|----5-----5-5-5-|

G|----------------|----------------|----------------|----------------|
D|----------------|----------------|----------------|----------------|
A|6-6-6-6-----3-3-|3-3-------------|----6-6-6---3-3-|3---------------|
D|----------------|--------5-5-5-5-|----------------|----5---5-------|

G|----------------|----------------|----------------|----------------|
D|----------------|----------------|----------------|1---0-----------|
A|------------1---|1---------------|----------------|--------3---1---|
D|3---------------|--------0-------|1-------1-------|----------------|


VERSE 2   (0:52)  -> Play verse 1

PRE-CHORUS 2   (1:12)  -> Play pre-chorus 1

CHORUS 2   (1:20)  -> Play chorus 1 twice, then play this:

G|----------------|----------------|----------------|----------------|
D|----------------|----------------|----------------|1---0-----------|
A|------------1---|1---------------|----------------|--------3---1---|
D|3---------------|--------0-------|1-------1-------|----------------|


GUITAR SOLO   (1:56)

G|----------------|----------------|----------------|----------------|
D|----------------|----------------|----------------|----------------|
A|----------------|----------------|1---1---1---1---|1---1---1---1---|
D|5---5---5---5---|5---5---5---5---|----------------|----------------|

G|----------------|----------------|----------------|----------------|
D|----------------|----------------|----------------|----------------|
A|----------------|----------------|----------------|----------------|
D|3---3---3---3---|3---3---3---3---|6---6---6---6---|6---6---6---6---|

G|----------------|----------------|----------------|----------------|
D|----------------|----------------|----------------|----------------|
A|----------------|----------------|----------------|----------------|
D|1---1---1---1---|1---1---1---1---|4---4---4---4---|4---4---4---4---|

G|----------------|----------------|----------------|----------------|
D|----------------|----------------|----------------|----------------|
A|----------------|----------------|----------------|----------------|
D|5---5---5---5---|5---5---5---5---|0---0---0---0---|0---0---0---0---|

G|----------------|----------------|----------------|----------------|
D|----------------|----------------|----------------|----------------|
A|----------------|----------------|1---1---1---1---|1---1---1---1---|
D|5---5---5---5---|5---5---5---5---|----------------|----------------|

G|----------------|----------------|----------------|----------------|
D|----------------|----------------|----------------|----------------|
A|----------------|----------------|3---3---3---3---|3---3---3---3---|
D|3---3---3---3---|3---3---3---3---|----------------|----------------|

G|----------------|----------------|----------------|----------------|
D|----------------|----------------|----------------|----------------|
A|----------------|----------------|----------------|----------------|
D|1---1---1---1---|1---1---1---1---|4---4---4---4---|4---4---4---4---|

G|----------------|----------------|----------------|----------------|
D|----------------|----------------|----------------|----------------|
A|----------------|----------------|----------------|----------------|
D|5---5---5---5---|5---5---5---5---|0---0---0---0---|0---0---12\-----|


CHORUS 3   (2:28)  -> Play chorus 2 completely, then play this:

G|----------------|----------------|----------------|
D|----------------|----------------|----------------|
A|------------1---|1---------------|----------------|
D|3---------------|--------0-------|1---------------|    -3:18

*******************************************************************************
***************************   13.Burn The Evidence   **************************
*******************************************************************************

This song is not very hard to play at all. The only odd thing is the rhythm.

VERSE 1   (0:10)

G|----------------|----------------|----------------|----------------|
D|----------------|----------------|----------------|----------------|
A|--------5-------|--------5-------|--------5-------|3---------------|
D|5---------------|5---------------|5---------------|--------5-------|

G|----------------|----------------|----------------|----------------|
D|----------------|----------------|----------------|----------------|
A|--------5--5----|--------5--5----|--------5--5----|----------------|
D|5-----5---------|5-----5---------|5-----5---------|2---------------|

PRE-CHORUS 1   (0:29)

G|----------------|----------------|----------------|----------------|
D|----------------|----------------|----------------|----------------|
A|----------------|44004404-5-55---|----------------|44004404-5-55---|
D|-0-00----2-22---|----------------|-0-00----2-22---|----------------|

G|----------------|----------------|
D|----------------|----------------|
A|----------------|3-------1-------|
D|-0-00----2-22---|----------------|


VERSE 2   (0:44)

G|----------------|----------------|----------------|----------------|
D|----------------|----------------|----------------|----------------|
A|5-------0-------|--------0-------|--------0-------|--------0-------|
D|----------------|3-------------32|0---------------|3---------------|

G|----------------|----------------|----------------|----------------|
D|----------------|----------------|----------------|----------------|
A|--------0-------|--------0-------|--------0-------|--------0-------|
D|0---------------|3---------------|0---------------|3-------------87|

G|----------------|----------------|----------------|----------------|
D|----------------|----------------|----------------|----------------|
A|--------5--5----|--------5--5----|--------5--5----|3---------------|
D|5-----5---------|5-----5---------|5-----5---------|------0-5--5--87|

G|----------------|----------------|----------------|----------------|
D|----------------|----------------|----------------|----------------|
A|--------5--5----|--------5--5----|--------5--5----|----------------|
D|5-----5---------|5-----5---------|5-----5---------|2---------------|


PRE-CHORUS 2   (1:23)

G|----------------|----------------|----------------|----------------|
D|----------------|----------------|----------------|----------------|
A|----------------|44004404-5-55---|----------------|44004404-5-55---|
D|-0-00----2-22---|----------------|-0-00----2-22---|----------------|

G|----------------|----------------|
D|----------------|----------------|
A|----------------|44004404-5-55555|
D|-0-00----2-22---|----------------|


CHORUS 1   (1:36)

G|----------------|----------------|----------------|----------------|
D|----------------|----------------|----------------|----------------|
A|--------------0-|--------------0-|--------------0-|3-3-3-3-1-1-1-1-|
D|-5-555550-2-3---|-5-555550-2-3---|-5-555550-2-3---|----------------|  x2


INTERLUDE   (1:55)

G|----------------|----------------|----------------|----------------|
D|----------------|----------------|----------------|----------------|
A|55-55555-555-025|33-33333-333--03|1111111111111111|0000000000000000|
D|------------5---|------------35--|----------------|----------------|  x2

G|----------------|----------------|----------------|----------------|
D|----------------|22222222--------|----------------|----------------|
A|5555555555555555|--------33333333|1111111111111111|0000000000000000|
D|----------------|----------------|----------------|----------------|


PRE-CHORUS 3   (2:30)

G|----------------|----------------|----------------|----------------|
D|----------------|----------------|----------------|----------------|
A|----------------|----------------|----------------|44004404-5-55555|
D|----------------|----------------|-0-00----2-22---|----------------|


CHORUS 2   (2:34)

G|----------------|----------------|----------------|----------------|
D|----------------|----------------|----------------|----------------|
A|--------------0-|--------------0-|--------------0-|3-3-3-3-1-1-1-1-|
D|-5-555550-2-3---|-5-555550-2-3---|-5-555550-2-3---|----------------|  x3

G|----------------|----------------|----------------|----------------|
D|----------------|----------------|----------------|----------------|
A|--------------0-|--------------0-|--------------0-|3-------1-------|
D|-5-555550-2-3---|-5-555550-2-3---|-5-555550-2-3---|----------------|

G|----------------|
D|----------------|
A|----------------|
D|0---------------|    -3:40


Symbol Legend:

x3   = Play this section three times
~    = Let note ring
(1)  = Let note ring into next bar
\    = Slide down
/    = Slide up

That’s it. Any questions, comments, suggestions or corrections would be appreciated.
comments
We did not receive enough feedback on this tab! Please rate:
print report bad tab
1 2 3 4 5
1 comment total.
0 reply
Andrax20 wrote on March 2 2010, 11:03 pm

Absolute PERFECTION. I was able to play the whole album, and not a single note sounded off. Excellent work.

I want to post or [tab]
guest
You may want to rate the tab now too:
select rating
Please do not post tabs as comments. Select "correction" instead!