Oops, an error
Loading. Please wait.

Billy Talent Ii Tab

ver2
ver2

Album

More versions @911Tabs.com
6,023 views 5 this week
2 commentsread comments
1 2 3 4 5
excellent!
x 5
Autoscroll
+/-
esc
set tempo
stop
Contributor
Tuning
D A D G B E
Hey! There's an official Ultimate Guitar app which is ideal
for learning songs when you're away from computer. Get the app
WARNING: You are trying to view
                                    content from Ultimate-Guitar.com
                                    in an unauthorized application,
                                    which is prohibited.

                                    Please use an official Ultimate
                                    Guitar Tabs application for iPhone,
                                    iPad or Android to access legitimate
                                    chords, guitar, bass, and drum tabs
                                    from Ultimate-Guitar.com database.

                                    Type "ultimate guitar tabs" in Apple
                                    App Store's or Android Market's
                                    search to find the application.
------------------------------------------------------------------
                          Billy Talent 2 - Billy Talent
------------------------------------------------------------------

Welcome!
Look closely for small but important changes from the other tabs. None of these tabs
taken from other tabs on the internet. However many riffs and chords were grabbed from 
sheet music... So I thought I should share them with the world wide web! Enjoy!

Most changes are found on The Navy Song and Perfect World. However, different chords are 
in Devil in a Midnight Mass, Red Flag, This Suffering, Worker Bees,  Where is the Line, 
In Cowardice, Surrender, Burn the Evidence and Sympathy.

Pins And Needles is one of the only songs that has very few changes since the tabs out 
are already very accurate. Look closely though!

Tuning: D A D G B E (for entire album)

1. Devil in a Midnight Mass

|----------------------------------------------|
|----------------------------------------------|
|----------------------------------------------|
|----------------------------------------------|
|--------5-----------8-5-7---------------------|
|--5-7-8---0-8-0-7-0-------0-7h3-0-------------|

|----------------------------------------------|
|----------------------------------------------|
|----------------------------------------------|
|--------------------------0-7h3-0-5-7-8-------|
|--------5-----------8-5-7-0-7h3-0-5-7-8-------|
|--5-7-8---0-8-0-7-0-------0-7h3-0-5-7-8-------|

	Yeah!________________________________

|----------------------------------------------|
|----------------------------------------------|
|----------------------------------------------|
|----------------------------------------------|  x4
|------------8-5-7-----------------------------|
|--0-8-0-7-0-------0-7-3-0-5-7-8---------------|

Verse:

|----------------------------------------------|
|----------------------------------------------|
|----------------------------------------------|
|--0~------------------------------------------|  x3
|--0~-----7h3h0--------------------------------|
|--0~-----7h3h0-5-7-8--------------------------|

|----------------------------------------------|
|----------------------------------------------|
|----------------------------------------------|
|--0~------------------------------------------|
|--0~-----7h3h0-----3--------------------------|
|--0~-----7h3h0-5-7----------------------------|

Pre-Chorus:

   Hold your breath and count to four!
|--1--------------------0------------------------|
|--3--------------------5------------------------|
|--0--------------------0------------------------|
|--3--------------------5----------------------\-|
|--1--------------------0------------------------| \
|------------------------------------------------|  \
									    \ x2
|-------------------------------------------------|   /
|-------------------------------------------------|  /
|-------------------------------------------------| /
|-------------------------------------------------|
|------------8-5-7-------------3------------------|
|--0-8-0-7-0-------0-7-3-0-5-7--------------------|


   Footsteps down the hallway floor,
|--1--------------------0----------------------|
|--3--------------------5----------------------|
|--0--------------------0----------------------|
|--3--------------------5----------------------|
|--1--------------------0----------------------|
|----------------------------------------------|

  Getting closer,       to my door
|--0--------------------0----------------------|
|--6--------------------8----------------------|
|--0--------------------0----------------------|
|--7--------------------7----------------------|
|--5--------------------8----------------------|
|----------------------------------------------|

 I was alive but        now i’m singing...
|--1--------------------0----------------------|
|--3--------------------5----------------------|
|--0--------------------0----------------------|
|--3--------------------5----------------------|
|--1--------------------0----------------------|
|----------------------------------------------|

|--(0)-----------------------------------------|
|--(5)-----------------------------------------|
|--(0)-----------------------------------------|
|--(5)-----------------------------------------|
|--(0)----7h3h0-5-7-8--------------------------|
|---------7h3h0-5-7-8--------------------------|

Chorus :

  Silent Night!  For the rest of my life!
|--0---0-0--0-0--0-0--0-0--0-------------------|
|--6---6-6--6-6--6-6--6-6--6-------------------|
|--7---7-7--7-7--7-7--7-7--7-------------------|
|--7---7-7--7-7--7-7--7-7--7-------------------|
|--5---5-5--5-5--5-5--5-5--5-------------------|
|----------------------------------------------|


  Silent Night!  For the rest of my life!
|--0---0--0---0--0---0--0---0--0---0-----------|
|-10--10-10--10-10--10-10--10-10--10-----------|
|--0---0--0---0--0---0--0---0--0---0-----------|
|-10--10-10--10-10--10-10--10-10--10-----------|
|--8---8--8---8--8---8--8---8--8---8-----------|
|----------------------------------------------|

  Violent Knight! At the edge of your knife!
|--0---0--0---0--0---0--0---0--0---0-----------|
|-11--11-11--11-11--11-11--11-11--11-----------|
|--0---0--0---0--0---0--0---0--0---0-----------|
|-12--12-12--12-12--12-12--12-12--12-----------|
|-10--10-10--10-10--10-10--10-10--10-----------|
|----------------------------------------------|

Forgive me Father! Won’t make it right!
|--1--1-1-1-1-1-1-0----------------------------|
|--3--3-3-3-3-3-3-5----------------------------|
|--0--0-0-0-0-0-0-0----------------------------|
|--3--3-3-3-3-3-3-5----------------------------|
|--1--1-1-1-1-1-1-0----7h3h0-5-7-8-------------|
|----------------------7h3h0-5-7-8-------------|

  Silent Night!  For the rest of my life!
|--0---0-0--0-0--0-0--0-0--0-------------------|
|--6---6-6--6-6--6-6--6-6--6-------------------|
|--7---7-7--7-7--7-7--7-7--7-------------------|
|--7---7-7--7-7--7-7--7-7--7-------------------|
|--5---5-5--5-5--5-5--5-5--5-------------------|
|----------------------------------------------|


  Violent Knight! At the edge of your knife!
|--0---0--0---0--0---0--0---0--0---0-----------|
|-10--10-10--10-10--10-10--10-10--10-----------|
|--0---0--0---0--0---0--0---0--0---0-----------|
|-10--10-10--10-10--10-10--10-10--10-----------|
|--8---8--8---8--8---8--8---8--8---8-----------|
|----------------------------------------------|

You’re guilty!
|--0-0--0-0--0-0--0-0--0-0-0-0-0-0-0-0-0-------|
|-1111-1010--8-8--5-5--3-3-3-3-3-3-3-3-3-------|
|--0-0--0-0--0-0--0-0--0-0-0-0-0-0-0-0-0-------|
|-1212-1010--8-8--5-5--3-3-3-3-3-3-3-3-3-------|
|-1010--8-8--7-7--3-3--1-1-1-1-1-1-1-1-1-------|
|----------------------------------------------|

|----------------------------------------------|
|----------------------------------------------|
|----------------------------------------------|
|----------------------------------------------|
|----------------------------------------------|
|---7-3-0-5-7-8--------------------------------|

Bridge :

Whisper, Whisper, don’t make a sound...
|----------------------------------------------|
|----------------------------------------------|
|----------------------------------------------|
|----------------------------------------------|  x7
|------------8-5-7---------------5-------------|
|--0-8-0-7-0-------0-7-3-0-5-7-8---------------|

                 ...It’s in the ground
|----------------------------------------------|
|----------------------------------------------|
|----------------------------------------------|
|----------------------------------------------|
|------------8-5-7-----------------------------|
|--0-8-0-7-0-----------------------------------|

 Whisper! Whisper! Don’t make a sound!
|----------------------------------------------|
|----------------------------------------------|
|----------------------------------------------|
|----------------------------------------------|  x7
|------------8-5-7---------------5-------------|
|--0-8-0-7-0-------0-7-3-0-5-7-8---------------|

|----------------------------------------------|
|----------------------------------------------|
|----------------------------------------------|
|----------------------------------------------|
|------------8-5-7-----------------------------|
|--0-8-0-7-0-------0-7-3-0-5-7-8---------------|

2. Red Flag

Intro/Chorus

  Cast off the crutch that kills the pain!
|----------------------------------------------|
|----------------------------------------------|
|----------------------------------------------|
|-7--7-7-7-7-7-0-10-7-10-7-10-0-9--9-9-9-9-9---|
|-7--7-7-7-7-7-0-10-7-10-7-10-0-5--5-5-5-5-5---|
|-7--7-7-7-7-7-0-10-7-10-7-10-0-5--5-5-5-5-5---|

|-----------------------------------------------|
|-----------------------------------------------|
|-----------------------------------------------|
|-0--7--0-7--0-7-0---141414141414--0--9-0-9-0-9-|
|-0--3--0-3--0-3-0---101010101010--0--5-0-5-0-5-|
|-0--3--0-3--0-3-0---101010101010--0--5-0-5-0-5-|

|----------------------------------------------|
|----------------------------------------------|
|----------------------------------------------|
|-0--6--6-6-6-6-6-0--9--0-9--0-9-0-------------|
|-0--2--2-2-2-2-2-0--7--0-7--0-7-0-------------|
|-0--2--2-2-2-2-2-0--6--0-6--0-6-0-------------|

Verse 1

    Well I’ve never seen us act like this.
|---8-8-8-8----------------------------7-7-7-7-|
|--10101010----------------------------6-6-6-6-|
|---9-9-9-9----------------------------7-7-7-7-|
|----------------------------------------------|  x2
|----------------------------------------------|
|----------------------------------------------|

|--4-4-4-4-4---5--7----8-8-8-8---8-8-8-8-8-----|
|--3-3-3-3-3---x--x---10101010---8-8-8-8-8-----|
|--4-4-4-4-4---5--7----9-9-9-9---9-9-9-9-9-----|
|----------------------------------------------|
|----------------------------------------------|
|----------------------------------------------|

|--7--5--7-7-7-7---4-4-4/-10--10--8-7--------------|
|--x--x--6-6-6-6---3-3-3-------x--x-x--------------|
|--7--5--7-7-7-7---4-4-4/-10--10--9-7--------------|
|--------------------------------------------------|
|--------------------------------------------------|
|--------------------------------------------------|

|-8-8-8-8--8-8-8-8-8--7-5--7-7-7-7--4-4-4-4-4--5-7-|
|10101010--8-8-8-8-8--x-x--6-6-6-6--3-3-3-3-3--x-x-|
|-9-9-9-9--9-9-9-9-9--7-5--7-7-7-7--4-4-4-4-4--5-7-|
|--------------------------------------------------|
|--------------------------------------------------|
|--------------------------------------------------|

Pre-chorus :

The Red flag waving never meant the same...
|--5----5--------------------0-----------------|
|--6----6----3-3-3-3-3-3-3---1-----------------|
|--5----7----4-4-4-5-5-5-4---2-----------------|
|----------------------------2-----------------|
|----------------------------0-----------------|
|----------------------------------------------|

|--5----5--------------------0-----------------|
|--6----6----3-3-3-3-3-3-3---0-----------------|
|--5----7----4-4-4-5-5-5-4---1-----------------|
|----------------------------2-----------------|
|----------------------------2-----------------|
|----------------------------2-----------------|

Verse 2 :

    Like the smallest bee packs a sting...
|--8-8-8-8---8-8-8-8-8---7--5--7-7-7-7---------|
|-10101010---8-8-8-8-8---x--x--6-6-6-6---------|
|--9-9-9-9---9-9-9-9-9---7--5--7-7-7-7---------|
|----------------------------------------------|
|----------------------------------------------|
|----------------------------------------------|

|--4-4-4/-10--10--8-7---8-8-8-8---8-8-8-8-8----|
|--3-3-3-------x--x-x--10101010---8-8-8-8-8----|
|--4-4-4/-10--10--9-7---9-9-9-9---9-9-9-9-9----|
|----------------------------------------------|
|----------------------------------------------|
|----------------------------------------------|

|--7-5--7-7-7-7--4-4-4-4-4--5-7----------------|
|--x-x--6-6-6-6--3-3-3-3-3--x-x----------------|
|--7-5--7-7-7-7--4-4-4-4-4--5-7----------------|
|----------------------------------------------|
|----------------------------------------------|
|----------------------------------------------|

Bridge :
|-------0-0-0--------------------------------------|
|--1-1--1-1-1-1-0--3-3--3-3-3-3-0------------------|
|--2-2--------2-0--4-4--5-5-5-4-0------------------|
|-----------------------------------------------|\-|
|--------------------------------------------------| \
|--------------------------------------------------|  \
										x4
|---5-5---8-8-8-5-----5-5---8-8-8-5-------------|  /
|---6-6---6-6-6-6--0--6-6---6-6-6-6--0----------| /
|---7-7---7-7-7-7--0--5-5---5-5-5-5--0----------|
|-----------------------------------------------|
|-----------------------------------------------|
|-----------------------------------------------|


|---------0-0-0------------------------------------|
|--1-1-1--1-1-1-1-0--3-3-3-3-3-3-3-0---------------|
|--2-2-2--------2-0--4-4-4-5-5-5-4-0---------------|
|-----------------------------------------------|\-|
|--------------------------------------------------| \
|--------------------------------------------------|  \
										x2
|--5-5-5-8-8-8-5---5-5-5-8-8-8-5----------------|  /
|--6-6-6-6-6-6-6-0-6-6-6-6-6-6-6-0--------------| /
|--7-7-7-7-7-7-7-0-5-5-5-5-5-5-5-0--------------|
|-----------------------------------------------|
|-----------------------------------------------|
|-----------------------------------------------|

|----------3\---------|
|----------3\---------|
|----------3\---------|
|----------5\---------|
|----------5\---------|
|----------5\---------|

Outro :

Chorus, then end with

|---8-8-8-8------------------------------------|
|--10101010------------------------------------|
|---9-9-9-9------------------------------------|
|----------------------------------------------|
|----------------------------------------------|
|----------------------------------------------|

3. This suffering

|--------------------------------------------------|
|-----------------------------------13-------------|
|---------14------------------12----12-------------|
|--15------------15----14--10----10-10----------|\-|
|------12----12--12--------10----10----------------| \
|------12----12--12--------10----10----------------|  \
							x2
|-----------------------------------------------|  /
|---------------8-------------------------------| /
|-------7---9-----------------------------------|
|--8--5---5---5-----------------0---------------|
|-----5---5---5--------8-7-5\3--0---------------|
|-----5---5---5-----------------0---------------|

|--------------------------------------------------|
|------------------------------------13------------|
|---------14-------------------12----12------------|
|--15--12----12--15--15--14-10----10-10---------|\-|
|------12----12--12--12-----10----10---------------| \
|------12----12--12--12-----10----10---------------|  \
							x2
|-----------------------------------------------|  /
|---------------8-------------------------------| /
|-------7---9-----------------------------------|
|--8--5---5---5-----------------0---------------|
|-----5---5---5--------8-7-5\3--0---------------|
|-----5---5---5-----------------0---------------|

Verse:

Like a target drawn across my chest!
|------5-------------3---------------------------|
|------6-------------5---------------------------|
|------7-------------3---------------------------|
|------7-------------5-------------------------\-|
|------5-------------3---------------------------| \
|------------------------------------------------|  \
							x2
|------------------------------------------------|  /
|---------------8--------------------------------| /
|-------7---9------------------------------------|
|--8--5---5---5-----------------0----------------|
|-----5---5---5--------8-7-5\3--0----------------|
|-----5---5---5-----------------0----------------|
|------5-5----5-------3-3----3-------------------|
|------6-6----6-------5-5----5-------------------|
|------7-7----7-------3-3----3-------------------|
|--0---7-7----7----0--5-5----5-----------------\-|
|--0---5-5----5----0--3-3----3-------------------| \
|--0---------------0-----------------------------|  \
							x2
|-----------------------------------------------|  /
|---------------8-------------------------------| /
|-------7---9-----------------------------------|
|--8--5---5---5-----------------0---------------|
|-----5---5---5--------8-7-5\3--0---------------|
|-----5---5---5-----------------0---------------|

Pre-chorus :

Why don’t we end this lie, I can’t pretend...
|----------------------------------------------|
|-3---3---3---3---3---3---5---6----------------|
|---3---3---3---3---3---3---3---2--------------|
|----------------------------------------------|
|----------------------------------------------|
|----------------------------------------------|

|----------------------------------------------|
|-3---3---3---3---3---3---5---6----------------|
|---2---2---2---2---2---2---2---2--------------|
|----------------------------------------------|
|----------------------------------------------|
|----------------------------------------------|

|--6---6------------6---6----------------------|
|--3---3---5---6----3---3---5---6--------------|
|----0---0---0---0----0---0---0---5------------|
|----------------------------------------------|
|----------------------------------------------|
|----------------------------------------------|

|-5---5---5---5---3----------------------------|
|-6---6---6---6---5---5---5--------------------|
|---5---5---5---0---0---0---0------------------|
|----------------------------------------------|
|----------------------------------------------|
|----------------------------------------------|

Chorus :

|--1------5-------------------------------------|
|--3------6-------------------------------------|
|--3-x16--7-x16---------------------------------|
|--3------7-----8-8-8-8---------8-8-8-8---------|
|--1------5-----5-5-5-5-7-7-8-8-5-5-5-5-7-7-8-8-|
|---------------5-5-5-5-5-5-5-5-5-5-5-5-5-5-5-5-|

|----------------------------------------------|
|--------------------5-5-5-5-5-5-5-5-----------|
|--------------------5-5-5-5-5-5-5-5-----------|
|-7-7-7-7-7-5-3-3----5-5-5-5-5-5-5-5-----------|
|-3-3-3-3-3-3-3-3----3-3-3-3-3-3-3-3-----------|
|-3-3-3-3-3-3-3-3------------------------------|

|--1------5-------------------------------------|
|--3------6-------------------------------------|
|--3-x16--7-x16---------------------------------|
|--3------7-----8-8-8-8---------8-8-8-8---------|
|--1------5-----5-5-5-5-7-7-8-8-5-5-5-5-7-7-8-8-|
|---------------5-5-5-5-5-5-5-5-5-5-5-5-5-5-5-5-|

|----------------------------------------------|
|--------------------5-------------------------|
|--------------------5-------------------------|
|-7-7-7-7-7-5-3-3----5-------------------------|
|-3-3-3-3-3-3-3-3----3-------------------------|
|-3-3-3-3-3-3-3-3------------------------------|

Bridge :

|-5-5--55---101010--121212--101010-------------|
|-6-6--66---101010--121212--101010-------------|
|-7-7--77---101010--121212--101010-------------|
|-7-7--77--------------------------------------|
|-5-5--55--------------------------------------|
|----------------------------------------------|

|------------8-8-8--101010--8-8-8--------------|
|-----------101010--101010-101010--------------|
|------------9-9-9---9-9-9--9-9-9--------------|
|1010-1010-------------------------------------|
|-7-7--7-7-------------------------------------|
|-7-7--7-7-------------------------------------|

|------------8-8-8--101010--8-8-8--------------|
|------------6-6-6---6-6-6--6-6-6--------------|
|------------7-7-7---7-7-7--7-7-7--------------|
|1010-1010-------------------------------------|
|-8-8--8-8-------------------------------------|
|-8-8--8-8-------------------------------------|

|--0-0-0-0-0-0-0-0-0-0-0-0-0-0-0-0-------------|
|-10101010101010101010101010101010-------------|
|--0-0-0-0-0-0-0-0-0-0-0-0-0-0-0-0-------------|
|-10101010101010101010101010101010-------------|
|--8-8-8-8-8-8-8-8-7-7-7-7-7-7-7-7-------------|
|----------------------------------------------|


		All x2

Then :

|--5-------8-------8---------0------0-----------|
|--6------10-------6--------10-----10-----------|
|--7--x16--9--x16--7--x16----0--x8--0--x8-------|
|--7-------7----------------10-----10-----------|
|--5-------------------------8------7-----------|
|-----------(All-8th-notes)---------------------|

End on Intro Riff


4. Worker bees

Bass for 2 mesures
Bass + Drums for 2 mesures

Intro :

  March On!  Worker Bees! Know your E  ne my!
|----------------------------------------------|
|--8----4----6---8---9---------3----4--8--6----|
|--5----5----7---5--10----5----0----5--5--7----|
|--5----5----6---5--10----6----0----5--5--6----|
|--6----3----5---6---8----6----2----3--6--5----|
|-------------------------6--------------------|

Verse :

     We take our orders given by the queen!
|----------------------------------------------|
|--888888884444444466668888-9-9-9-9------------|
|--88888888555555557777888810101010------------|
|----------------------------------------------|
|----------------------------------------------|
|----------------------------------------------|

|----------------------------------------------|
|------------------444488886666----------------|
|--5555555577777777555588887777----------------|
|--6666666699999999----------------------------|
|----------------------------------------------|
|----------------------------------------------|

|----------------------------------------------|
|--888888884444444466668888-9-9-9-9------------|
|--88888888555555557777888810101010------------|
|----------------------------------------------|
|----------------------------------------------|
|----------------------------------------------|

|---------------------------88888888-----------|
|------------------44446666-88888888-----------|
|--555555557777777755557777-55555555-----------|
|--6666666699999999---------55555555-----------|
|---------------------------66666666-----------|
|----------------------------------------------|

Chorus :

|--------------------------------------------------|
|--9-9-9--8-8-8--6-6-6-----------------------------|
|-101010--5-5-5--7-7-7--8-8-8----------------------|
|-101010--5-5-5--6-6-6--6-6-6-------------------|\-|
|--8-8-8--6-6-6--5-5-5--6-6-6----------------------| \
|-----------------------6-6-6----------------------|  \
							x3
|-----------------------------------------------|  /
|---------------------------8-8-8-8-------------| /
|-----------8-------7---------------------------|
|---5-5-5-5---5-5-5---5-5-5---------------------|
|---5-5-5-5---5-5-5---5-5-5---------------------|
|---5-5-5-5---5-5-5---5-5-5---------------------|

 Can we fight to save our souls!
|----------------------------------------------|
|--4-4-4-4--3-3-3-3----------------------------|
|--5-5-5-5--0-0-0-0----------------------------|
|--5-5-5-5--x-x-x-x-1010101010101010-----------|
|--3-3-3-3--1-1-1-1--6-6-6-6-6-6-6-6-----------|
|--------------------6-6-6-6-6-6-6-6-----------|

Bridge :

 And we’ll march! along with our blindfolds on!
|----------------------------------------------|
|----------------------------------------------|
|----------------------------------------------|
|-1-1-1-1-0-1-1-1-0--6-6-6-6-0-6-6-6-0---------|
|-1-1-1-1-0-1-1-1-0--6-6-6-6-0-6-6-6-0---------|
|-1-1-1-1-0-1-1-1-0--6-6-6-6-0-6-6-6-0---------|

|--------------------3-3-3-3-3-3-3-3-----------|
|--------------------4-4-4-4-4-4-4-4-----------|
|--------------------5-5-5-5-5-5-5-5-----------|
|-1-1-1-1-0-1-1-1-0--5-5-5-5-5-5-5-5-----------|
|-1-1-1-1-0-1-1-1-0--3-3-3-3-3-3-3-3-----------|
|-1-1-1-1-0-1-1-1-0----------------------------|

|----------------------------------------------|
|----------------------------------------------|
|---------------------8-8-8-8---8-8-8----------|
|--5-5-5-5-0-5-5-5-0--6-6-6-6---6-6-6-0--------|
|--5-5-5-5-0-5-5-5-0--6-6-6-6---6-6-6-0--------|
|--5-5-5-5-0-5-5-5-0--6-6-6-6---6-6-6-0--------|

|----------------------------------------------|
|--4-4-4-4--3-3-3-3----------------------------|
|--5-5-5-5--0-0-0-0----------------------------|
|--5-5-5-5--x-x-x-x-1010101010101010-----------|
|--3-3-3-3--1-1-1-1--6-6-6-6-6-6-6-6-----------|
|--------------------6-6-6-6-6-6-6-6-----------|

Solo :
All 16th notes
|----------------------------------------------|
|-8-8-8-8-8-8-8-8-4-4-4-4-4-4-4-4-6-6-6-6------|
|-8-8-8-8-8-8-8-8-5-5-5-5-5-5-5-5-7-7-7-7------|
|----------------------------------------------|
|----------------------------------------------|
|----------------------------------------------|

|---------------------------------------------------|
|-8-8-8-8--9-9-9-9-9-9-9-9-9-9-9-9-1313131313131313-|
|-8-8-8-8-10101010-8-8-8-8-8-8-8-8--8-8-8-8-8-8-8-8-|
|---------------------------------------------------|
|---------------------------------------------------|
|---------------------------------------------------|

|----------------------------------------------|
|--121212121212121213131313-15151515-----------|
|---7-7-7-7-7-7-7-7-8-8-8-8-10101010-----------|
|----------------------------------------------|
|----------------------------------------------|
|----------------------------------------------|

|----------------------------------------------|
|--1616161616161616131313131313131315151515----|
|--1212121212121212-8-8-8-8-8-8-8-810101010----|
|----------------------------------------------|
|----------------------------------------------|
|----------------------------------------------|

|----------------------------------------------|
|-1616161618181818181818181616161618181818-----|
|-1212121213131313131313131212121213131313-----|
|----------------------------------------------|
|----------------------------------------------|
|----------------------------------------------|

|-----------------------------------------------------|
|--2020202020202020-20202020202020202020202020202020--|
|--1515151515151515-15151515151515151515151515151515--|
|-----------------------------------------------------|gradually bend b string to 1/2 a step
|-----------------------------------------------------|and G string one full step simultaneously
|-----------------------------------------------------|
End on Cm after bridge


5. Pins and Needles

Intro :

|---------------1---3---5--------------------------------|
|---------------3---4-----6------------------------------|
|---------------------------7\-----------------------5---|
|-------7---8-------------------------0---3---3-5/7------|  x2
|---5h6---------------------------1h3--------------------|
|-5-------5---0---0---0---------1-------1---0-------0----|

Verse :

|--------------------------------------------------|
|-(held for two counts each)-----------------------|
|------------------------------------------------5-|
|--5~-0~-1~-0~-5~-0~--------------0---3---3-5/7----|
|--5~-0~-1~-0~-5~-0~----------1h3------------------|
|--5~-0~-1~-0~-5~-0~--------1-------1---0-------0--|

Chorus :

|-------------------------------------------------|
|-4------4h3--------------------------------------|
|-5----5-----5----------------5-------------------|
|-5--5---------5----7----5h7--3-------5-8-7-5-----|
|-3----------------------3----------5-------------|
|----------------3-----3--------3/5-----------5---|

|--------------------------------------------------|
|----------------------------------------3--4~-----|
|-----5------------------------------3/5----5~-----|
|-7-------8---7--------1-5-3-1-----3--------5~--7~-|
|--------------------1---------0-1----------3~--3~-|
|---0---0---0-----1-----------------------------3~-|

Bridge :

|-6-6-6-6-6-6-6-6---------------------------------|
|-6-6-6-6-6-6-6-6---------------------------------|
|-0-0-0-0-0-0-0-0---------------------------------|
|-5-5-5-5-5-5-5-5-5-5-5-5-5-5-5-5-----------------|
|-6-6-6-6-6-6-6-6-5-5-5-5-5-5-5-5-----------------|
|-----------------5-5-5-5-5-5-5-5-----------------|

|-------------------------------------------------|
|-------------------------------------------------|
|--------------5---3--3--2------------------------|
|--3-3-7-3-5-7-3---1--1--1--3--0------------------|
|--3-3---3---3-3---1--1--1--1--0------------------|
|--3-3---3---3-3---1--1--1--1--0------------------|

6. Fallen Leaves

|-------------------------------------------------|
|-4-4-4-4-3-3-3-3-3-3-6-4-4-4-4-4-1-1-1-1-1-1-1-1-|
|-5-0-5-0-4-0-4-0-4-0-0-0-3-0-3-0-1-0-1-0-x-x-x-x-|
|-----------------------------------------3-3-3-3-|
|-------------------------------------------------|
|-------------------------------------------------|

|-------------------------------------------------|
|--1-1-1/3-0-0-0-0--------------------------------|
|----------0-0-0-0--------------------------------|
|--1-1-1/3-0-0-0-0--------------------------------|
|-------------------------------------------------|
|-------------------------------------------------|


|-----------------------------------------------------------|
|-4--4-3----------------------------------------------------|
|-5--5-3----------------------------------------------------|
|-5--5-3--5--5-55-6-5-3-1-1-0--6--6-5-3--3--0-1-1-1-3-5-5-5-|
|-3--3-3--5--5-55-6-5-3-1-1-0--6--6-5-3--3--0-1-1-1-3-5-5-5-|
|---------5--5-55-6-5-3-1-1-0--6--6-5-3--3--0-1-1-1-3-5-5-5-|

Verse :

|--3----------------------------------------------|
|--4-------------8--------------------------------|
|--5-------------8--------------------------------|
|--5----5-5-0----8----5-5-0-----------------------|  x2
|--3----5-5-0----6----5-5-0-----------------------|
|-------5-5-0---------5-5-0-----------------------|

|--3-3-3---------------------------------------------------------|
|--4-4-4---------------------------------------------------------|
|--5-5-5-------------------3-3-3---8-8-8-7-5-5-5-----------------|
|--5-5-5-0101010-0121212-0-1-1-1-0-6-6-6-5-3-3-3-0-1-1-1-3-5-5-5-|
|--3-3-3-0-6-6-6-0-8-8-8-0-1-1-1-0-6-6-6-5-3-3-3-0-1-1-1-3-5-5-5-|
|--------0-6-6-6-0-8-8-8-0-1-1-1-0-6-6-6-5-3-3-3-0-1-1-1-3-5-5-5-|

|--3----------------------------------------------|
|--4-------------8--------------------------------|
|--5-------------8--------------------------------|
|--5----5-5-0----8----5-5-0-----------------------|  x2
|--3----5-5-0----6----5-5-0-----------------------|
|-------5-5-0---------5-5-0-----------------------|

|--3-3-3------------------------------------------|
|--4-4-4------------------------------------------|
|--5-5-5-------------------3-3-3------------------|
|--5-5-5-0101010-0121212-0-1-1-1-0----------------|
|--3-3-3-0-6-6-6-0-8-8-8-0-1-1-1-0----------------|
|--------0-6-6-6-0-8-8-8-0-1-1-1-0----------------|

|-------------------------------------------------|
|-------------------3-3-3-3-3---333333------------|
|--8-8-8-8-8-8-8-8--0-0-0-0-0---000000------------|
|--6-6-6-6-6-6-6-6--3-3-3-3-3---333333------------|
|--6-6-6-6-6-6-6-6--2-2-2-2-2---222222------------|
|--6-6-6-6-6-6-6-6--P.M------|--------------------|

Chorus :

|-----------------------------------------------------------|
|-4--4-3----------------------------------------------------|
|-5--5-3----------------------------------------------------|
|-5--5-3--5--5-55-5-3-0-1-1-0--6--6-5-3--3--0-1-1-1-3-5-5-5-|
|-3--3-3--5--5-55-5-3-0-1-1-0--6--6-5-3--3--0-1-1-1-3-5-5-5-|
|---------5--5-55-5-3-0-1-1-0--6--6-5-3--3--0-1-1-1-3-5-5-5-|


Solo :

|-------------------------------------------------|
|-----------------8v--------------------8v--------|
|--5h7h8--5b7-----------7h8h10--7b8---------------|
|--------------9---------------------8------------|
|-------------------------------------------------|
|-------------------------------------------------|

|-------------------------------------------------|
|--------8h9------8h9------8-------11-13/15-------|
|--10--------8--------8------8-10-----------------|
|-----10-------10-------10------------------------|
|-------------------------------------------------|
|-------------------------------------------------|

|-------------------------------------------------|
|-----------------8v--------------------8v--------|
|--5h7h8--5b7-----------7h8h10--7b8---------------|
|--------------9---------------------8------------|
|-------------------------------------------------|
|-------------------------------------------------|

|-------------------------------------------------|
|--------8h9------8h9------8----------11\---------|
|--10--------8--------8------8-----10-------------|
|-----10-------10-------10-----12-----------------|
|-------------------------------------------------|
|-------------------------------------------------|

Bridge :

|--4---------------------3------------------------|
|--6---------------------4---------8-8-8-8--------|
|--5---------------------5---------8-8-8-8--------|
|--3---------9-9---------5---------8-8-8-8--------|
|--3---------5-5---------3---------6-6-5-6--------|
|--3---------5-5----------------------------------|

|--4---------------------3---------8-8-8-8--------|
|--6---------------------4--4-3----8-8-8-8--------|
|--5---------------------5------5--8-8-8-8--------|
|--3--3-5-6--9-9---------5---------8-8-8-8--------|
|--3---------5-5---------3---------6-6-5-6--------|
|--3---------5-5----------------------------------|

|-----------------1-1-1-1-1--111111---------------|
|-----------------3-3-3-3-3--333333---------------|
|-7-7-7-7-7-7-7-7-0-0-0-0-0--000000---------------|
|-5-5-5-5-5-5-5-5-3-3-3-3-3--333333---------------|
|-5-5-5-5-5-5-5-5-2-2-2-2-2--222222---------------|
|-5-5-5-5-5-5-5-5---------------------------------|

End on Cm

7. Where is the line?

Intro :

|------0-------0-------0-------0----0----0----0----0-|
|------3-------3-------3-------3----3----3----3----3-|
|----0-------0-------0-------0------0----0----0----0-|
|--4-------4-------4-------4-----55---22---55---22---|
|2-------4-------5-------5-------55---22---55---22---|
|--------------------------------55---22---55---22---|
- - -let ring- - - - - - - - ->  PM   PM   PM   PM

|-------0-------0-------0-------0-----5-------2---|
|-------3-------3-------3-------3-----3-------3---|
|-----0-------0-------0-------0-------0-------0---|
|---4-------4-------4-------4---------0-------3---|
|-2-------4-------5-------5-----------------------|
|---Let-all-ring----------------------------------|

Chorus :

|-2/----------------------------------------------|
|-3/--10-10--1010---10-10--1010101010-------------|
|------7--7---7-7----7--7---7-7-7-7-7-------------|
|-3/---7--7---7-7----7--7---7-7-7-7-7-------------|
|------9--9---9-9----9--9---9-9-9-9-9-------------|
|------0--0---0-0----0--0---0-0-0-0-0-------------|

|------0--0---0-0----0--0---0-0-0-0-0-------------|
|------7--7---7-7----7--7---7-7-7-7-7-------------|
|------0--0---0-0----0--0---0-0-0-0-0-------------|
|------x--x---x-x----x--x---x-x-x-x-x-------------|
|------7--7---7-7----7--7---7-7-7-7-7-------------|
|-------------------------------------------------|

|------0--0---0-0----0--0---0-0-0-0-0-------------|
|------3--3---3-3----3--3---3-3-3-3-3-------------|
|------0--0---0-0----0--0---0-0-0-0-0-------------|
|------4--4---4-4----4--4---4-4-4-4-4-------------|
|------2--2---2-2----2--2---2-2-2-2-2-------------|
|-------------------------------------------------|

|--0---0--0---------------------------------------|
|--2---2--2b3b2-----------------------------------|
|--0---0--0---------------------------------------|
|--2---2--2------4---4-4-4-4-4-4-00---------------|
|--0---0--0------4---4-4-4-4-4-4-00---------------|
|----------------4---4-4-4-4-4-4-00---------------|

Verse :

|--0------0------0-----0----------------|
|-10------7------3-----2----------------|
|--7------0------0-----0----------------|
|--7------x------4-----2----------------|
|--9------7------2-----0----------------|
|--0-----Let-ring-for-8-counts-each-----|

|--0------0------0-----0---0--0-----0-0-0-0-0-0---|
|-10------7------3-----2---2--2b3b2-2-2-2-2-2-2---|
|--7------0------0-----0---0--0-----0-0-0-0-0-0---|
|--7------x------4-----2---2--2-----2-2-2-2-2-2---|
|--9------7------2-----0---0--0-----0-0-0-0-0-0---|
|--0----------------------------------------------|

Pre-chorus :

 When did they assume? Putting on a costume...
|-------------------------------------------------|
|-------------------------------------------------|
|-------------------------------------------------|
|------2-2-2-2-2-2-2-2-5-5-5-5-5-5-5-5------------|
|------2-2-2-2-2-2-2-2-5-5-5-5-5-5-5-5------------|
|------2-2-2-2-2-2-2-2-5-5-5-5-5-5-5-5------------|

  Gave them the right to? Ostracize...
|------0-0-0-0-0-0-0-0-0-0-0-0-0-0-0-0------------|
|------3-3-3-3-3-3-3-3-5-5-5-5-5-5-5-5------------|
|------0-0-0-0-0-0-0-0-0-0-0-0-0-0-0-0------------|
|------4-4-4-4-4-4-4-4-5-5-5-5-5-5-5-5------------|
|------2-2-2-2-2-2-2-2-4-4-4-4-4-4-4-4------------|
|-------------------------------------------------|

  After the woodwork! Art Aficionado
|-------------------------------------------------|
|-------------------------------------------------|
|-------------------------------------------------|
|------2-2-2-2-2-2-2-2-5-5-5-5-5-5-5-5------------|
|------2-2-2-2-2-2-2-2-5-5-5-5-5-5-5-5------------|
|------2-2-2-2-2-2-2-2-5-5-5-5-5-5-5-5------------|

	      Answer one question!
|------0-0-0-0-0-0-0-0-0~-------------------------|
|------3-3-3-3-3-3-3-3-5~-------------------------|
|------0-0-0-0-0-0-0-0-0~-------------------------|
|------4-4-4-4-4-4-4-4-5~-------------------------|
|------2-2-2-2-2-2-2-2-4~-------------------------|
|-------------------------------------------------|

Bridge :

After the A7 chord from chorus
|-------------------------------------------------|
|-Gradually-lift-P.M------------------------------|
|-------------------------------------------------|
|--4-4-4-4-4-4-4-4-----9-9-9-9--11b12b11p0--------|
|--4-4-4-4-4-4-4-4-----9-9-9-9--------------------|
|--4-4-4-4-4-4-4-4-----9-9-9-9--------------------|

|-------------------------------------------------|
|-------------------------------------------------|
|----------------------------7---9----------------|
|-2-2-2-2--4b5b4p0---5-5-9-5---5---5--------------|
|-2-2-2-2------------5-5---5---5---5--------------|
|-2-2-2-2------------5-5---5---5---5--------------|

|--------------------------------------------------|
|--------------------------------------------------|
|-11--11--11-9-7--7-7-7-7-7-7-7-7--4-4-4-4-4-4-4-4-|
|--7---7---7-5-4--5-5-5-5-5-5-5-5--2-2-2-2-2-2-2-2-|
|--0---0---0-0-0--5-5-5-5-5-5-5-5--2-2-2-2-2-2-2-2-|
|--0---0---0-0-0--5-5-5-5-5-5-5-5--2-2-2-2-2-2-2-2-|

|-------------------------------------------------|
|-------------------------------------------------|
|--9---9---9b11b9--7---6--------------------------|
|--7---7---7-------5---4--------------------------|
|--7---7---7-------5---4--------------------------|
|--7---7---7-------5---4--------------------------|

End on the Dadd9 chord after strumming chorus notes with constant 8th notes.


8. Covered in Cowardice

|--------------------------------------------------|
|----------------------------------7---------------|
|-----------------------------7----x---------------|
|-------------------7----8---------7-bend-1/2------|step
|-5-----7-----8--------------------5--up-and-down--|
|---5-5---5-5---5-5--5-5---5----5--0----3-times----|

|----------------------------------3~-------------|
|----------------------------------x--------------|
|----------------------------10----3~-------------|
|------------------10---12---------1~-------------|
|-8----10----12--------------------1~-------------|
|---8-8---8-8---8-8--8-8---8----8--1~-------------|

|--------------------------------------------------|
|----------------------------------7-7-7-7-7-7-7-7-|
|-----------------------------7----x-x-x-x-x-x-x-x-|
|-5-5-5---5-5---5-5-7-5-5-8-5---5--7-7-7-7-7-7-7-7-|
|-5-5-5-7-5-5-8-5-5---5-5---5---5--5-5-5-5-5-5-5-5-|
|-5-5-5---5-5---5-5---5-5---5---5--0-0-0-0-0-0-0-0-|

|--------------------------------------3-3-3-3-3-3-|
|--------------------------------------x-x-x-x-x-x-|
|---------------------------------10---3-3-3-3-3-3-|
|-8-8-8----8-8----8-8-10-8-8-12-8---8--1-1-1-1-1-1-|
|-8-8-8-10-8-8-12-8-8----8-8----8---8--1-1-1-1-1-1-|
|-8-8-8----8-8----8-8----8-8----8---8--1-1-1-1-1-1-|

|-------------------|
|-------------------|
|-------------------|
|--10-10-10\--------|
|--10-10-10\--------|
|--10-10-10\--------|

Verse :

Twisted tongues will place you in their category...

|---Hold each for 4 counts----------3-------------|
|-------------7----------3----------x-------------|
|--7----------x----------3----------3-------------|
|--5----------7----------x----------1-------------|
|--5----------5----------1----------1-------------|
|--5----------0----------1------------------------|

|-------------------------------------------------|
|---------------------------------7---------------|
|--7-----7-----7-----7-----7h8-7--x---------------|
|---------------------------------7-bend-1/2-step-|
|---------------------------------5--up-and-down--|
|----5-5---5-5---5-5---5-5--------0----3-times----|

|---------------------------------3-3-3-3-3-333333-|
|---------------------------------x-x-x-x-x-xxxxxx-|
|--7-----7-----7-----7-----7h8-7--3-3-3-3-3-333333-|
|---------------------------------1-1-1-1-1-111111-|
|---------------------------------1-1-1-1-1-111111-|
|----8-8---8-8---8-8---8-8--------1-1-1-1-1-111111-|

Pre-Chorus :

   Cowards that hide behind their words!
|-3-3-3-3-3-3-3-3-3-3-3-3-3-3-3-3-3-3-3-3-3-3-3-3-|
|-4-4-4-4-4-4-4-4-4-4-4-4-4-4-4-4-3-3-3-3-3-3-3-3-|
|-5-5-5-5-5-5-5-5-3-3-3-3-3-3-3-3-3-3-3-3-3-3-3-3-|
|-------------------------------------------------|
|-------------------------------------------------|
|-------------------------------------------------|

|-5-5-5-5-5-5-5-5-3-3-3-3-3-3-3-3-3-3-3-3-3-3-3-3-|
|-6-6-6-6-6-6-6-6-4-4-4-4-4-4-4-4-4-4-4-4-4-4-4-4-|
|-5-5-5-5-5-5-5-5-5-5-5-5-5-5-5-5-3-3-3-3-3-3-3-3-|
|-------------------------------------------------|
|-------------------------------------------------|
|-------------------------------------------------|

|-3-3-3-3-3-3-3-3-5~------------------------------|
|-3-3-3-3-3-3-3-3-6~------------------------------|
|-3-3-3-3-3-3-3-3-5~------------------------------|
|-------------------------------------------------|
|-------------------------------------------------|
|-------------------------------------------------|

Chorus :

|-------------------------------------------------|
|-------------------------------------------------|
|-------------------------------------------------|
|--8-8-8-8--8-----------8----------------8----0---|
|--5-5-5-5--x-----5--8-------------------x----0---|
|--5-5-5-5--7b8---5---------0---5-5-5-5--7b8--0---|

|-3-3-3-3-3-3-3-3-3-3-3-3-3-3-3-3-----------------|
|-x-x-x-x-x-x-x-x-4-4-4-4-4-4-4-4-----------------|
|-3-3-3-3-3-3-3-3-5-5-5-5-5-5-5-5-----------------|
|-1-1-1-1-1-1-1-1-5-5-5-5-5-5-5-5-5-5-5-5--8----3-|
|-1-1-1-1-1-1-1-1-3-3-3-3-3-3-3-3-5-5-5-5--x----3-|
|-1-1-1-1-1-1-1-1-----------------5-5-5-5--7b8--3-|

|-------------------------------------------------|
|-------------------------------------------------|
|-------------------------------------------------|
|--8-8-8-8--8-----------8----------------8----0---|
|--5-5-5-5--x-----5--8-------------------x----0---|
|--5-5-5-5--7b8---5---------0---5-5-5-5--7b8--0---|

|-3-3-3-3-3-3-3-3-3-3-3-3-3-3-3-3-----------------|
|-x-x-x-x-x-x-x-x-4-4-4-4-4-4-4-4-----------------|
|-3-3-3-3-3-3-3-3-5-5-5-5-5-5-5-5-----------------|
|-1-1-1-1-1-1-1-1-5-5-5-5-5-5-5-5-8-8-8-8-8-8-8-8-|
|-1-1-1-1-1-1-1-1-3-3-3-3-3-3-3-3-5-5-5-5-5-5-5-5-|
|-1-1-1-1-1-1-1-1-----------------5-5-5-5-5-5-5-5-|

|-5-5-5-5-5-5-5-5-3-3-3-3-3-3-3-3-3-3-3-3-3-3-3-3-|
|-6-6-6-6-6-6-6-6-x-x-x-x-x-x-x-x-4-4-4-4-4-4-4-4-|
|-5-5-5-5-5-5-5-5-3-3-3-3-3-3-3-3-5-5-5-5-5-5-5-5-|
|-3-3-3-3-3-3-3-3-1-1-1-1-1-1-1-1-5-5-5-5-5-5-5-5-|
|-3-3-3-3-3-3-3-3-1-1-1-1-1-1-1-1-3-3-3-3-3-3-3-3-|
|-3-3-3-3-3-3-3-3-1-1-1-1-1-1-1-1-----------------|

|-------------------------------------------------|
|-------------------------------------------------|
|-------------------------------------------------|
|--5-5-5-5--8-----0~------------------------------|
|--5-5-5-5--x-----0~------------------------------|
|--5-5-5-5--7b8---0~------------------------------|

Verse 2 :

|-------------------------------------------------|
|---------------------------------7---------------|
|--7-----7-----7-----7-----7h8-7--x---------------|
|---------------------------------7-bend-1/2-step-|
|---------------------------------5--up-and-down--|
|----5-5---5-5---5-5---5-5--------0----3-times----|


|---------------------------------3~---------------|
|---------------------------------x----------------|
|--7-----7-----7-----7-----7h8-7--3~---------------|
|---------------------------------1~-----10-10-10\-|
|---------------------------------1~-----10-10-10\-|
|----8-8---8-8---8-8---8-8--------1~-----10-10-10\-|

Then do verse 1 from here.

Bridge :

|-3-3-3-3-5-5-5-5-6-6-6-6-6-6-6-6----|
|-4-4-4-4-6-6-6-6-8-8-8-8-8-8-8-8----|
|-5-5-5-5-7-7-7-7-8-8-8-8-8-8-8-8----|
|-5-5-5-5-7-7-7-7-8-8-8-8-8-8-8-8----|
|-3-3-3-3-5-5-5-5-6-6-6-6-6-6-6-6----|
|------------------------------------|

|-6-6-6-6-8-8-8-8-9-9-9-9-9-9-9-9----|
|-8-8-8-8101010101010101010101010----|
|-8-8-8-8101010101111111111111111----|
|-8-8-8-8101010101111111111111111----|
|-6-6-6-6-8-8-8-8-9-9-9-9-9-9-9-9----|
|------------------------------------|

|-3-3-3-3-----------------------------------------|
|-4-4-4-4------------------------4-3--------------|
|-5-5-5-5------------------------x---5-3-2-3-5-3~-|
|-5-5-5-5---------8-8-8-8--8-----0----------------|
|-3-3-3-3--5b6----5-5-5-5--x-----0----------------|
|-----------------5-5-5-5--7b8---0----------------|

|-3-3-3-3-5-5-5-5-6-6-6-6-6-6-6-6----|
|-4-4-4-4-6-6-6-6-8-8-8-8-8-8-8-8----|
|-5-5-5-5-7-7-7-7-8-8-8-8-8-8-8-8----|
|-5-5-5-5-7-7-7-7-8-8-8-8-8-8-8-8----|
|-3-3-3-3-5-5-5-5-6-6-6-6-6-6-6-6----|
|------------------------------------|

|-6-6-6-6-8-8-8-8-9-9-9-9-9-9-9-9----|
|-8-8-8-8101010101010101010101010----|
|-8-8-8-8101010101111111111111111----|
|-8-8-8-8101010101111111111111111----|
|-6-6-6-6-8-8-8-8-9-9-9-9-9-9-9-9----|
|------------------------------------|

|-3-3-3-3--------------------------------33333333-|
|-4-4-4-4------------------4-3-----------xxxxxxxx-|
|-5-5-5-5------------------x---5-3-2-3-5-3~~~~~~~-|
|-5-5-5-5-----8-8-8-8-8----0-------------11111111-|
|-3-3-3-3-5b6-5-5-5-5-x----0-------------11111111-|
|-------------5-5-5-5-7b8--0-------------11111111-|

Ending :

|-------------------------------------------------|
|-------------------------------------------------|
|-------------------------------------------------|
|--8-8-8-8--8-----------8----------------8----5---|
|--5-5-5-5--x-----5--8-------------------x----5---|
|--5-5-5-5--7b8---5---------0---5-5-5-5--7b8--5---|


9. Surrender

|-----7-----7----------8-----8--------------------|
|-----0-----0----------0-----0--------------------|
|---5-----5---5------0-----0---0------------------|
|-7-----7-------7--5-----5-------5----------------|
|-------------------------------------------------|
|-------------------------------------------------|

|----12-----12-----------10-----------------------|
|-----0------0------------0---------9-------------|
|--10-----10---10-------9---------7---------------|
|12-----12-------12--10-----10--9-----9-----------|
|-------------------------------------------------|
|-------------------------------------------------|

Verse :

|----Hold-each-note-for-4-counts------------------|
|-------------------------------------------------|
|---5~-----7~----10~-----9~----9~-----------------|
|---7~-----5~----12~----10~----9~-----------------|  x2
|-------------------------------------------------|
|-------------------------------------------------|

|-------------------------------------------------|
|-------------------------------------------------|
|-55555555777777771010101010101010-9-9-9-99999----|
|-77777777555555551212121212121212101010109999----|  x2
|-------------------------------------------------|
|-------------------------------------------------|

Chorus :

|---------------------------------------------------|
|-------------------------------------------0-------|
|---------0----------------0------------------0-----|
|-----7-----7----------9-----9---------10------10---|
|---3---3-----3------5---5-----5------7---7-------7-|
|-3-------------3--5-------------5--7---------------|

|-----------0-----0-----------------------------------0~
|-------------5---------------------------------------5~
|-------2-------2-----------0----------------0--------2~
|---------4-------------7-----7----------9-----9------4~
|-----0---------------3---3-----3------5---5-----5----0~
|---0---------------3-------------3--5-------------5--0~

Bridge :

|---------------------------------------------------|
|---------------------------------------------------|
|---------------------------------------------------|
|-7-7-7-7-7-7-7-7-8-8-8-8---8-8-8-3-3-3-3-3-3-3-3---|
|-7-7-7-7-7-7-7-7-8-8-8-8---8-8-8-3-3-3-3-3-3-3-3---|
|-7-7-7-7-7-7-7-7-8-8-8-8---8-8-8-3-3-3-3-3-3-3-3---|

|---------------------------------------------------|
|---------------------------------------------------|
|---------------------------------------------------|
|-5-5-5-5-5-5-5-5-7-7-7-7-7-7-7-7-8-8-8-8---8-8-8---|
|-5-5-5-5-5-5-5-5-7-7-7-7-7-7-7-7-8-8-8-8---8-8-8---|
|-5-5-5-5-5-5-5-5-7-7-7-7-7-7-7-7-8-8-8-8---8-8-8---|

|--0---0-0---0-0---0---0-0---0----------------------|
|--6---6-6---6-6---5---5-5---0----------------------|
|--0---0-0---0-0---0---0-0---0----------------------|
|--7---7-7---7-7---5---5-5---2----------------------|
|--5---5-5---5-5---3---3-3---2----------------------|
|----------------------------2----------------------|

|---------------------------------------------------|
|---------------------------------------------------|
|---------------------------------------------------|
|-7-7-7-7-7-7-7-7-8-8-8-8---8-8-8-3-3-3-3-3-3-3-3---|
|-7-7-7-7-7-7-7-7-8-8-8-8---8-8-8-3-3-3-3-3-3-3-3---|
|-7-7-7-7-7-7-7-7-8-8-8-8---8-8-8-3-3-3-3-3-3-3-3---|

|---------------------------------------------------|
|---------------------------------------------------|
|---------------------------------------------------|
|-5-5-5-5-5-5-5-5-7-7-7-7-7-7-7-7-8-8-8-8---8-8-8---|
|-5-5-5-5-5-5-5-5-7-7-7-7-7-7-7-7-8-8-8-8---8-8-8---|
|-5-5-5-5-5-5-5-5-7-7-7-7-7-7-7-7-8-8-8-8---8-8-8---|

|--0---0-0---0-0---0---0-0---0----------------------|
|--6---6-6---6-6---5---5-5---0----------------------|
|--0---0-0---0-0---0---0-0---0----------------------|
|--7---7-7---7-7---5---5-5---2----------------------|  x2
|--5---5-5---5-5---3---3-3---2----------------------|
|----------------------------2----------------------|

|--0---0-0---0-0---0~-------------------------------|
|--6---6-6---6-6---5~-------------------------------|
|--0---0-0---0-0---0~-------------------------------|
|--7---7-7---7-7---5~----5~-------------------------|
|--5---5-5---5-5---3~----5~-------------------------|
|------------------------5~-------------------------|

10. The Navy Song

|----------------12p0--10p0-------------------------|
|----10p0--12p0--------------12p0--10p0--12---------|
|---9-----------------------------------------------|
|-10-----10----10----10----10----10----10-----------|
|---------------------------------------------------|
|---------------------------------------------------|

|----------------8p0--7p0---------------------------|
|------7p0--8p0------------8p0--7p0--0--------------|
|----5-------------------------------5--------------|
|--7------7----7----7----7----7----7----------------|
|---------------------------------------------------|
|---------------------------------------------------|

|-------------------12p0--10p0----------------------|
|-------10p0--12p0--------------12p0--10p0--12------|
|------9--------------------------------------------|
|(7)/10-----10----10----10----10----10----10--------|
|---------------------------------------------------|
|---------------------------------------------------|

|----------------8p0--7p0-------000000--------------|
|------7p0--8p0------------8p0--777777--------------|
|----5--------------------------555555--------------|
|--7------7----7----7----7----7-777777--------------|
|---------------------------------------------------|
|---------------------------------------------------|

Verse :

|--0~--------0~---------0~--------0~----------------|
|-10~--------7~--------10~--------7~----------------|
|--0~--------0~---------0~--------0~----------------|
|--9~--------5~---------9~--------5~----------------|
|-10~--------7~--------10~--------7~----------------|
|-----Hold-each-chord-for-7-and-pause-for-1-counts--|

|-------------0--0-0-0-0-2--2-2-2-2-3--3-3-3-3------|
|-3-3-3-3-3-3-3--3-3-3-3-3--3-3-3-3-3--3-3-3-3------|
|-0-0-0-0-0-0-0--0-0-0-0-0--0-0-0-0-0--0-0-0-0------|
|-2-2-2-2-2-2-2--2-2-2-2-x--x-x-x-x-x--x-x-x-x------|
|-3-3-3-3-3-3-3--3-3-3-3-3--3-3-3-3-3--3-3-3-3------|
|---------------------------------------------------|

|-0-0-0-0-0-0-0-0-0-0-0-0-0-0-0-0-0-0-0-0-0-0-0-0---|
|121212121212101010101010-8-8-8-8-8-8101010101010---|
|-0-0-0-0-0-0-0-0-0-0-0-0-0-0-0-0-0-0-0-0-0-0-0-0---|
|121212121212101010101010-9-9-9-9-9-9101010101010---|
|-0-0-0-0-0-0-0-0-0-0-0-0-0-0-0-0-0-0-0-0-0-0-0-0---|
|---------------------------------------------------|


|--0~--------0~---------0~--------0~----------------|
|-10~--------7~--------10~--------7~----------------|
|--0~--------0~---------0~--------0~----------------|
|--9~--------5~---------9~--------5~----------------|
|-10~--------7~--------10~--------7~----------------|
|---------------------------------------------------|

|----------------12p0--10p0-------------------------|
|----10p0--12p0--------------12p0--10p0--12---------|
|---9-----------------------------------------------|
|-10-----10----10----10----10----10----10-----------|
|---------------------------------------------------|
|---------------------------------------------------|

|----------------8p0--7p0---------------------------|
|------7p0--8p0------------8p0--7p0--0--------------|
|----5-------------------------------5--------------|
|--7------7----7----7----7----7----7----------------|
|---------------------------------------------------|
|---------------------------------------------------|

|----------------7p0--5p0---------------------------|
|------5p0--7p0------------7p0--5p0--7~-------------|
|----4----------------------------------------------|
|--5------5----5----5----5----5----5----------------|
|---------------------------------------------------|
|---------------------------------------------------|

Chorus :

|---0-0---0-0-0-0---0-0-0-0---0-0--0--0--0----------|
|---2-2---2-2-2-2---2-2-3-3---3-3--2--2--2----------|
|---x-x---x-x-x-x---x-x-x-x---x-x--x--x--x----------|
|---4-4---4-4-4-4---4-4-4-4---4-4--4--4--4----------|
|---4-4---4-4-4-4---4-4-4-4---4-4--4--4--4----------|
|---4-4---4-4-4-4---4-4-4-4---4-4--4--4--4----------|

|---------------------------------------------------|
|--3-3-3-3-3-3-3-3-3-3-3-3-5-5-5-5-5-5-7-7-7-7-7-7--|
|--4-4-4-4-4-4-4-4-4-4-4-4-6-6-6-6-6-6-7-7-7-7-7-7--|
|--x-x-x-x-x-x-x-x-x-x-x-x-x-x-x-x-x-x-x-x-x-x-x-x--|
|--2-2-2-2-2-2-2-2-2-2-2-2-4-4-4-4-4-4-5-5-5-5-5-5--|
|---------------------------------------------------|

|---------------------------------------------------|
|--------------3-3--3-3-3--5-5--5-5-5-7-7-7-7-7-7---|
|--2-2--2-2-2--x-x--x-x-x--x-x--x-x-x-x-x-x-x-x-x---|
|--0-0--0-0-0--0-0--0-0-0--0-0--0-0-0-0-0-0-0-0-0---|
|--0-0--0-0-0--0-0--0-0-0--0-0--0-0-0-0-0-0-0-0-0---|
|--0-0--0-0-0--0-0--0-0-0--0-0--0-0-0-0-0-0-0-0-0---|
|---------------------------------------------------|
|---------------------------------------------------|
|---6-6---6-6-6-6---6-6-7-7---7-7--6--6--6----------|
|---4-4---4-4-4-4---4-4-4-4---4-4--4--4--4----------|
|---4-4---4-4-4-4---4-4-4-4---4-4--4--4--4----------|
|---4-4---4-4-4-4---4-4-4-4---4-4--4--4--4----------|

Pre-verse :

|--------0-----2-----3------------------------------|
|--3-----3-----3-----3------------------------------|
|--x-----x-----0-----0------------------------------|
|--2-----2-----x-----x------------------------------|
|--3-----3-----3-----3------------------------------|
|---------------------------------------------------|

|-0-0-0-0-0-0-0-0-0-0-0-0-0-0-0-0-0-0-0-0-0-0-0-0---|
|121212121212101010101010-8-8-8-8-8-8101010101010---|
|-0-0-0-0-0-0-0-0-0-0-0-0-0-0-0-0-0-0-0-0-0-0-0-0---|
|121212121212101010101010-9-9-9-9-9-9101010101010---|
|-0-0-0-0-0-0-0-0-0-0-0-0-0-0-0-0-0-0-0-0-0-0-0-0---|
|---------------------------------------------------|

Bridge :

|-------------0--0-0-0-0-2--2-2-2-2-3--3-3-3-3--------|
|-3-3-3-3-3-3-3--3-3-3-3-3--3-3-3-3-3--3-3-3-3--------|
|-0-0-0-0-0-0-0--0-0-0-0-0--0-0-0-0-0--0-0-0-0--------|
|-2-2-2-2-2-2-2--2-2-2-2-x--x-x-x-x-x--x-x-x-x------\-|
|-3-3-3-3-3-3-3--3-3-3-3-3--3-3-3-3-3--3-3-3-3--------| \
|-----------------------------------------------------|  \
								x2
|-0-0-0-0-0-0-0-0-0-0-0-0-0-0-0-0-0-0-0-0-0-0-0-0----|  /
|121212121212101010101010-8-8-8-8-8-8101010101010----| /
|-0-0-0-0-0-0-0-0-0-0-0-0-0-0-0-0-0-0-0-0-0-0-0-0----|
|121212121212101010101010-9-9-9-9-9-9101010101010----|
|-0-0-0-0-0-0-0-0-0-0-0-0-0-0-0-0-0-0-0-0-0-0-0-0----|
|----------------------------------------------------|

|-0-0--0-0-0--0-0--0-0-0--7-7--7-7-7--8-8--8-8-8------|
|-8-8--8-8-8-1010-101010--8-8--8-8-8--8-8--8-8-8------|
|-0-0--0-0-0--0-0--0-0-0--0-0--0-0-0--0-0--0-0-0------|
|-7-7--7-7-7--7-7--7-7-7--x-x--x-x-x--x-x--x-x-x----\-|
|-8-8--8-8-8--8-8--8-8-8--8-8--8-8-8--8-8--8-8-8------| \
|-----------------------------------------------------|  \
								x2
|121212121212101010101010-8-8-8-8-8-8101010101010----|  /
|-0-0-0-0-0-0-0-0-0-0-0-0-0-0-0-0-0-0-0-0-0-0-0-0----| /
|121212121212101010101010-9-9-9-9-9-9101010101010----|
|-0-0-0-0-0-0-0-0-0-0-0-0-0-0-0-0-0-0-0-0-0-0-0-0----|
|----------------------------------------------------|
|----------------------------------------------------|
Last Chorus :

|---------------------------------------------------|
|--3-3-3-3-3-3-3-3-3-3-3-3-5-5-5-5-5-5-7-7-7-7-7-7--|
|--4-4-4-4-4-4-4-4-4-4-4-4-6-6-6-6-6-6-7-7-7-7-7-7--|
|--x-x-x-x-x-x-x-x-x-x-x-x-x-x-x-x-x-x-x-x-x-x-x-x--|
|--2-2-2-2-2-2-2-2-2-2-2-2-4-4-4-4-4-4-5-5-5-5-5-5--|
|---------------------------------------------------|

|---1010--10101010--10101010--1010101010101010------|
|---1212--12121212--12121212--1212121212121212------|
|---1212--12121212--12121212--1212121212121212------|
|---1212--12121212--12121212--1212121212121212------|
|---1010--10101010--10101010--1010101010101010------|
|---------------------------------------------------|

|---------------------------------------------------|
|--------------3-3--3-3-3--5-5--5-5-5-7-7-7-7-7-7---|
|--2-2--2-2-2--x-x--x-x-x--x-x--x-x-x-x-x-x-x-x-x---|
|--0-0--0-0-0--0-0--0-0-0--0-0--0-0-0-0-0-0-0-0-0---|
|--0-0--0-0-0--0-0--0-0-0--0-0--0-0-0-0-0-0-0-0-0---|
|--0-0--0-0-0--0-0--0-0-0--0-0--0-0-0-0-0-0-0-0-0---|

|---9-9---9-9-9-9---9-9-9-9---9-9-9-9-9-9-9-9-------|
|--1010--10101010--10101010--1010101010101010-------|
|--1111--11111111--11111111--1111111111111111-------|
|--1111--11111111--11111111--1111111111111111-------|
|---9-9---9-9-9-9---9-9-9-9---9-9-9-9-9-9-9-9-------|
|---------------------------------------------------|

Ending :

|-------0----2----3----0----0----0----0-0-0-0-0-0---|
|--3----3----3----3---12---10----8---101010101010---|
|--x----x----0----0----0----0----0----0-0-0-0-0-0---|
|--2----2----x----x---12---10----9---101010101010---|
|--3----3----3----3----0----0----0----0-0-0-0-0-0---|
|---------------------------------------------------|

|--0~-----------------------------------------------|
|--8~-----------------------------------------------|
|--0~-----------------------------------------------|
|--9~-----------------------------------------------|
|--7~-----------------------------------------------|
|---------------------------------------------------|

Amazing Song.


11. Perfect World

|-0-0-0-0-0-0-0-0-0-0-0-0-0-0-0-0--|
|----------------------------------|
|----------------------------------|
|----------------------------------| x2
|----------------------------------|
|----------------------------------|

|-----0-0-0-0-0-0---0-0-0-0-0-0------0-0-0-0-0-0---0-0-0-0-0-0-|
|--------------------------------------------------------------|
|--------------------------------------------------------------|
|--------------------------------------------------------------|
|--------------------------------------------------------------|
|-2-2-------------5-------------10-10------------7-------------|

|-----0-0-0-0-0-0---0-0-0-0-0-0------0-0-0-0-0-0--0~
|-------------------------------------------------7~
|-------------------------------------------------0~
|-------------------------------------------------0~
|-------------------------------------------------0~
|-2-2-------------5-------------10-10-------------0~

|---------------------------------------------------|
|--------------------0-----0-----0------------------|
|-----0-----0------4---4-6---6-7--------------------|
|---0-----0-----0-----------------------------------| x2
|-9-----7-----5-------------------------------------|
|---------------------------------------------------|

|----0-----0---0------0-----0-----------------------|
|--5---5-7---7---0--1---1-3---3-1p0-----------------|
|---------------------------------------------------|
|---------------------------------------------------|
|---------------------------------------------------|
|---------------------------------------------------|

Verse :

All we shared was a matress, and a lie and an address
|-7~----7~----7~----7~------------------------------|
|-8~----7~----8~----8~------------------------------|
|---------------------------------------------------|
|---------------------------------------------------|
|-Hold-each-for-3-counts----------------------------|
|-Then-pause-for-1-count----------------------------|

 Baby, I don’t need you... Well, baby I don’t need you...
|----0-----0---0------0-----0-----------------------|
|--5---5-7---7---0--1---1-3---3-1p0-----------------|
|---------------------------------------------------|
|---------------------------------------------------| x2
|---------------------------------------------------|
|---------------------------------------------------|

Chorus :

|---------------------------------------------------------|
|---------------------------------------------------------|
|---------------------------------------------------------|
|-2-2-2-2-2-2-2-2-5-5-5-5-5-5-5-5-10-10-10-10-10-10-10-10-|
|-2-2-2-2-2-2-2-2-5-5-5-5-5-5-5-5-10-10-10-10-10-10-10-10-|
|-2-2-2-2-2-2-2-2-5-5-5-5-5-5-5-5-10-10-10-10-10-10-10-10-|

|--------------------------------------------------------|
|--------------------------------------------------------|
|--------------------------------------------------------|
|-7-7-7-7-7-7-7-7----------------------------------------|
|-7-7-7-7-7-7-7-7----------------------------------------|
|-7-7-7-7-7-7-7-7----------------------------------------|

|---------------------------------------------------------|
|---------------------------------------------------------|
|---------------------------------------------------------|
|-2-2-2-2-2-2-2-2-5-5-5-5-5-5-5-5-10-10-10-10-10-10-10-10-|
|-2-2-2-2-2-2-2-2-5-5-5-5-5-5-5-5-10-10-10-10-10-10-10-10-|
|-2-2-2-2-2-2-2-2-5-5-5-5-5-5-5-5-10-10-10-10-10-10-10-10-|

|--------------------------------------------------------|
|--------------------------------------------------------|
|--------------------------------------------------------|
|-12-12-12-12-12-12-12-12--------------------------------|
|-12-12-12-12-12-12-12-12--------------------------------|
|-12-12-12-12-12-12-12-12--------------------------------|


Bridge :

|-0-0--0-0-0-0--0-0--0-0-0-0--0-0--0-0-0-0---------------|
|-8-8--8-8-8-8--3-3--3-3-3-3--5-5--5-5-5-5---------------|
|-9-9--9-9-9-9--4-4--4-4-4-4--5-5--5-5-5-5---------------|
|-9-9--9-9-9-9--4-4--4-4-4-4--5-5--5-5-5-5--9-9--9-9-9-9-|
|-7-7--7-7-7-7--2-2--2-2-2-2--3-3--3-3-3-3--5-5--5-5-5-5-|
|-------------------------------------------5-5--5-5-5-5-|

|-0-0--0-0-0-0----------------0-0--0-0-0-0-----------------|
|-3-3--3-3-3-3----------------7-7--7-7-7-7--6-6------------|
|-4-4--4-4-4-4----------------7-7--7-7-7-7--5-5------------|
|-4-4--4-4-4-4--5-5--5-5-5-5--7-7--7-7-7-7--3-3-xx-3-5-3-0-|
|-2-2--2-2-2-2--2-2--2-2-2-2--5-5--5-5-5-5--3-3-xx-3-5-3-0-|
|---------------2-2--2-2-2-2----------------3-3-xx-3-5-3-0-|

12. Sympathy

Intro :

|---------------5-5-5-5---6-6-6-6---------5-5-5--6-6-|
|-----8-8-8-8---4-4-4-4---x-x-x-x--8-8-8--4-4-4--x-x-|
|-----8-8-8-8---5-5-5-5---7-7-7-7--8-8-8--5-5-5--7-7-|
|-----8-8-8-8---x-x-x-x---5-5-5-5--8-8-8--x-x-x--5-5-|
|-----6-6-6-6---3-3-3-3---5-5-5-5--6-6-6--3-3-3--5-5-|
|-13\---------------------5-5-5-5----------------5-5-|

|-(6)\--5-----------3~
|-------4---3-3--6--x~
|-(7)\--5---x-x--x--3~
|-(5)\--3---3-3--7--1~
|-(5)\--3---1-1--5--1~
|-(5)\--3-----------1~

Verse :

|----------------------------------------------------|
|----------------------------------------------------|
|----------------------------------------------------|
|----------------------------------------------------|
|--------------1-1-1-1-1-1---------------3-3-3-3-3-3-|
|-5-5-5-5-5-5---------------3-3-3-3-3-3--------------|

|---------------------------------------------------|
|---------------------------------------------------|
|---------------------------------------------------|
|-1--------0----------------------------------------|
|---1--------0--------------------------------------|
|-----5-1------4-0----------------------------------|

|----------------------------------------------------|
|--------------3-3-3-3-3-3---------------4-4-4-4-4-4-|
|--------------x-x-x-x-x-x---------------x-x-x-x-x-x-|
|-8-8-8-8-8-8--x-x-x-x-x-x--7-7-7-7-7-7--x-x-x-x-x-x-|
|-x-x-x-x-x-x--1-1-1-1-1-1--x-x-x-x-x-x--3-3-3-3-3-3-|
|-5-5-5-5-5-5---------------3-3-3-3-3-3--------------|

|---------------------------------------------------|
|---------------------------------------------------|
|---------------------------------------------------|
|-1--------0----------------------------------------|
|---1--------0--------------------------------------|
|-----5-1------4-0----------------------------------|

Pre-Chorus :

|------------------------------------------------------------------|
|-----------------------------------3-3-3-3-3-3-3-3-7-7-7-7-7-7-7\-|
|33-3-3-3-3-3-3-3-3-5-5-5-5-5-5-5-5-x-x-x-x-x-x-x-x-x-x-x-x-x-x-x--|
|00-0-0-0-0-0-0-0-0-3-3-3-3-3-3-3-3-3-3-3-3-3-3-3-3-7-7-7-7-7-7-7\-|
|xx-x-x-x-x-x-x-x-x-0-0-0-0-0-0-0-0-1-1-1-1-1-1-1-1-5-5-5-5-5-5-5\-|
|55-5-5-5-5-5-5-5-5------------------------------------------------|

Chorus :

|-----------5-5-5-5---6-6-6-6---------5-5-5--6-6-|
|-8-8-8-8---4-4-4-4---x-x-x-x--8-8-8--4-4-4--x-x-|
|-8-8-8-8---5-5-5-5---7-7-7-7--8-8-8--5-5-5--7-7-|
|-8-8-8-8---x-x-x-x---5-5-5-5--8-8-8--x-x-x--5-5-|
|-6-6-6-6---3-3-3-3---5-5-5-5--6-6-6--3-3-3--5-5-|
|---------------------5-5-5-5----------------5-5-|

|-----------5-5-5-5---6-6-6-6---------5-5-5--6-6666-|
|-8-8-8-8---4-4-4-4---x-x-x-x--8-8-8--4-4-4--x-xxxx-|
|-8-8-8-8---5-5-5-5---7-7-7-7--8-8-8--5-5-5--7-7777-|
|-8-8-8-8---x-x-x-x---5-5-5-5--8-8-8--x-x-x--5-5555-|
|-6-6-6-6---3-3-3-3---5-5-5-5--6-6-6--3-3-3--5-5555-|
|---------------------5-5-5-5----------------5-5555-|

|-----------5-5-5-5---6-6-6-6---------5-5-5--6-6-|
|-8-8-8-8---4-4-4-4---x-x-x-x--8-8-8--4-4-4--x-x-|
|-8-8-8-8---5-5-5-5---7-7-7-7--8-8-8--5-5-5--7-7-|
|-8-8-8-8---x-x-x-x---5-5-5-5--8-8-8--x-x-x--5-5-|
|-6-6-6-6---3-3-3-3---5-5-5-5--6-6-6--3-3-3--5-5-|
|---------------------5-5-5-5----------------5-5-|

|-(6)\--5-----------3--3-3333-|
|-------4---3-3--6--x--x-xxxx-|
|-(7)\--5---x-x--x--3--3-3333-|
|-(5)\--3---3-3--7--1--1-1111-|
|-(5)\--3---1-1--5--1--1-1111-|
|-(5)\--3-----------1--1-1111-|

Solo :

|---------------------------------------------------|
|---------------------------------------------------|
|---------------------------------------------------|
|----5v-----5-7-8v-----8-7-5-7------7-8-10----------|
|-5--5v---5-5---5----5-5-----3----3-3-5--6----------|
|---------------------------------------------------|

|---------------------------------------------------|
|--8v-----8-11-10v-----8-10---11v-----11-10-8-10v---|
|--8v---8-8--8--7v---7-7--7-7--7v---7--7--7-7--7v---|
|---------------------------------------------------|
|---------------------------------------------------|
|---------------------------------------------------|

|----------------------------------------------------------------|
|-8v-------8-11-6---------6-8-10----------10-11-13v---------13\--|
|---7----7---------7----7--------10----10----------12---12-(12---|\
|-----8--------------8--------------10----------------13---(13---|\
|----------------------------------------------------------------|
|----------------------------------------------------------------|

|---------------------------------------------------|
|--8----8----8-11-10----10----8-10------------------|
|--8--8-8--8-8--8--7--7--7--7-7--7------------------|
|---------------------------------------------------|
|---------------------------------------------------|
|---------------------------------------------------|

|--6-6-6-6-6-6-8-8-10-10-10-10-10-10----------------|
|--8-8-8-8-8-8-8-8--8--8--8--8--7--7----------------|
|--7-7-7-7-7-7-7-7--7--7--7--7--7--7----------------|
|---------------------------------------------------|
|---------------------------------------------------|
|-------------------------------------13/-----------|

Ending :

After Chorus

|-(6)\--5-----------3--3-3333-|
|-------4---3-3--6--x--x-xxxx-|
|-(7)\--5---x-x--x--3--3-3333-|
|-(5)\--3---3-3--7--1--1-1111-|
|-(5)\--3---1-1--5--1--1-1111-|
|-(5)\--3-----------1--1-1111-|

|-------5-------------------------------------------|
|-------4---3-3--6----------------------------------|
|-------5---x-x--x--3~------------------------------|
|-------3---3-3--7--1~------------------------------|
|-------3---1-1--5--1~------------------------------|
|-------3-----------1~------------------------------|

13. Burn the Evidence

Verse :

 In a garage, beside a house, there is a luxury sedan...
|---------------------------------------------------|
|----------6--(6)/10------10---------10---------10--|
|--------0--------------0----------0----------0-----|
|------7-------------10---------10---------10-------| x2
|----5---------0--------------8----------0----------|
|--------------Let-all-notes-ring-------------------|

|---------------------------------------------------|
|---------10-------------------------10-------------|
|-------0--------0----------------------------0-----|
|-----8--------0-----0---------8--------8---0-----0-|
|--10--------8-----8------8h10---10-------8-----8---|
|--------------Let-all-notes-ring-------------------|

|---------------------------------------------3-----|
|----------10---------------------5-----------------|
|--------0----------0-----------0----------3--------|
|------8------8---0-----0-----5----------0------0---|
|-8h10----------8-----8-----3-------3---------------|
|--------------Let-all-notes-ring------5------------|

|---------------------------------------------------|
|----------10------------------------10-------------|
|--------0----------0-------------------------0-----|
|------8------8---0-----0-------8-------8---0-----0-|
|-8h10----------8-----8----8h10---10------8-----8---|
|--------------Let-all-notes-ring-------------------|

|--------------------------0~-----------------------|
|----------10--------------8~-----------------------|
|--------0----------0------0~-----------------------|
|------8------8---0-----0--8~-----------------------|
|-8h10----------8-----8----7~-----------------------|
|----Let-all-notes-ring-----------------------------|

Chorus :

|--5--5-5---0--0-0--------------------5--5-5--------|
|--6--6-6---8--8-8--5-5-5-5-5-5-5-5---6--6-6--------|
|--7--7-7---0--0-0--x-x-x-x-x-x-x-x---7--7-7--------|
|--7--7-7---8--8-8--5-5-5-5-5-5-5-5---7--7-7--------|  x2
|--5--5-5---7--7-7--4-4-0-0-4-4-0-4---5--5-5--------|
|--0--0-0-----------------------------0--0-0--------|

|--5--5-5---0--0-0-----0~----0~---------------------|
|--6--6-6---8--8-8-----5~----3~---------------------|
|--7--7-7---0--0-0-----0~----0~---------------------|
|--7--7-7---8--8-8-----5~----3~---------------------|
|--5--5-5---7--7-7-----3~----1~---------------------|
|--0--0-0-------------------------------------------|

Pre-Verse

|--------------------------0----------0----------0--|
|----------6--(6)/10------10---------10---------10--|
|--------0--------------0----------0----------0-----|
|------7-------------10---------10---------10-------| x2
|----5---------0--------------8----------0----------|
|--------------Let-all-notes-ring-------------------|

Chorus 2 :

|--5--5-5---0--0-0--------------------5--5-5--------|
|--6--6-6---8--8-8--5-5-5-5-5-5-5-5---6--6-6--------|
|--7--7-7---0--0-0--x-x-x-x-x-x-x-x---7--7-7--------|
|--7--7-7---8--8-8--5-5-5-5-5-5-5-5---7--7-7--------|  x2
|--5--5-5---7--7-7--4-4-0-0-4-4-0-4---5--5-5--------|
|--0--0-0-----------------------------0--0-0--------|

|--5--5-5---0--0-0--------------------5--5-5-5-5-5--|
|--6--6-6---8--8-8--5-5-5-5-5-5-5-5---6--6-6-6-6-6--|
|--7--7-7---0--0-0--x-x-x-x-x-x-x-x---7--7-7-7-7-7--|
|--7--7-7---8--8-8--5-5-5-5-5-5-5-5---7--7-7-7-7-7--|
|--5--5-5---7--7-7--4-4-0-0-4-4-0-4---5--5-5-5-5-5--|
|--0--0-0-----------------------------0--0-0-0-0-0--|

Bridge :

Gt. 1
|---------------5--5--5--5---|
|-8--8-8-8-8-8--6--6--6--6---|
|-7--7-7-7-7-7--7--7--7--7---|
|-5--5-5-5-5-5--7--7--7--7-\-|
|-5--5-5-5-5-5--5--5--5--5---| \
|-5--5-5-5-5-5---------------|  \
                                    x3
Gt. 2
|---------------------------|  /
|---------------------------| /
|---------------------------|
|-8--8-8-8-5-5--7--3--7--3--|
|-5--5-5-5-5-5--0--0--0--0--|
|-5--5-5-5-5-5--0--0--0--0--|

Gt 1.
|-0-0-0-0-0-0-0-0-----|
|-5-5-5-5-3-3-3-3-----|
|-0-0-0-0-0-0-0-0-----|
|-5-5-5-5-3-3-3-3-----|
|-3-3-3-3-1-1-1-1-----|
|---------------------|

Gt. 2
|---------------------|
|---------------------|
|---------------------|
|10101010-8-8-8-8-----|
|10101010-8-8-8-8-----|
|10101010-8-8-8-8-----|

Pick which ever one you like doing the best.

Bridge 2 I guess? :

|-00-00000--0000000---00-00000--0000000-------------|
|-66-66666--6666666---88-88888--8888888-------------|
|-00-00000--0000000---00-00000--0000000-------------|
|-77-77777--7777777---88-88888--8888888-------------|
|-55-55555--5555555---77-77777--7777777-------------|
|---------------------------------------------------|

|--0-0-0-0-0-0-0-0-0-0-0-0-0-0-0-0---------|
|-13131313131313131313131313131313---------|
|-14141414141414141414141414141414---------|
|--x-x-x-x-x-x-x-x-x-x-x-x-x-x-x-x---------|
|-13131313131313131313131313131313---------|
|------------------------------------------|

|--0-0-0-0-0-0-0-0-0-0-0-0-0-0-0-0----------|
|-13131313131313131313131313131313----------|
|--0-0-0-0-0-0-0-0-0-0-0-0-0-0-0-0----------|
|-14141414141414141414141414141414----------|
|-12121212121212121212121212121212----------|
--------------------------------------------|gradually bend b and a string half a step
  at the last 6 notes

End on Dm(add4/9)

|----0~------|
|----6~------|
|----0~------|
|----7~------|
|----5~------|
|------------|
comments
print report bad tab
2 comments total.
0 reply
The_Lead_Kewl wrote on September 7 2007, 03:07 pm

Is thi the REAL Ian D'sa??

0 reply
mullacy wrote on February 15 2008, 09:35 pm

good. the main riff in Fallen Leaves is correct, unlike the other 5 star one

I want to post or [tab]
guest
You may want to rate the tab now too:
select rating
Please do not post tabs as comments. Select "correction" instead!