Oops, an error
Loading. Please wait.

Burn The Evidence Bass Tab

ver1
ver1

Whole song

More versions @911Tabs.com
3,189 views 9 this week
4 commentsread comments
1 2 3 4 5
accurate
x 3
Autoscroll
+/-
esc
set tempo
stop
Contributor
Difficulty
Tuning
intermediate
D A D G B E
WARNING: You are trying to view
                                    content from Ultimate-Guitar.com
                                    in an unauthorized application,
                                    which is prohibited.

                                    Please use an official Ultimate
                                    Guitar Tabs application for iPhone,
                                    iPad or Android to access legitimate
                                    chords, guitar, bass, and drum tabs
                                    from Ultimate-Guitar.com database.

                                    Type "ultimate guitar tabs" in Apple
                                    App Store's or Android Market's
                                    search to find the application.
Album: Billy Talent II
Tabbed by Tony D(Temp144)
Tuning: Drop D

Last Track on Billy Talent II, and personally my favorite song
on the album. The beginning has a sort of country sound and then the
rest of the song, just blows you away with jumpy hooks and chill melodies. The bass is 
dope on this song. My bridge still needs some work but it's sounds right. Rate and Enjoy!
Long Live Taborama!

Intro:1x
Play 1x
G|-------------------------------------------------------------------|
D|-------------------------------------------------------------------|
A|----------5(ring)---------5(ring)---------5(ring)--3(ring)---------|
D|--5(ring)---------5(ring)---------5(ring)-----------------5(ring)--|

Play 3x            Play After 2x
G|----------------|----------|
D|----------------|----------|
A|------------5-5-|----------|
D|--5(ring)-5-----|-2(ring)--|

Pre-Chorus:1x           Play 2x               Play After 2x Regularly
G|----------------------|----------------------------|------|
D|----------------------|----------------------------|------|
A|-55-5--77-7--4-0-4-00-|-55-5-------77-7--44-0-4-00-|444444|
D|----------------------|------00-0------------------|------|

Play After 2x in Intro Pre-Chorus only.
G|--------------------|
D|--------------------|
A|3(ring)----1(ring)--|
D|--------------------|

Verse:4x
G|--------------------------------------------|
D|--------------------------------------------|
A|---------0(ring)--------0(ring)-------------|
D|-0(ring)--------3(ring)---------3-2-0(ring)-|

Play After 4x
G|-------------------|----------|
D|-------------------|----------|
A|-1-0-----------5-5-|----------|
D|-----5(ring)-5-----|-2(ring)--|

Pre Chorus:1x

Chorus:2x
Play 3x                 Play After 3x
G|----------------------|------------|
D|----------------------|------------|
A|-------------------0--|-3333-1111--|
D|-5-5-555--0--2--3-----|------------|

Bridge:2x
G|-------------------------------------------------------------------------|
D|-------------------------------------------------------------------------|
A|-55-5-3-555-5-555555-33-3-0-333-3-3333333-111111111111111100000000000000-|
D|-------------------------------------------------------------------------|

Play After 2x
G|--------------------------------------------------------------|
D|--------------------------------------------------------------|
A|-55555555555-77777777-33333333-111111111111111100000000000000-|
D|--------------------------------------------------------------|

Pre-Chorus:1x
Chorus:4x

Ending:1x
G|--------------------------|
D|--------------------------|
A|-3(ring)--1(ring)---------|
D|------------------0(ring)-|
comments
We did not receive enough feedback on this tab! Please rate:
print report bad tab
1 2 3 4 5
4 comments total. Showing first comments.
0 reply
FBassman wrote on August 23 2007, 04:40 pm

u got the rite idea but needs work

0 reply
fenderbassdude wrote on April 20 2008, 08:17 pm

yeah needs alot more work

0 reply
thunderhawk wrote on June 23 2008, 09:28 pm

thats pretty good i think. maby a few other stuff that needs a bit more work but ya pretty good. the only thing that really bugs me is when you just say a tab the you say pre-chorus and u go back and play the pre chorus. i hate that so i have to copy and paste it to a word document and put it so it is all out and i dont have to go back. cuz it alwasy screws me up

I want to post or [tab]
guest
You may want to rate the tab now too:
select rating
Please do not post tabs as comments. Select "correction" instead!