Oops, an error
Loading. Please wait.

Covered In Cowardice Tab

ver3
ver3

Whole song

Interactive

More versions @911Tabs.com
11,268 views 15 this week
2 commentsread comments
1 2 3 4 5
excellent!
x 14
Autoscroll
+/-
esc
set tempo
stop
Contributor
Difficulty
Tuning
novice
D A D G B E
Hey! There's an official Ultimate Guitar app which is ideal
for learning songs when you're away from computer. Get the app
WARNING: You are trying to view
                                    content from Ultimate-Guitar.com
                                    in an unauthorized application,
                                    which is prohibited.

                                    Please use an official Ultimate
                                    Guitar Tabs application for iPhone,
                                    iPad or Android to access legitimate
                                    chords, guitar, bass, and drum tabs
                                    from Ultimate-Guitar.com database.

                                    Type "ultimate guitar tabs" in Apple
                                    App Store's or Android Market's
                                    search to find the application.
-------------------------------------------------------------------------------
		  Covered in Cowardice - Billy Talent
-------------------------------------------------------------------------------
Tabbed by: A_GOOD_TABBER (Neil)

Tuning: Drop D Tunning

Intro
E|--------------------------------------------------------------------|
B|-----------------------------------7~ ------------------------------|
G|------------------------------7----7~ ------------------------------|
D|--------------------7----8---------7~ ------------------------------|
A|--5-----7-----8-----------------------------------------------------|
D|----5-5---5-5---5-5--5-5---5----------------------------------------|

E|---------------------------------------------------------------------|
B|----------------------------------------8----------------------------|
G|---------------------------------10-----8----------------------------|
D|----------------------10----12----------8----------------------------|
A |--8-----10-----12---------------------------------------------------|
D|----8-8----8-8----8-8---8-8---8--------------------------------------|

E|------------------------------------------------------------------|
B|----------------------------------------------7-7-7-7-7-7-7-7-----|
G|-----------------------------------------7----7-7-7-7-7-7-7-7-----|
D|--5-5-5-----5-5-----5-5--7--5-5--8--5--------7-7-7-7-7-7-7-7------|
A|--5-5-5--7--5-5--8--5-5-----5-5-----5-----------------------------|
D|--5-5-5-----5-5-----5-5-----5-5-----5-----------------------------|

E|----------------------------------------------------------------------|
B|--------------------------------------------------8-8-8-8-8-8-8-8-----|
G|---------------------------------------------10---8-8-8-8-8-8-8-8-----|
D|--8-8-8------8-8------8-8--10--8-8--12--8--------8-8-8-8-8-8-8-8------|
A|--8-8-8--10--8-8--12--8-8------8-8------8-----------------------------|
D|--8-8-8------8-8------8-8------8-8------8-----------------------------|


Verse
E|-----------------------------------5-----------------------------------|
B|-----------------------------------7-----------------------------------|
G|-5-5-5-----------------------------7-----------------------------------|
D|-5-5-5----5-----------------------(5)----------------------------------|
A|-3-3-3----5-----------------------(5)----------------------------------|
D|----------5-----------------------(5)----------------------------------|
                    “Twisted Tongues will put you in their category.....”

E|--1------------------------3----------------------------------------|
B|--3------------------------4----------------------------------------|
G|--3------------------------3----------------------------------------|
D|--------------------------------------------------------------------|
A|--------------------------------------------------------------------|
D|--------------------------------------------------------------------|
     “Face to Face, you’ll hear them tell a different story...”

E|---------------------------5------------------------------------------|
B|---------------------------7------------------------------------------|
G|-7-----7---7--7---7h8p7---7-------------------------------------------|
D|----------------------------------------------------------------------|
A|----------------------------------------------------------------------|
D|----------------------------------------------------------------------|
    “Loose Lips may sink ships, But Honesty’s forever...”

E|--------------------3-3-3-3-3-3-3-3-----------------------------------|
B|--------------------4-4-4-4-4-4-4-4-----------------------------------|
G|-7---7-7-7-7h8p7---3-3-3-3-3-3-3-3------------------------------------|
D|----------------------------------------------------------------------|
A|----------------------------------------------------------------------|
D|----------------------------------------------------------------------|
    “Eyes of Envy try to       cut and try to sever...”

Pre-Chorus
E|--------------------3-3-3-3-3-3-3-3-----------------------------|
B|-4-4-4-4-4-4-4-4---4-4-4-4-4-4-4-4------------------------------|
G|-3-3-3-3-3-3-3-3---5-5-5-5-5-5-5-5------------------------------|
D|-1-1-1-1-1-1-1-1---5-5-5-5-5-5-5-5------------------------------|
A|-1-1-1-1-1-1-1-1---3-3-3-3-3-3-3-3------------------------------|
D|-1-1-1-1-1-1-1-1------------------------------------------------|
            “Cowards Who     hide behind their words...”

E|--------------------8--8--8---8--8--8--8--8---------------------|
B|-8-8-8-8-8-8-8-8---10-10-10-10-10-10-10-10----------------------|
G|-7-7-7-7-7-7-7-7---10-10-10-10-10-10-10-10----------------------|
D|-5-5-5-5-5-5-5-5---10-10-10-10-10-10-10-10----------------------|
A|-5-5-5-5-5-5-5-5----8--8--8--8--8--8--8---8---------------------|
D|-5-5-5-5-5-5-5-5------------------------------------------------|
           “Don’t Care who’s feelings will get hurt”

E|---------------------3-3-3-3-3-3-3-3----------------------------|
B|-4-4-4-4-4-4-4-4-----4-4-4-4-4-4-4-4----------------------------|
G|-3-3-3-3-3-3-3-3-----5-5-5-5-5-5-5-5----------------------------|
D|-1-1-1-1-1-1-1-1-----5-5-5-5-5-5-5-5----------------------------|
A|-1-1-1-1-1-1-1-1-----3-3-3-3-3-3-3-3----------------------------|
D|-1-1-1-1-1-1-1-1------------------------------------------------|
            “Beware The            Voice without a face...”


E|---------------------8~ -------------------------------|
B|-8-8-8-8-8-8-8-8---10~ --------------------------------|
G|-7-7-7-7-7-7-7-7---10~ --------------------------------|
D|-5-5-5-5-5-5-5-5---10~ --------------------------------|
A|-5-5-5-5-5-5-5-5----8~ --------------------------------|
D|-5-5-5-5-5-5-5-5---------------------------------------|
           “That’s Hidden       underneath the...”

Chorus
E|-------------------------------------------------------|
B|-------------------------------------------------------|
G|--------------------------------3----------------------|
D|--5-5-5-5--------------5----3------0-------------------|
A|--5-5-5-5-----^----------------------------------------|
D|--5-5-5-5-----7----------------------------------------|
     “Cover of Cowardice”        “Can’t You See Them!?!”

E|-------------------------------------------------------|
B|-------------------------------------------------------|
G|-------------------------------------------------------|
D|--5-5-5-5--------------0-------------------------------|
A|--5-5-5-5-------^------0-------------------------------|
D|--5-5-5-5-------7------0-------------------------------|
     “Covered in Cowardice”    “Can’t You Hear Them!?!”

E|--------------------3-3-3-3-3-3-3-3-------------------|
B|-4-4-4-4-4-4-4-4---4-4-4-4-4-4-4-4--------------------|
G|-3-3-3-3-3-3-3-3---5-5-5-5-5-5-5-5--------------------|
D|-1-1-1-1-1-1-1-1---5-5-5-5-5-5-5-5--------------------|
A|-1-1-1-1-1-1-1-1---3-3-3-3-3-3-3-3--------------------|
D|-1-1-1-1-1-1-1-1--------------------------------------|
           “Beware The         Voice without a face...”

E|-------------------------------------------------------|
B|-8-8-8-8-8-8-8-8---------------------------------------|
G|-7-7-7-7-7-7-7-7---------------------------------------|
D|-5-5-5-5-5-5-5-5----3~ --------------------------------|
A|-5-5-5-5-5-5-5-5----3~ --------------------------------|
D|-5-5-5-5-5-5-5-5----3~ --------------------------------|
           “That’s Hidden        underneath the...”

E|-------------------------------------------------------|
B|-------------------------------------------------------|
G|---------------------------------3---------------------|
D|--5-5-5-5--------------5----3------0-------------------|
A|--5-5-5-5-----^----------------------------------------|
D|--5-5-5-5-----7----------------------------------------|
     “Cover of Cowardice”        “Can’t You See Them!?!”


E|-----------------------------------------------------|
B|-----------------------------------------------------|
G|-----------------------------------------------------|
D|--5-5-5-5--------------0-----------------------------|
A|--5-5-5-5-------^------0-----------------------------|
D|--5-5-5-5-------7------0-----------------------------|
     “Covered in Cowardice”    “Can’t You Hear Them!?!”

E|--------------------3-3-3-3-3-3-3-3--------------------|
B|-4-4-4-4-4-4-4-4---4-4-4-4-4-4-4-4---------------------|
G|-3-3-3-3-3-3-3-3---5-5-5-5-5-5-5-5---------------------|
D|-1-1-1-1-1-1-1-1---5-5-5-5-5-5-5-5---------------------|
A|-1-1-1-1-1-1-1-1---3-3-3-3-3-3-3-3---------------------|
D|-1-1-1-1-1-1-1-1---------------------------------------|
            “Cowards Who      hide behind their words...”

E|--------------------8--8--8---8--8--8--8--8------------|
B|-8-8-8-8-8-8-8-8---10-10-10-10-10-10-10-10-------------|
G|-7-7-7-7-7-7-7-7---10-10-10-10-10-10-10-10-------------|
D|-5-5-5-5-5-5-5-5---10-10-10-10-10-10-10-10-------------|
A| -5-5-5-5-5-5-5-5---8--8--8--8---8--8--8--8------------|
D|-5-5-5-5-5-5-5-5---------------------------------------|
            “Don’t Care who’s feelings will get hurt”

E|----------------------3-3-3-3-3-3-3-3------------------|
B|-4-4-4-4-4-4-4-4-----4-4-4-4-4-4-4-4-------------------|
G|-3-3-3-3-3-3-3-3-----5-5-5-5-5-5-5-5-------------------|
D|-1-1-1-1-1-1-1-1-----5-5-5-5-5-5-5-5-------------------|
A |-1-1-1-1-1-1-1-1----3-3-3-3-3-3-3-3-------------------|
D|-1-1-1-1-1-1-1-1---------------------------------------|
           “Their Eyes are         Blinded by their rage...”

E|--------------------------------------------------------|
B|--------------------------------------------------------|
G|--------------------------------------------------------|
D|--5-5-5-5--------------0--------------------------------|
A|--5-5-5-5-----^--------0--------------------------------|
D|--5-5-5-5-----7--------0--------------------------------|
                “Beware the            Voice without a face...”

Verse 2                                                   ^     ^     ^
E|---------------------------7----7---7---7---------------|
B|---------------------------7----7---7---7---------------|
G|--7---7---7---7---7h8p7---7----7---7---7----------------|
D|--------------------------------------------------------|
A|--------------------------------------------------------|
D|--------------------------------------------------------|


E|---------------------------3~ ---------------------------|
B|---------------------------4~ ---------------------------|
G|-7----7---7---7---7h8p7---3~ ------5-5-5-----------------|
D|------------------------------------5-5-5----------------|
A|------------------------------------3-3-3----------------|
D|---------------------------------------------------------|

E|----------6--------------------5-----------------------|
B|----------8--------------------7-----------------------|
G|----------7--------------------7-----------------------|
D|----------5--------------------7-----------------------|
A|----------5--------------------5-----------------------|
D|----------5--------------------------------------------|
   “When your insecure, They’ll find the fuel to start a fire...”

E|-------1-----------------6------------------------------|
B|-------3-----------------8------------------------------|
G|-------3-----------------8------------------------------|
D|-------3-----------------8------------------------------|
A|-------1-----------------6------------------------------|
D|--------------------------------------------------------|
  “They’re Bitter Pricks with only hatrid to Inspire...”
                                                              ^           ^           ^
E|----------------------------------------------------------|
B|---------------------7----------7------7------7-----------|
G|-7-7--7--7-7h8p7----7----------7------7------7------------|
D|---------------------7----------7------7------7-----------|
A|----------------------------------------------------------|
D|----------------------------------------------------------|
    “Level Heads prevail... Revenge won’t make it better...”

E|------------------------3--3--3--3--3--3---333------------|
B|------------------------4--4--4--4--4--4---444------------|
G|-7---7----7-7---7h8p7--3--3--3--3--3--3---333-------------|
D|----------------------------------------------------------|
A|----------------------------------------------------------|
D|----------------------------------------------------------|
   "Trust your instinct like you trust what's in the mirror

Play Pre-Chorus
Play Chorus

Bridge/Solo
E|---6-6-6-6-8---8--8--8-10-10-10-10-10-10-10-10-10-10-------|
B|---8-8-8-8-10-10-10-10-11-11-11-11-11-11-11-11-11-11-------|
G|---8-8-8-8-10-10-10-10-12-12-12-12-12-12-12-12-12-12-------|
D|-----------------------------------------------------------|
A|-----------------------------------------------------------|
D|-----------------------------------------------------------|

E|---3-3-3-3-6-6-6-6-8--8--8--8-----------------------------------|
B|---4-4-4-4-8-8-8-8-10-10-10-10----------------------------------|
G|---5-5-5-5-8-8-8-8-10-10-10-10----------------------------------|
D|----------------------------------5-5-5-5---^-------------------|
A|----------------------------------3-3-3-3---5---5-5-5-5---^-----|
D|------------------------------------------------5-5-5-5---7-----|

E|-----------------------------------------------------------------|
B|-----------------------------------------------------------------|
G|--7-8-5-3-2-3-3/5--3-3-3-3---------------------------------------|
D|--0~ ---------------1-1-1-1--------------------------------------|
A|--0~ ---------------1-1-1-1--------------------------------------|
D|--0~ ---------------1-1-1-1--------------------------------------|


E|---6-6-6-6-8--8--8---8-10-10-10-10-10-10-10-10-10-10--------------|
B|---8-8-8-8-10-10-10-10-11-11-11-11-11-11-11-11-11-11--------------|
G|---8-8-8-8-10-10-10-10-12-12-12-12-12-12-12-12-12-12--------------|
D|------------------------------------------------------------------|
A|------------------------------------------------------------------|
D|------------------------------------------------------------------|


E|---3-3-3-3-6-6-6-6-8--8--8---8------------------------------------|
B|---4-4-4-4-8-8-8-8-10-10-10-10------------------------------------|
G|---5-5-5-5-8-8-8-8-10-10-10-10------------------------------------|
D|-----------------------------------5-5-5-5---^--------------------|
A|-----------------------------------3-3-3-3---5---5-5-5-5---^------|
D|--------------------------------------------------5-5-5-5---7-----|


E|-------------------------------------------------------------------|
B|-------------------------------------------------------------------|
G|--7-8-5-3-2-3-3/5--3-3-3-3-3-3-3-3---------------------------------|
D|--0~ ---------------1-1-1-1-1-1-1-1--------------------------------|
A|--0~ ---------------1-1-1-1-1-1-1-1--------------------------------|
D|--0~ ---------------1-1-1-1-1-1-1-1--------------------------------|
			                    PALM MUTE

Intro
E|--------------------------------------------------------------------|
B|-------------------------------------7~ ----------------------------|
G|--------------------------------7----7~ ----------------------------|
D|--------------------7------8---------7~ ----------------------------|
A|--5-----7------8----------------------------------------------------|
D|----5-5---5-5---5-5---5-5---5---------------------------------------|

E|-----------------------------------------------------------------------|
B|-----------------------------------------8-----------------------------|
G|----------------------------------10----8---------5-5-5----------------|
D|----------------------10----12----------8---------5-5-5----------------|
A|--8-----10-----12---------------------------------3-3-3----------------|
D|----8-8----8-8----8-8---8-8---8----------------------------------------|
Final Chorus!
E|-----------------------------------------------------------------------|
B|-----------------------------------------------------------------------|
G|-------------------------------3---------------------------------------|
D|--5-5-5-5--------------5---3-------0-----------------------------------|
A|--5-5-5-5-----^--------------------------------------------------------|
D|--5-5-5-5-----7--------------------------------------------------------|
    “Cover of Cowardice”        “Can’t You See Them!?!”


E|----------------------------------------------------------------------|
B|----------------------------------------------------------------------|
G|----------------------------------------------------------------------|
D|--5-5-5-5--------------0----------------------------------------------|
A|--5-5-5-5-------^------0----------------------------------------------|
D|--5-5-5-5-------7------0----------------------------------------------|
     “Covered in Cowardice”    “Can’t You Hear Them!?!”

E|----------------------3-3-3-3-3-3-3-3-----------------------------|
B|-4-4-4-4-4-4-4-4-----4-4-4-4-4-4-4-4------------------------------|
G|-3-3-3-3-3-3-3-3-----5-5-5-5-5-5-5-5------------------------------|
D|-1-1-1-1-1-1-1-1-----5-5-5-5-5-5-5-5------------------------------|
A|-1-1-1-1-1-1-1-1-----3-3-3-3-3-3-3-3------------------------------|
D|-1-1-1-1-1-1-1-1--------------------------------------------------|
           “Beware The             Voice without a face...”

E|--------------------------------------------------------------|
B|--------------------------------------------------------------|
G|--------------------------------------------------------------|
D|---5-5-5-5----------3~ ---------------------------------------|
A |---5-5-5-5----^-----3~ --------------------------------------|
D|---5-5-5-5----7-----3~ ---------------------------------------|

E|--------------------------------------------------------------|
B|--------------------------------------------------------------|
G|--------------------------------3-----------------------------|
D|--5-5-5-5--------------5----3------0--------------------------|
A|--5-5-5-5-----^-----------------------------------------------|
D|--5-5-5-5-----7-----------------------------------------------|
     “Cover of Cowardice”        “Can’t You See Them!?!”

E|------------------------------------------------------------|
B|------------------------------------------------------------|
G|------------------------------------------------------------|
D|--5-5-5-5--------------0------------------------------------|
A|--5-5-5-5-------^------0------------------------------------|
D|--5-5-5-5-------7------0------------------------------------|
     “Covered in Cowardice”    “Can’t You Hear Them!?!”

E|--------------------3-3-3-3-3-3-3-3-----------------------------|
B|-4-4-4-4-4-4-4-4---4-4-4-4-4-4-4-4------------------------------|
G|-3-3-3-3-3-3-3-3---5-5-5-5-5-5-5-5------------------------------|
D|-1-1-1-1-1-1-1-1---5-5-5-5-5-5-5-5------------------------------|
A|-1-1-1-1-1-1-1-1---3-3-3-3-3-3-3-3------------------------------|
D|-1-1-1-1-1-1-1-1------------------------------------------------|
            “Cowards Who   hide behind their words...”

E|---------------------8--8--8--8--8--8--8--8---------------------|
B|-8-8-8-8-8-8-8-8---10-10-10-10-10-10-10-10----------------------|
G|-7-7-7-7-7-7-7-7---10-10-10-10-10-10-10-10----------------------|
D|-5-5-5-5-5-5-5-5---10-10-10-10-10-10-10-10----------------------|
A|-5-5-5-5-5-5-5-5----8--8--8--8--8--8--8--8----------------------|
D|-5-5-5-5-5-5-5-5------------------------------------------------|
    “Don’t Care who’s        feelings will get hurt”

E|----------------------3-3-3-3-3-3-3-3-----------------------------|
B|-4-4-4-4-4-4-4-4-----4-4-4-4-4-4-4-4------------------------------|
G|-3-3-3-3-3-3-3-3-----5-5-5-5-5-5-5-5------------------------------|
D|-1-1-1-1-1-1-1-1-----5-5-5-5-5-5-5-5------------------------------|
A|-1-1-1-1-1-1-1-1-----3-3-3-3-3-3-3-3------------------------------|
D|-1-1-1-1-1-1-1-1--------------------------------------------------|
            “Their eyes are Blinded by their Rage...”

E|-------------------------------------------------------------------|
B|-8-8-8-8-8-8-8-8----6-6-6-6-6-6-6----------------------------------|
G|-7-7-7-7-7-7-7-7----5-5-5-5-5-5-5----------------------------------|
D|-5-5-5-5-5-5-5-5----3-3-3-3-3-3-3----------------------------------|
A|-5-5-5-5-5-5-5-5----3-3-3-3-3-3-3----------------------------------|
D|-5-5-5-5-5-5-5-5----3-3-3-3-3-3-3----------------------------------|
           “Beware the            Voice without a Face...”

E|----------------------3-3-3-3-3-3-3-3-----------------------------|
B|-4-4-4-4-4-4-4-4-----4-4-4-4-4-4-4-4------------------------------|
G|-3-3-3-3-3-3-3-3-----5-5-5-5-5-5-5-5------------------------------|
D|-1-1-1-1-1-1-1-1-----5-5-5-5-5-5-5-5------------------------------|
A|-1-1-1-1-1-1-1-1-----3-3-3-3-3-3-3-3------------------------------|
D|-1-1-1-1-1-1-1-1--------------------------------------------------|
                                        “Voice Without a Face...“

E|-------------------------------------------------------------------|
B|-8-8-8-8-8-8-8-8----6-6-6-6-6-6-6----------------------------------|
G|-7-7-7-7-7-7-7-7----5-5-5-5-5-5-5----------------------------------|
D|-5-5-5-5-5-5-5-5----3-3-3-3-3-3-3----------------------------------|
A |-5-5-5-5-5-5-5-5----3-3-3-3-3-3-3---------------------------------|
D|-5-5-5-5-5-5-5-5----3-3-3-3-3-3-3----------------------------------|
                                      “Voice Without a Face...“

E|----------------------3-3-3-3-3-3-3-3-----------------------------|
B|-4-4-4-4-4-4-4-4-----4-4-4-4-4-4-4-4------------------------------|
G|-3-3-3-3-3-3-3-3-----5-5-5-5-5-5-5-5------------------------------|
D|-1-1-1-1-1-1-1-1-----5-5-5-5-5-5-5-5------------------------------|
 |-1-1-1-1-1-1-1-1-----3-3-3-3-3-3-3-3------------------------------|
D|-1-1-1-1-1-1-1-1--------------------------------------------------|
                                         “VOICE WITHOUT A!!!”

E|---------------------------------------------------------------|
B|---------------------------------------------------------------|
G|-------------------------3-------------------------------------|
D|--5-5-5-5----------5--3-----0----5-5-5-5----------5~ ----------|
A|--5-5-5-5----^-------------------5-5-5-5----^-----5~ ----------|
D|--5-5-5-5----7-------------------5-5-5-5----7-----5~ ----------|
comments
print report bad tab
2 comments total.
0 reply
riffking wrote on June 11 2010, 01:48 pm

Intro
E|--------------------------------------------------------------------|
B|------------------------------------- ------------------------------|
G|------------------------------7----11~------------------------------|
D|--------------------7----8---------12~ ------------------------------|
A|--5-----7-----8--------------------12~------------------------------|
D|----5-5---5-5---5-5--5-5---5-------0---------------------------------|

E|---------------------------------------------------------------------|
B|---------------------------------------------------------------------|
G|---------------------------------10----12~------------------------------|
D|----------------------10----12---------13~---------------------------|
A|--8-----10-----12----------------------13~-----------------------------|
D|----8-8----8-8----8-8---8-8---8--------13~------------------------------|

E|-------------------------------------------------------------------------|
B|-------------------------------------------------------------------------|
G|-----------------------------------------7--11-11-11-11-11-11-11-11------|
D|--5-5-5-----5-5-----5-5--7--5-5--8--5-------12-12-12-12-12-12-12-12------|
A|--5-5-5--7--5-5--8--5-5-----5-5-----5-------12-12-12-12-12-12-12-12------|
D|--5-5-5-----5-5-----5-5-----5-5-----5-------0--0--0--0--0--0--0--0-------|

E|----------------------------------------------------------------------|
B|----------------------------------------------------------------------|
G|---------------------------------------------10---12-12-12-12-12-12---|
D|--8-8-8------8-8------8-8--10--8-8--12--8---------13-13-13-13-13-13---|
A|--8-8-8--10--8-8--12--8-8------8-8------8---------13-13-13-13-13-13---|
D|--8-8-8------8-8------8-8------8-8------8---------13-13-13-13-13-13---|


Trust me, I've seen it played...

0 reply
sonatuzun wrote on January 31 2014, 08:00 am

its good and helped me
but
seperate the bass guitar and the guitar pls

I want to post or [tab]
guest
You may want to rate the tab now too:
select rating
Please do not post tabs as comments. Select "correction" instead!