Oops, an error
Loading. Please wait.

Covered In Cowardice Tab

ver4
ver4

Whole song

Interactive

More versions @911Tabs.com
2,065 views 3 this week
no commentswrite comment
1 2 3 4 5
excellent!
x 3
Autoscroll
+/-
esc
set tempo
stop
Difficulty
Tuning
intermediate
D A D G B E
Hey! There's an official Ultimate Guitar app which is ideal
for learning songs when you're away from computer. Get the app
WARNING: You are trying to view
                                    content from Ultimate-Guitar.com
                                    in an unauthorized application,
                                    which is prohibited.

                                    Please use an official Ultimate
                                    Guitar Tabs application for iPhone,
                                    iPad or Android to access legitimate
                                    chords, guitar, bass, and drum tabs
                                    from Ultimate-Guitar.com database.

                                    Type "ultimate guitar tabs" in Apple
                                    App Store's or Android Market's
                                    search to find the application.
Billy Talent - Covered in Cowardice
Tabber - Aidan94
Guitar - Ian D'Sa
This is 100% Correct!

     E  E  E  E  E  E  E  E     E  E  E  E  E  E  E  E     W                  
E||--------------------------|--------------------------|--------------------|
B||--------------------------|--------------------------|--7b----------------|
G||--------------------------|--------------------7-----|--7b----------------|
D||--------------------------|-----7--------8-----------|--7b----------------|
A||--5--------7--------8-----|--------------------------|--5b----------------|
D||-----5--5-----5--5-----5--|--5-----5--5-----5-----5--|--------------------|


  W                   E  E  E   E  E  E   E  E     E   E  E  E   E  E   E  E   
-------------------|----------------------------|-----------------------------|
--L----------------|----------------------------|-----------------------------|
--L----------------|----------------------------|----------------------10-----|
--L----------------|----------------------------|-----10--------12------------|
--L----------------|--8--------10--------12-----|-----------------------------|
-------------------|-----8--8------8--8------8--|--8------8--8------8------8--|


  W                   W                   E  E  E  E  E  E  E  E   
-------------------|-------------------|--------------------------|
--8----------------|--L----------------|--------------------------|
--8----------------|--L----------------|--------------------------|
--8----------------|--L----------------|--------------------------|
--6----------------|--L----------------|--5--5--5--7--5--5--8--5--|
-------------------|-------------------|--5--5--5-----5--5-----5--|


  E  E  E  E  E  E  E  E     Q    Q    Q    Q       Q    Q    Q    Q     
--------------------------|----------------------|----------------------|
--------------------------|--7----7----7----7----|--7----7----7----7----|
--------------------7-----|--7----7----7----7----|--7----7----7----7----|
-----7--------8-----------|--7----7----7----7----|--7----7----7----7----|
--5-----5--5-----5-----5--|--5----5----5----5----|--5----5----5----5----|
--5-----5--5-----5-----5--|----------------------|----------------------|


  E  E  E   E  E  E   E  E     E   E  E  E   E  E   E  E   
----------------------------|-----------------------------|
----------------------------|-----------------------------|
----------------------------|----------------------10-----|
----------------------------|-----10--------12------------|
--8--8--8--10--8--8--12--8--|--8------8--8------8------8--|
--8--8--8------8--8------8--|--8------8--8------8------8--|


                                                 ^                 
  Q    Q    Q    Q       Q    Q    E  E  Q       W                 
----------------------|-----------------------|-------------------|
--8----8----8----8----|--8----8---------------|-------------------|
--8----8----8----8----|--8----8----5--5--5----|--7----------------|
--8----8----8----8----|--8----8----5--5--5----|--5----------------|
--6----6----6----6----|--6----6----3--3--3----|--5----------------|
----------------------|-----------------------|--5----------------|


                      ^                                       ^                 
  W                   W                   W                   W                 
-------------------|-------------------|-------------------|-------------------|
-------------------|--7----------------|--L----------------|--3----------------|
--L----------------|--7----------------|--L----------------|--3----------------|
--L----------------|--7----------------|--L----------------|--3----------------|
--L----------------|--5----------------|--L----------------|--1----------------|
--L----------------|-------------------|-------------------|-------------------|


                      ^                                     
  W                   W                   W                 
-------------------|-------------------|-------------------|
--L----------------|--8----------------|--L----------------|
--L----------------|--8----------------|--L----------------|
--L----------------|--8----------------|--L----------------|
--L----------------|--6----------------|--L----------------|
-------------------|-------------------|-------------------|


  E  E  E  E  E  E  E  E     E  E  E  E  E   E   E  E     W                   
--------------------------|----------------------------|---------------------|
--------------------------|----------------------------|--7pb----------------|
--7--------7--------7-----|-----7--------7h--8p--7-----|--7pb----------------|
--------------------------|----------------------------|--7pb----------------|
--------------------------|----------------------------|--5pb----------------|
-----5--5-----5--5-----5--|--5-----5--5-------------5--|---------------------|


  W                   E  E  E  E  E  E  E  E     E  E  E  E  E   E   E  E   
-------------------|--------------------------|----------------------------|
--L----------------|--------------------------|----------------------------|
--L----------------|--7--------7--------7-----|-----7--------7h--8p--7-----|
--L----------------|--------------------------|----------------------------|
--L----------------|--------------------------|----------------------------|
-------------------|-----8--8-----8--8-----8--|--8-----8--8-------------8--|


  Q    Q    Q    Q       Q    E  E  E  E  E  E     E  E  E  E  E  E  E  E   
----------------------|-------------------------|--------------------------|
--8----8----8----8----|--8----8--8--8--8--8--8--|--4--4--4--4--4--4--4--4--|
--8----8----8----8----|--8----8--8--8--8--8--8--|--5--5--5--5--5--5--5--5--|
--8----8----8----8----|--8----8--8--8--8--8--8--|--5--5--5--5--5--5--5--5--|
--6----6----6----6----|--6----6--6--6--6--6--6--|--3--3--3--3--3--3--3--3--|
----------------------|-------------------------|--------------------------|


  E  E  E  E  E  E  E  E     E  E  E  E  E  E  E  E   
--------------------------|--------------------------|
--8--8--8--8--8--8--8--8--|--8--8--8--8--8--8--8--8--|
--8--8--8--8--8--8--8--8--|--7--7--7--7--7--7--7--7--|
--8--8--8--8--8--8--8--8--|--8--8--8--8--8--8--8--8--|
--6--6--6--6--6--6--6--6--|--5--5--5--5--5--5--5--5--|
--------------------------|--------------------------|


   E   E   E   E   E   E   E   E     E  E  E  E  E  E  E  E   
----------------------------------|--------------------------|
--10--10--10--10--10--10--10--10--|--4--4--4--4--4--4--4--4--|
--10--10--10--10--10--10--10--10--|--5--5--5--5--5--5--5--5--|
--10--10--10--10--10--10--10--10--|--5--5--5--5--5--5--5--5--|
---8---8---8---8---8---8---8---8--|--3--3--3--3--3--3--3--3--|
----------------------------------|--------------------------|


  E  E  E  E  E  E  E  E     E  E  E  E  E  E  E  E      W                 
--------------------------|--------------------------|--------------------|
--8--8--8--8--8--8--8--8--|--8--8--8--8--8--8--8--8--|--10----------------|
--8--8--8--8--8--8--8--8--|--7--7--7--7--7--7--7--7--|--10----------------|
--8--8--8--8--8--8--8--8--|--8--8--8--8--8--8--8--8--|--10----------------|
--6--6--6--6--6--6--6--6--|--5--5--5--5--5--5--5--5--|---8----------------|
--------------------------|--------------------------|--------------------|


  E  E  E  E  E  E   Q       Q    Q    Q    Q       E  E  E  E  E  E   Q     
--------------------------|----------------------|--------------------------|
--------------------------|----------------------|--------------------------|
--------------------------|------------3---------|--------------------------|
--5--5--5--5--------------|-------3--------------|--5--5--5--5--------------|
--5--5--5--5--------------|----------------------|--5--5--5--5--------------|
--5--5--5--5-----7b--L----|--5--------------0----|--5--5--5--5-----7b--L----|


  W                   E  E  E  E  E  E  E  E   
-------------------|--------------------------|
-------------------|--8--8--8--8--8--8--8--8--|
-------------------|--8--8--8--8--8--8--8--8--|
--0----------------|--8--8--8--8--8--8--8--8--|
--0----------------|--6--6--6--6--6--6--6--6--|
--0----------------|--------------------------|


   E   E   E   E   E   E   E   E     E  E  E  E  E  E   Q     
---8---8---8---8---8---8---8---8--|--------------------------|
---8---8---8---8---8---8---8---8--|--------------------------|
---8---8---8---8---8---8---8---8--|--------------------------|
--10--10--10--10--10--10--10--10--|--5--5--5--5--------------|
----------------------------------|--5--5--5--5--------------|
----------------------------------|--5--5--5--5-----7b--L----|


  H.           Q       E  E  E  E  E  E   Q       Q    Q    Q    Q     
--------------------|--------------------------|----------------------|
--------------------|--------------------------|----------------------|
--------------------|--------------------------|------------3---------|
--3------------0----|--5--5--5--5--------------|-------3--------------|
--3------------0----|--5--5--5--5--------------|----------------------|
--3------------0----|--5--5--5--5-----7b--L----|--5--------------0----|


  E  E  E  E  E  E   Q       W                   E  E  E  E  E  E  E  E   
--------------------------|-------------------|--------------------------|
--------------------------|-------------------|--8--8--8--8--8--8--8--8--|
--------------------------|-------------------|--8--8--8--8--8--8--8--8--|
--5--5--5--5--------------|--0----------------|--8--8--8--8--8--8--8--8--|
--5--5--5--5--------------|--0----------------|--6--6--6--6--6--6--6--6--|
--5--5--5--5-----7b--L----|--0----------------|--------------------------|


   E   E   E   E   E   E   E   E     E  E  E  E  E  E  E  E   
---8---8---8---8---8---8---8---8--|--------------------------|
---8---8---8---8---8---8---8---8--|--------------------------|
---8---8---8---8---8---8---8---8--|--------------------------|
--10--10--10--10--10--10--10--10--|--5--5--5--5--5--5--5--5--|
----------------------------------|--5--5--5--5--5--5--5--5--|
----------------------------------|--5--5--5--5--5--5--5--5--|


   E   E   E   E   E   E   E   E     E  E  E  E  E  E  E  E   
----------------------------------|--------------------------|
--10--10--10--10--10--10--10--10--|--8--8--8--8--8--8--8--8--|
--10--10--10--10--10--10--10--10--|--8--8--8--8--8--8--8--8--|
--10--10--10--10--10--10--10--10--|--8--8--8--8--8--8--8--8--|
---8---8---8---8---8---8---8---8--|--6--6--6--6--6--6--6--6--|
----------------------------------|--------------------------|


   E   E   E   E   E   E   E   E     E  E  E  E  E  E   Q     
---8---8---8---8---8---8---8---8--|--------------------------|
---8---8---8---8---8---8---8---8--|--------------------------|
---8---8---8---8---8---8---8---8--|--------------------------|
--10--10--10--10--10--10--10--10--|--5--5--5--5--------------|
----------------------------------|--5--5--5--5--------------|
----------------------------------|--5--5--5--5-----7b--L----|


  W                   E  E  E  E  E  E  E  E     E  E  E  E  E   E   E  E   
-------------------|--------------------------|----------------------------|
-------------------|--------------------------|----------------------------|
-------------------|--7--------7--------7-----|-----7--------7h--8p--7-----|
--0----------------|--------------------------|----------------------------|
--0----------------|--------------------------|----------------------------|
--0----------------|-----5--5-----5--5-----5--|--5-----5--5-------------5--|


  H          H             H          H             E  E  E  E  E  E  E  E   
------------------------|------------------------|--------------------------|
--7pb--------7pb--------|--7pb--------7pb--------|--------------------------|
--7pb--------7pb--------|--7pb--------7pb--------|--7--------7--------7-----|
--7pb--------7pb--------|--7pb--------7pb--------|--------------------------|
--5pb--------5pb--------|--5pb--------5pb--------|--------------------------|
------------------------|------------------------|-----8--8-----8--8-----8--|


  E  E  E  E  E   E   E  E     W                   H        E  E  Q     
----------------------------|-------------------|----------------------|
----------------------------|--8----------------|--L-------------------|
-----7--------7h--8p--7-----|--8----------------|--L--------5--5--5----|
----------------------------|--8----------------|--L--------5--5--5----|
----------------------------|--6----------------|--L--------3--3--3----|
--8-----8--8-------------8--|-------------------|----------------------|


  ^                                       ^                                     
  W                   W                   W                   W                 
-------------------|-------------------|-------------------|-------------------|
-------------------|-------------------|--7----------------|--L----------------|
--7----------------|--L----------------|--7----------------|--L----------------|
--5----------------|--L----------------|--7----------------|--L----------------|
--5----------------|--L----------------|--5----------------|--L----------------|
--5----------------|--L----------------|-------------------|-------------------|


  ^                                       ^                                     
  W                   W                   W                   W                 
-------------------|-------------------|-------------------|-------------------|
--3----------------|--L----------------|--8----------------|--L----------------|
--3----------------|--L----------------|--8----------------|--L----------------|
--3----------------|--L----------------|--8----------------|--L----------------|
--1----------------|--L----------------|--6----------------|--L----------------|
-------------------|-------------------|-------------------|-------------------|


  E  E  E  E  E  E  E  E     E  E  E  E  E   E   E  E   
--------------------------|----------------------------|
--------------------------|----------------------------|
--7--------7--------7-----|-----7--------7h--8p--7-----|
--------------------------|----------------------------|
--------------------------|----------------------------|
-----5--5-----5--5-----5--|--5-----5--5-------------5--|


  H          H             H          H             E  E  E  E  E  E  E  E   
------------------------|------------------------|--------------------------|
--7pb--------7pb--------|--7pb--------7pb--------|--------------------------|
--7pb--------7pb--------|--7pb--------7pb--------|--7--------7--------7-----|
--7pb--------7pb--------|--7pb--------7pb--------|--------------------------|
--5pb--------5pb--------|--5pb--------5pb--------|--------------------------|
------------------------|------------------------|-----8--8-----8--8-----8--|


  E  E  E  E  E   E   E  E     Q    Q    Q    Q       Q    E  E  E  E  E  E   
----------------------------|----------------------|-------------------------|
----------------------------|--8----8----8----8----|--8----8--8--8--8--8--8--|
-----7--------7h--8p--7-----|--8----8----8----8----|--8----8--8--8--8--8--8--|
----------------------------|--8----8----8----8----|--8----8--8--8--8--8--8--|
----------------------------|--6----6----6----6----|--6----6--6--6--6--6--6--|
--8-----8--8-------------8--|----------------------|-------------------------|


  E  E  E  E  E  E  E  E     E  E  E  E  E  E  E  E   
--------------------------|--------------------------|
--4--4--4--4--4--4--4--4--|--8--8--8--8--8--8--8--8--|
--5--5--5--5--5--5--5--5--|--8--8--8--8--8--8--8--8--|
--5--5--5--5--5--5--5--5--|--8--8--8--8--8--8--8--8--|
--3--3--3--3--3--3--3--3--|--6--6--6--6--6--6--6--6--|
--------------------------|--------------------------|


  E  E  E  E  E  E  E  E      E   E   E   E   E   E   E   E   
--------------------------|----------------------------------|
--8--8--8--8--8--8--8--8--|--10--10--10--10--10--10--10--10--|
--7--7--7--7--7--7--7--7--|--10--10--10--10--10--10--10--10--|
--8--8--8--8--8--8--8--8--|--10--10--10--10--10--10--10--10--|
--5--5--5--5--5--5--5--5--|---8---8---8---8---8---8---8---8--|
--------------------------|----------------------------------|


  E  E  E  E  E  E  E  E     E  E  E  E  E  E  E  E   
--------------------------|--------------------------|
--4--4--4--4--4--4--4--4--|--8--8--8--8--8--8--8--8--|
--5--5--5--5--5--5--5--5--|--8--8--8--8--8--8--8--8--|
--5--5--5--5--5--5--5--5--|--8--8--8--8--8--8--8--8--|
--3--3--3--3--3--3--3--3--|--6--6--6--6--6--6--6--6--|
--------------------------|--------------------------|


  E  E  E  E  E  E  E  E      W                   E  E  E  E  E  E   Q     
--------------------------|--------------------|--------------------------|
--8--8--8--8--8--8--8--8--|--10----------------|--------------------------|
--7--7--7--7--7--7--7--7--|--10----------------|--------------------------|
--8--8--8--8--8--8--8--8--|--10----------------|--5--5--5--5--------------|
--5--5--5--5--5--5--5--5--|---8----------------|--5--5--5--5--------------|
--------------------------|--------------------|--5--5--5--5-----7b--L----|


  Q    Q    Q    Q       E  E  E  E  E  E   Q       W                 
----------------------|--------------------------|-------------------|
----------------------|--------------------------|-------------------|
------------3---------|--------------------------|-------------------|
-------3--------------|--5--5--5--5--------------|--0----------------|
----------------------|--5--5--5--5--------------|--0----------------|
--5--------------0----|--5--5--5--5-----7b--L----|--0----------------|


  E  E  E  E  E  E  E  E      E   E   E   E   E   E   E   E   
--------------------------|---8---8---8---8---8---8---8---8--|
--8--8--8--8--8--8--8--8--|---8---8---8---8---8---8---8---8--|
--8--8--8--8--8--8--8--8--|---8---8---8---8---8---8---8---8--|
--8--8--8--8--8--8--8--8--|--10--10--10--10--10--10--10--10--|
--6--6--6--6--6--6--6--6--|----------------------------------|
--------------------------|----------------------------------|


  E  E  E  E  E  E   Q       H.           Q       E  E  E  E  E  E   Q     
--------------------------|--------------------|--------------------------|
--------------------------|--------------------|--------------------------|
--------------------------|--------------------|--------------------------|
--5--5--5--5--------------|--3------------0----|--5--5--5--5--------------|
--5--5--5--5--------------|--3------------0----|--5--5--5--5--------------|
--5--5--5--5-----7b--L----|--3------------0----|--5--5--5--5-----7b--L----|


  Q    Q    Q    Q       E  E  E  E  E  E   Q       W                 
----------------------|--------------------------|-------------------|
----------------------|--------------------------|-------------------|
------------3---------|--------------------------|-------------------|
-------3--------------|--5--5--5--5--------------|--0----------------|
----------------------|--5--5--5--5--------------|--0----------------|
--5--------------0----|--5--5--5--5-----7b--L----|--0----------------|


  E  E  E  E  E  E  E  E      E   E   E   E   E   E   E   E   
--------------------------|---8---8---8---8---8---8---8---8--|
--8--8--8--8--8--8--8--8--|---8---8---8---8---8---8---8---8--|
--8--8--8--8--8--8--8--8--|---8---8---8---8---8---8---8---8--|
--8--8--8--8--8--8--8--8--|--10--10--10--10--10--10--10--10--|
--6--6--6--6--6--6--6--6--|----------------------------------|
--------------------------|----------------------------------|


  E  E  E  E  E  E  E  E      E   E   E   E   E   E   E   E   
--------------------------|----------------------------------|
--------------------------|--10--10--10--10--10--10--10--10--|
--------------------------|--10--10--10--10--10--10--10--10--|
--5--5--5--5--5--5--5--5--|--10--10--10--10--10--10--10--10--|
--5--5--5--5--5--5--5--5--|---8---8---8---8---8---8---8---8--|
--5--5--5--5--5--5--5--5--|----------------------------------|


  E  E  E  E  E  E  E  E      E   E   E   E   E   E   E   E   
--------------------------|---8---8---8---8---8---8---8---8--|
--8--8--8--8--8--8--8--8--|---8---8---8---8---8---8---8---8--|
--8--8--8--8--8--8--8--8--|---8---8---8---8---8---8---8---8--|
--8--8--8--8--8--8--8--8--|--10--10--10--10--10--10--10--10--|
--6--6--6--6--6--6--6--6--|----------------------------------|
--------------------------|----------------------------------|


  E  E  E  E  E  E   Q       W                 
--------------------------|-------------------|
--------------------------|-------------------|
--------------------------|-------------------|
--5--5--5--5--------------|--0----------------|
--5--5--5--5--------------|--0----------------|
--5--5--5--5-----7b--L----|--0----------------|


   E   E   E   E   E   E   E   E      E   E   E   E   E   E   E   E   
----------------------------------|----------------------------------|
--11--11--11--11--13--13--13--13--|--15--15--15--15--15--15--15--15--|
--12--12--12--12--14--14--14--14--|--15--15--15--15--15--15--15--15--|
--12--12--12--12--15--15--15--15--|--15--15--15--15--15--15--15--15--|
--10--10--10--10--12--12--12--12--|--13--13--13--13--13--13--13--13--|
----------------------------------|----------------------------------|


  E  E  E  E   E   E   E   E      E   E   E   E   E   E   E   E   
------------------------------|----------------------------------|
--8--8--8--8--10--10--10--10--|--11--11--11--11--11--11--11--11--|
--8--8--8--8--10--10--10--10--|--12--12--12--12--12--12--12--12--|
--8--8--8--8--10--10--10--10--|--12--12--12--12--12--12--12--12--|
--6--6--6--6---8---8---8---8--|--10--10--10--10--10--10--10--10--|
------------------------------|----------------------------------|


  E  E  E  E  E  E   Q       E  E  E  E  E  E   Q     
--------------------------|--------------------------|
--4--4--4--4--------------|--------------------------|
--5--5--5--5--------------|--------------------------|
--5--5--5--5--------------|--5--5--5--5--------------|
--3--3--3--3-----5b--L----|--5--5--5--5--------------|
--------------------------|--5--5--5--5-----7b--L----|


  E  E  E  E  E  E   Q       Q    Q    Q    Q     
--------------------------|----------------------|
--------------------------|--8----8----8----8----|
-----8--7--5--------------|--8----8----8----8----|
--0-----------7--8--10----|--8----8----8----8----|
--0-----------------------|--6----6----6----6----|
--0-----------------------|----------------------|


   E   E   E   E   E   E   E   E      E   E   E   E   E   E   E   E   
----------------------------------|----------------------------------|
--11--11--11--11--13--13--13--13--|--15--15--15--15--15--15--15--15--|
--12--12--12--12--14--14--14--14--|--15--15--15--15--15--15--15--15--|
--12--12--12--12--15--15--15--15--|--15--15--15--15--15--15--15--15--|
--10--10--10--10--12--12--12--12--|--13--13--13--13--13--13--13--13--|
----------------------------------|----------------------------------|


  E  E  E  E   E   E   E   E      E   E   E   E   E   E   E   E   
------------------------------|----------------------------------|
--8--8--8--8--10--10--10--10--|--11--11--11--11--11--11--11--11--|
--8--8--8--8--10--10--10--10--|--12--12--12--12--12--12--12--12--|
--8--8--8--8--10--10--10--10--|--12--12--12--12--12--12--12--12--|
--6--6--6--6---8---8---8---8--|--10--10--10--10--10--10--10--10--|
------------------------------|----------------------------------|


  E  E  E  E  E  E   Q       E  E  E  E  E  E   Q     
--------------------------|--------------------------|
--4--4--4--4--------------|--------------------------|
--5--5--5--5--------------|--------------------------|
--5--5--5--5--------------|--5--5--5--5--------------|
--3--3--3--3-----5b--L----|--5--5--5--5--------------|
--------------------------|--5--5--5--5-----7b--L----|


                             PM PM PM PM              
  E  E  E  E  E  E   Q       E  E  E  E  E  E  E  E   
--------------------------|--------------------------|
--------------------------|--8--8--8--8--8--8--8--8--|
-----8--7--5--------------|--8--8--8--8--8--8--8--8--|
--0-----------7--8--10----|--8--8--8--8--8--8--8--8--|
--0-----------------------|--6--6--6--6--6--6--6--6--|
--0-----------------------|--------------------------|


  E  E  E  E  E  E  E  E     E  E  E  E  E  E  E  E     W                  
--------------------------|--------------------------|--------------------|
--------------------------|--------------------------|--7b----------------|
--------------------------|--------------------7-----|--7b----------------|
--------------------------|-----7--------8-----------|--7b----------------|
--5--------7--------8-----|--------------------------|--5b----------------|
-----5--5-----5--5-----5--|--5-----5--5-----5-----5--|--------------------|


  W                   E  E  E   E  E  E   E  E     E   E  E  E   E  E   E  E   
-------------------|----------------------------|-----------------------------|
--L----------------|----------------------------|-----------------------------|
--L----------------|----------------------------|----------------------10-----|
--L----------------|----------------------------|-----10--------12------------|
--L----------------|--8--------10--------12-----|-----------------------------|
-------------------|-----8--8------8--8------8--|--8------8--8------8------8--|


  W                   H        E  E  Q       E  E  E  E  E  E   Q     
-------------------|----------------------|--------------------------|
--8----------------|--L-------------------|--------------------------|
--8----------------|--L--------5--5--5----|--------------------------|
--8----------------|--L--------5--5--5----|--5--5--5--5--------------|
--6----------------|--L--------3--3--3----|--5--5--5--5--------------|
-------------------|----------------------|--5--5--5--5-----7b--L----|


  Q    Q    Q    Q       E  E  E  E  E  E   Q       W                 
----------------------|--------------------------|-------------------|
----------------------|--------------------------|-------------------|
------------3---------|--------------------------|-------------------|
-------3--------------|--5--5--5--5--------------|--0----------------|
----------------------|--5--5--5--5--------------|--0----------------|
--5--------------0----|--5--5--5--5-----7b--L----|--0----------------|


  E  E  E  E  E  E  E  E      E   E   E   E   E   E   E   E   
--------------------------|---8---8---8---8---8---8---8---8--|
--8--8--8--8--8--8--8--8--|---8---8---8---8---8---8---8---8--|
--8--8--8--8--8--8--8--8--|---8---8---8---8---8---8---8---8--|
--8--8--8--8--8--8--8--8--|--10--10--10--10--10--10--10--10--|
--6--6--6--6--6--6--6--6--|----------------------------------|
--------------------------|----------------------------------|


  E  E  E  E  E  E   Q       H.           Q       E  E  E  E  E  E   Q     
--------------------------|--------------------|--------------------------|
--------------------------|--------------------|--------------------------|
--------------------------|--------------------|--------------------------|
--5--5--5--5--------------|--3------------0----|--5--5--5--5--------------|
--5--5--5--5--------------|--3------------0----|--5--5--5--5--------------|
--5--5--5--5-----7b--L----|--3------------0----|--5--5--5--5-----7b--L----|


  Q    Q    Q    Q       E  E  E  E  E  E   Q       W                 
----------------------|--------------------------|-------------------|
----------------------|--------------------------|-------------------|
------------3---------|--------------------------|-------------------|
-------3--------------|--5--5--5--5--------------|--0----------------|
----------------------|--5--5--5--5--------------|--0----------------|
--5--------------0----|--5--5--5--5-----7b--L----|--0----------------|


  E  E  E  E  E  E  E  E      E   E   E   E   E   E   E   E   
--------------------------|---8---8---8---8---8---8---8---8--|
--8--8--8--8--8--8--8--8--|---8---8---8---8---8---8---8---8--|
--8--8--8--8--8--8--8--8--|---8---8---8---8---8---8---8---8--|
--8--8--8--8--8--8--8--8--|--10--10--10--10--10--10--10--10--|
--6--6--6--6--6--6--6--6--|----------------------------------|
--------------------------|----------------------------------|


  E  E  E  E  E  E  E  E      E   E   E   E   E   E   E   E   
--------------------------|----------------------------------|
--------------------------|--10--10--10--10--10--10--10--10--|
--------------------------|--10--10--10--10--10--10--10--10--|
--5--5--5--5--5--5--5--5--|--10--10--10--10--10--10--10--10--|
--5--5--5--5--5--5--5--5--|---8---8---8---8---8---8---8---8--|
--5--5--5--5--5--5--5--5--|----------------------------------|


  E  E  E  E  E  E  E  E      E   E   E   E   E   E   E   E   
--------------------------|---8---8---8---8---8---8---8---8--|
--8--8--8--8--8--8--8--8--|---8---8---8---8---8---8---8---8--|
--8--8--8--8--8--8--8--8--|---8---8---8---8---8---8---8---8--|
--8--8--8--8--8--8--8--8--|--10--10--10--10--10--10--10--10--|
--6--6--6--6--6--6--6--6--|----------------------------------|
--------------------------|----------------------------------|


  E  E  E  E  E  E  E  E      E   E   E   E   E   E   E   E   
--------------------------|----------------------------------|
--------------------------|--10--10--10--10--10--10--10--10--|
--------------------------|--10--10--10--10--10--10--10--10--|
--5--5--5--5--5--5--5--5--|--10--10--10--10--10--10--10--10--|
--5--5--5--5--5--5--5--5--|---8---8---8---8---8---8---8---8--|
--5--5--5--5--5--5--5--5--|----------------------------------|


  E  E  E  E  E  E  E  E      E   E   E   E   E   E   E   E   
--------------------------|---8---8---8---8---8---8---8---8--|
--8--8--8--8--8--8--8--8--|---8---8---8---8---8---8---8---8--|
--8--8--8--8--8--8--8--8--|---8---8---8---8---8---8---8---8--|
--8--8--8--8--8--8--8--8--|--10--10--10--10--10--10--10--10--|
--6--6--6--6--6--6--6--6--|----------------------------------|
--------------------------|----------------------------------|


  E  E  E  E  E  E  E  E      E   E   E   E   E   E   E   E   
--------------------------|----------------------------------|
--------------------------|--10--10--10--10--10--10--10--10--|
--------------------------|--10--10--10--10--10--10--10--10--|
--5--5--5--5--5--5--5--5--|--10--10--10--10--10--10--10--10--|
--5--5--5--5--5--5--5--5--|---8---8---8---8---8---8---8---8--|
--5--5--5--5--5--5--5--5--|----------------------------------|


  E  E  E  E  E  E  E  E      E   E   E   E   E   E   E   E   
--------------------------|---8---8---8---8---8---8---8---8--|
--8--8--8--8--8--8--8--8--|---8---8---8---8---8---8---8---8--|
--8--8--8--8--8--8--8--8--|---8---8---8---8---8---8---8---8--|
--8--8--8--8--8--8--8--8--|--10--10--10--10--10--10--10--10--|
--6--6--6--6--6--6--6--6--|----------------------------------|
--------------------------|----------------------------------|


  E  E  E  E  E  E   Q       Q    Q    Q    Q       E  E  E  E  E  E   Q     
--------------------------|----------------------|--------------------------|
--------------------------|----------------------|--------------------------|
--------------------------|------------3---------|--------------------------|
--5--5--5--5--------------|-------3--------------|--5--5--5--5--------------|
--5--5--5--5--------------|----------------------|--5--5--5--5--------------|
--5--5--5--5-----7b--L----|--5--------------0----|--5--5--5--5-----7b--L----|


  W                   W                  
-------------------|-------------------||
--8----------------|--L----------------||
--7----------------|--L----------------||
--5----------------|--L----------------||
--5----------------|--L----------------||
--5----------------|--L----------------||
comments
We did not receive enough feedback on this tab! Please rate:
print report bad tab
1 2 3 4 5
I want to post or [tab]
guest
You may want to rate the tab now too:
select rating
Please do not post tabs as comments. Select "correction" instead!