Oops, an error
Loading. Please wait.

Devil On My Shoulder Tab

ver4
ver4
More versions @911Tabs.com
6,584 views 29 this week
3 commentsread comments
1 2 3 4 5
excellent!
x 6
Autoscroll
+/-
esc
set tempo
stop
Contributor
WARNING: You are trying to view
                                    content from Ultimate-Guitar.com
                                    in an unauthorized application,
                                    which is prohibited.

                                    Please use an official Ultimate
                                    Guitar Tabs application for iPhone,
                                    iPad or Android to access legitimate
                                    chords, guitar, bass, and drum tabs
                                    from Ultimate-Guitar.com database.

                                    Type "ultimate guitar tabs" in Apple
                                    App Store's or Android Market's
                                    search to find the application.
Follow Me On Twitter @ www.twitter.com/xmesh14x
(/) Slide Up
(\) Slide Down
(h) Hammer On
(p) Pull Off
(b) Bend
(r) Release
(v)(~) Vibrato

        BILLY TALENT - DEVIL ON MY SHOULDER TAB

Tuning - Drop D

*INTRO*
E|------------------------------------------------------------|
B|-----------10----------8------------------------------------|
G|-----------x-----------x------------------------------------|
D|-----------7-----------6-----------------------------3------| (X3)
A|-----------8-----------7--------5p3p0-----------5p0-----5v--|
D|--0-0--0------0-0--0-----0--0---------3/5h7p0---------------|

E|---------------------------------------------------|
B|---------10------8---------------------------------|
G|---------7-------6---------------------------------|
D|---------x-------x-----------------------3---------|
A|---------8-------7-----5p3p0---------5p0-----------|
D|--0-0--0---0-0--0---0-0-------3/5h7p0-------5b7----|


*VERSE*
E|--------------------------------------------------------|
B|--2--3--6-----------------------------------------------|
G|--2--3--6-----------------------------------------------|(x2)
D|--2--3--6-----------3-----------------------------------|
A|--0--1--4-------5p0-------------------------------------|
D|----------0h7p0-------5b7-------------------------------|

E|--------------------------------------------------------|
B|--2-x-x-x-3-x-x-x-6-x-x-x-------------------------------|
G|--2-x-x-x-3-x-x-x-6-x-x-x-------------------------------|
D|--2-x-x-x-3-x-x-x-6-x-x-x------------3------------------|
A|--0-x-x-x-1-x-x-x-4-x-x-x--------5p0--------------------|
D|---------------------------0h7p0-------5b7--------------|

E|--------------------------------------------------------|
B|--2-x-x-x-3-x-x-x-6-x-x-x-6-6-6-6-8-8-8-8-10-10-10-10---|
G|--2-x-x-x-3-x-x-x-6-x-x-x-5-5-5-5-9-9-9-9-10-10-10-10---|
D|--2-x-x-x-3-x-x-x-6-x-x-x-7-7-7-7-9-9-9-9-10-10-10-10---|
A|--0-x-x-x-1-x-x-x-4-x-x-x-5-5-5-5-7-7-7-7-8--8--8--8----|
D|--------------------------------------------------------|

*PRE-CHORUS*
E|------------------------------------------------------------|
B|-------------------------6-------------------------6--6--6--|
G|-------------------------5-------------------------5--5--5--|
D|-------------------------7-------------------------7--7--7--|
A|----------------------5--5-------------------------5--5--5--|
D|--55--555--3h5--7p0-------------55--555--3h5--7p0-----------|

E|---------------------------------------------------------------|
B|-----------------------6---------------------------------------|
G|-----------------------5--99999999-10-10-10-10-10-10-10-10-----|
D|-----------------------7--77777777-8--8--8--8--8--8--8--8------|
A|--------------------5--5--77777777-8--8--8--8--8--8--8--8------|
D|--55--555--3h5--7p0--------------------------------------------|

*CHORUS*
E|-------------------------------------------------------|
B|--6----------------------------------------------------|
G|--5----------------------------------------------------|
D|--7--0--3--7--5--5-------------------------------------|(x3)
A|--5--0--3--7--5--5-------------3-----------5--3--0-----|
D|-----0--3--7--5--5--5h7--7--7-----5--3--0-----------0--|

E|--------------------------------------------------------------|
B|--6-----------------------------------------------------------|
G|--5-----------------9-9-9-9-9-9-9-9--10-10-10-10-10-10-10-10--|
D|--7--0--3--7--5--5--7-7-7-7-7-7-7-7--8--8--8--8--8--8--8--8---|
A|--5--0--3--7--5--5--7-7-7-7-7-7-7-7--8--8--8--8--8--8--8--8---|
D|-----0--3--7--5--5--------------------------------------------|

*INTRO*
E|------------------------------------------------------------|
B|-----------10----------8------------------------------------|
G|-----------x-----------x------------------------------------|
D|-----------7-----------6-----------------------------3------|
A|-----------8-----------7--------5p3p0-----------5p0-----5v--|
D|--0-0--0------0-0--0-----0--0---------3/5h7p0---------------|

E|---------------------------------------------------|
B|---------10------8---------------------------------|
G|---------7-------6---------------------------------|
D|---------x-------x-----------------------3---------|
A|---------8-------7-----5p3p0---------5p0-----------|
D|--0-0--0---0-0--0---0-0-------3/5h7p0-------5b7----|

*VERSE*
E|--------------------------------------------------------|
B|--2--3--6-----------------------------------------------|
G|--2--3--6-----------------------------------------------|(x2)
D|--2--3--6-----------3-----------------------------------|
A|--0--1--4-------5p0-------------------------------------|
D|----------0h7p0-------5b7-------------------------------|

E|----------------------------------------------------------|
B|--2-x-x-x-3-x-x-x-6-x-x-x---------------------------------|
G|--2-x-x-x-3-x-x-x-6-x-x-x---------------------------------|
D|--2-x-x-x-3-x-x-x-6-x-x-x------------3--------------------|
A|--0-x-x-x-1-x-x-x-4-x-x-x--------5p0----------------------|
D|---------------------------0h7p0-------5b7----------------|

E|--------------------------------------------------------|
B|--2-x-x-x-3-x-x-x-6-x-x-x-6-6-6-6-8-8-8-8-10-10-10-10---|
G|--2-x-x-x-3-x-x-x-6-x-x-x-5-5-5-5-9-9-9-9-10-10-10-10---|
D|--2-x-x-x-3-x-x-x-6-x-x-x-7-7-7-7-9-9-9-9-10-10-10-10---|
A|--0-x-x-x-1-x-x-x-4-x-x-x-5-5-5-5-7-7-7-7-8--8--8--8----|
D|--------------------------------------------------------|

*PRE-CHORUS*
E|------------------------------------------------------------|
B|-------------------------6-------------------------6--6--6--|
G|-------------------------5-------------------------5--5--5--|
D|-------------------------7-------------------------7--7--7--|
A|----------------------5--5-------------------------5--5--5--|
D|--55--555--3h5--7p0-------------55--555--3h5--7p0-----------|

E|------------------------------------------------------------|
B|-----------------------6------------------------------------|
G|-----------------------5--99999999-10-10-10-10-10-10-10-10--|
D|-----------------------7--77777777-8--8--8--8--8--8--8--8---|
A|--------------------5--5--77777777-8--8--8--8--8--8--8--8---|
D|--55--555--3h5--7-------------------------------------------|

*CHORUS*
E|-------------------------------------------------------|
B|--6----------------------------------------------------|
G|--5----------------------------------------------------|
D|--7--0--3--7--5--5-------------------------------------|(x3)
A|--5--0--3--7--5--5-------------3-----------5--3--0-----|
D|-----0--3--7--5--5--5h7--7--7-----5--3--0-----------0--|

E|--------------------------------------------------------------|
B|--6-----------------------------------------------------------|
G|--5-----------------9-9-9-9-9-9-9-9--10-10-10-10-10-10-10-10--|
D|--7--0--3--7--5--5--7-7-7-7-7-7-7-7--8--8--8--8--8--8--8--8---|
A|--5--0--3--7--5--5--7-7-7-7-7-7-7-7--8--8--8--8--8--8--8--8---|
D|-----0--3--7--5--5--------------------------------------------|

****SOLO****
E------------------------------10-------------------------------------|
B----------10--15~-15~------------13-10----10-------------------------|
G-------10--------------12b14-----------12----12-10----12-10----------|
D--5/12--------------------------------------------12-------12-10-12--|
A---------------------------------------------------------------------|
D---------------------------------------------------------------------|

E-------------------------------10------------------------------------|
B----------10--15~-18p15~----------13-10----10------------------------|
G-------10----------------12b14----------12----12-10-12-12b14r12-10\9-|
D--5/12---------------------------------------------------------------|
A---------------------------------------------------------------------|
D---------------------------------------------------------------------|

E---------------------------------------------------------------------|
B--------------------------------------10h11p10-----------------------|
G--9h10-10b12r(10)-9h10p9---7/10-10-12----------12-10-12-10--7/9------|
D---------------------------------------------------------------------|
A---------------------------------------------------------------------|
D---------------------------------------------------------------------|

E----------------------------------------10---------------------------|
B-------------------------------------------13-10---------------------|
G--9h10--10b12r(10)-9h10p9--7/10---12b14-----------12-10-12-10--7-----|
D---------------------------------------------------------------------|
A---------------------------------------------------------------------|
D---------------------------------------------------------------------|

*BRIDGE*
E----------------------------------------------------------------------|
B--2-2-2-2-2-2-2-2-3-3-3-3-3-3-------------6-6-6-6-8-8-8-8-10-10-10-10-|
G--2-2-2-2-2-2-2-2-3-3-3-3-3-3-------------5-5-5-5-9-9-9-9-10-10-10-10-|
D--2-2-2-2-2-2-2-2-3-3-3-3-3-3-3-3-0-0-0-0-7-7-7-7-9-9-9-9-10-10-10-10-|
A--0-0-0-0-0-0-0-0-1-1-1-1-1-1-3-3-0-0-0-0-5-5-5-5-7-7-7-7--8--8--8--8-|
D------------------------------3-3-0-0-0-0-----------------------------|

E----------------------------------------------------------------------|
B--2-2-2-2-2-2-2-2-3-3-3-3-3-3-------------6-6-6-6-8-8-8-8-10-10-10-10-|
G--2-2-2-2-2-2-2-2-3-3-3-3-3-3-------------5-5-5-5-9-9-9-9-10-10-10-10-|
D--2-2-2-2-2-2-2-2-3-3-3-3-3-3-3-3-0-0-0-0-7-7-7-7-9-9-9-9-10-10-10-10-|
A--0-0-0-0-0-0-0-0-1-1-1-1-1-1-3-3-0-0-0-0-5-5-5-5-7-7-7-7--8--8--8--8-|
D------------------------------3-3-0-0-0-0-----------------------------|

E----------------------------------------------------------------------|
B--2-2-2-2-2-2-2-2-3-3-3-3-3-3-------------6-6-6-6-8-8-8-8-10-10-10-10-|
G--2-2-2-2-2-2-2-2-3-3-3-3-3-3-------------5-5-5-5-9-9-9-9-10-10-10-10-|
D--2-2-2-2-2-2-2-2-3-3-3-3-3-3-3-3-0-0-0-0-7-7-7-7-9-9-9-9-10-10-10-10-|
A--0-0-0-0-0-0-0-0-1-1-1-1-1-1-3-3-0-0-0-0-5-5-5-5-7-7-7-7--8--8--8--8-|
D------------------------------3-3-0-0-0-0-----------------------------|

E----------------------------------------------------------------------|
B--2-2-2-2-2-2-2-2-3-3-3-3-3-3-------------6-6-6-6-8-8-8-8-10-10-10-10-|
G--2-2-2-2-2-2-2-2-3-3-3-3-3-3-------------5-5-5-5-9-9-9-9-10-10-10-10-|
D--2-2-2-2-2-2-2-2-3-3-3-3-3-3-3-3-0-0-0-0-7-7-7-7-9-9-9-9-10-10-10-10-|
A--0-0-0-0-0-0-0-0-1-1-1-1-1-1-3-3-0-0-0-0-5-5-5-5-7-7-7-7--8--8--8--8-|
D------------------------------3-3-0-0-0-0-----------------------------|



 *BASS COMES IN... CHILL FOR A BIT :P*



*CHORUS*
E|-------------------------------------------------------|
B|--6----------------------------------------------------|
G|--5----------------------------------------------------|
D|--7--0--3--7--5--5-------------------------------------|
A|--5--0--3--7--5--5-------------3-----------5--3--0-----|
D|-----0--3--7--5--5--5h7--7--7-----5--3--0-----------0--|

E|----------------------------------------------------------------------------|
B|--6-------------------------------------------------------------------------|
G|--5-------------------------------------------------------------------------|
D|--7-0-3-7-5-5--------------------------------------3------------------------|
A|--5-0-3-7-5-5------------3-----------5--3--0--3--5---5--3--0-----------5--5-|
D|----0-3-7-5-5-5h7--7--7-----5--3--0---------------------------0--3--7--5--5-|

E|------------------------------------|
B|------------------------------------|
G|------------------------------------|
D|------------------------------------|
A|------------3-----------5--3--0-----|
D|-5h7--7--7-----5--3--0-----------0--|

E|--------------------------------------------------------------|
B|--6-----------------------------------------------------------|
G|--5-----------------9-9-9-9-9-9-9-9--10-10-10-10-10-10-10-10--|
D|--7--0--3--7--5--5--7-7-7-7-7-7-7-7--8--8--8--8--8--8--8--8---|
A|--5--0--3--7--5--5--7-7-7-7-7-7-7-7--8--8--8--8--8--8--8--8---|
D|-----0--3--7--5--5--------------------------------------------|

*OUTRO*
E|------------------------------------------------------------|
B|-----------10----------8------------------------------------|
G|-----------x-----------x------------------------------------|
D|-----------7-----------6-----------------------------3------|
A|-----------8-----------7--------5p3p0-----------5p0-----5v--|
D|--0-0--0------0-0--0-----0--0---------3/5h7p0---------------|

E|---------------------------------------------------|
B|---------10------8---------------------------------|
G|---------7-------6---------------------------------|
D|---------x-------x---------------------------------|
A|---------8-------7-----5p3p0-----------------------|
D|--0-0--0---0-0--0---0-0-------3/5h7p0-5p0-3p0------|
comments
print report bad tab
3 comments total.
+1 reply
GuitarDomen wrote on August 17 2011, 07:12 am

perfect! thanks!

0 reply
xmesh14x wrote on August 21 2011, 10:06 pm

No Problem :p

+1 reply
Rage_Fist wrote on June 14 2013, 04:59 pm

Sweet, sounds perfect!

I want to post or [tab]
guest
You may want to rate the tab now too:
select rating
Please do not post tabs as comments. Select "correction" instead!