Oops, an error
Loading. Please wait.

Devil On My Shoulder Tab

ver5
ver5
More versions @911Tabs.com
749 views 3 this week
1 commentread comment
1 2 3 4 5
not so good
x 1
Autoscroll
+/-
esc
set tempo
stop
Contributor
Difficulty
Tuning
intermediate
D A D G B E
Hey! There's an official Ultimate Guitar app which is ideal
for learning songs when you're away from computer. Get the app
WARNING: You are trying to view
                                    content from Ultimate-Guitar.com
                                    in an unauthorized application,
                                    which is prohibited.

                                    Please use an official Ultimate
                                    Guitar Tabs application for iPhone,
                                    iPad or Android to access legitimate
                                    chords, guitar, bass, and drum tabs
                                    from Ultimate-Guitar.com database.

                                    Type "ultimate guitar tabs" in Apple
                                    App Store's or Android Market's
                                    search to find the application.
        DEVIL ON MY SHOULDER TAB

Song by: Billy Talent
Guitar performed by: Ian D'Sa
Vocals performed by: Ben Kowalewics
Tabbed by: Pumpkinpie07
        
Symbols: _________________    Song order with lyrics: 
        |                 |                             [Intro Riff 1] X3
        | / = Slide up    |                             [Intro Riff 2] 
        | \ = Slide down  |                  As I get closer, my dreams get farther
        | ~ = Vibrato     |                I climb the ladder, but you kick it over
        | ^ = Bend        |                   [Verse Riff 1] X2 [Verse  1] X2
        | r = Release bend|                  Thirsty for water, you give me vinegar
        | h = Hammer-on   |                   [Verse Riff 2]    [Verse Outro 1]
        | p = Pull-off    |     When I drink your medicine, it just makes me sicker
        | x = Dead String |                   [Verse Riff 2]    [Verse Outro 2]
                               I dug a hole so deep, I'm gonna drown in my mistakes
                                                           Can't even sell my soul, 
                                                        [Pre-chorus] 
                                                 'cause it ain't worth shit to take
                                                        [Transition 1]
                                  I've got the Devil on my shoulder (over and over)
                                  And I just can't sink any lower (lower and lower)
                          The hounds of hell are getting closer (closer and closer)
                                                        [Chorus 1] X3
                                                  I've got the Devil on my shoulder 
                                                        [Chorus 2]
                                                                    (over and over)
                                                        [Transition 2]
                                                        [Intro Riff 1]
                                                        [Intro Riff 2]
                                                  Follow the rainbow, my lucky omen
                                     There ain't no pot of gold, just copper tokens
                                              [Verse Riff 1] X2 [Verse Outro 1] X2
                                       I found the key to life, the lock was broken
                                              [Verse Riff 2]    [Verse Outro 1]
                                     All my accomplishments, are best left unspoken
                                              [Verse Riff 2]    [Verse Outro 2]
                               I dug a hole so deep, I'm gonna drown in my mistakes
                                                           Can't even sell my soul, 
                                                        [Pre-chorus] 
                                                 'cause it ain't worth shit to take
                                                        [Transition 1]
                    I've got the Devil on my shoulder (over and over)
                                  And I just can't sink any lower (lower and lower)
                          The hounds of hell are getting closer (closer and closer)
                                                        [Chorus 1] X3
                                                  I've got the Devil on my shoulder 
                                                        [Chorus 2]
                                                                    (over and over)
                                                        [Transition 1]
                                                        [Guitar Solo]
                                                    My horror story, is nearly over
                                                        [Breakdown 1]
                                                  I said I'm sorry, but I was sober
                                           I beg for mercy, from my infernal friend
                                      The one that drives the nails, into my coffin
                                                        [Breakdown 2] X3
                                                        [Bass Line]
                                   I've got the Devi on my shoulder (over and over)
                                                        [Chorus 1] 
                                  And I just can't sink any lower (lower and lower)
                                                        [Chorus 2]
                              They've come to take me, take me over (over and over)
                                                        [Mid-Finale Riff]
                                                  I've got the Devil on my shoulder 
                                                        [Chorus 2]
                                                                    (over and over)
                                                        [Transition 2]
                                                        [Intro Riff 1]
                                                        [Outro Riff]








e|--------------------------------------------------|
B|--------10--------------8-------------------------|
G|--------7---------------6-------------------------|
D|--------7-----------------------------------------|
A|--------8---------------7-------------------------|
D|0-0---0---------0-0---0---------------------------| 

e|--------------------------------------------------|     -> Intro Riff 1
B|--------------------------------------------------|
G|--------------------------------------------------|
D|------------------------3-------------------------|
A|------5p3p0---------5p0---5~----------------------|
D|0-0---------3/5h7p0-------------------------------|



e|--------------------------------------------------|
B|--------10--------------8-------------------------|
G|--------7---------------6-------------------------|
D|--------7-----------------------------------------|
A|--------8---------------7-------------------------|
D|0-0---0---------0-0---0---------------------------|

e|--------------------------------------------------|     -> Intro  Riff 1
B|--------------------------------------------------|
G|--------------------------------------------------|
D|------------------------3-------------------------|
A|------5p3p0---------5p0---5~----------------------|
D|0-0---------3/5h7p0-------------------------------|



e|--------------------------------------------------|
B|--------10--------------8-------------------------|
G|--------7---------------6-------------------------|
D|--------7-----------------------------------------|
A|--------8---------------7-------------------------|
D|0-0---0---------0-0---0---------------------------|

e|--------------------------------------------------|     -> Intro Riff 1
B|--------------------------------------------------|
G|--------------------------------------------------|
D|------------------------3-------------------------|
A|------5p3p0---------5p0---5~----------------------|
D|0-0---------3/5h7p0-------------------------------|



e|--------------------------------------------------|
B|--------10--------------8-------------------------|
G|--------7---------------6-------------------------|
D|--------7-----------------------------------------|
A|--------8---------------7-------------------------|
D|0-0---0---------0-0---0---------------------------|

e|--------------------------------------------------|     -> Intro Riff 2
B|--------------------------------------------------|
G|--------------------------------------------------|
D|------------------------3-------------------------|
A|------5p3p0---------5p0---------------------------|
D|0-0---------3/5h7p0------7^-----------------------|



e|--------------------------------------------------|     -> Verse Riff 1
B|2-------------x-3---------------6-----------------|
G|2-------------x-3---------------6-----------------|
D|2-------------x-3---------------6-----------------|
A|0-------------x-1---------------4-----------------|
D|--------------------------------------------------|

e|--------------------------------------------------|     -> Verse Outro 1
B|--------------------------------------------------|
G|--------------------------------------------------|
D|----------3---------------------------------------|
A|------5p0-----------------------------------------|
D|0h7p0-------7^------------------------------------|




e|--------------------------------------------------|     -> Verse Riff 1
B|2-------------x-3---------------6-----------------|
G|2-------------x-3---------------6-----------------|
D|2-------------x-3---------------6-----------------|
A|0-------------x-1---------------4-----------------|
D|--------------------------------------------------|

e|--------------------------------------------------|     -> Verse Outro 1
B|--------------------------------------------------|
G|--------------------------------------------------|
D|----------3---------------------------------------|
A|------5p0-----------------------------------------|
D|0h7p0-------7^------------------------------------|



e|--------------------------------------------------|     -> Verse Riff 2
B|2-------x-x---x-3-------x-x---x-6-------x-x-------|
G|2-------x-x---x-3-------x-x---x-6-------x-x-------|
D|2-------x-x---x-3-------x-x---x-6-------x-x-------|
A|0-------x-x---x-1-------x-x---x-4-------x-x-------|
D|--------------------------------------------------|

e|--------------------------------------------------|     -> Verse Outro 1
B|--------------------------------------------------|
G|--------------------------------------------------|
D|----------3---------------------------------------|
A|------5p0-----------------------------------------|
D|0h7p0-------7^------------------------------------|



e|--------------------------------------------------|     -> Verse Riff 2
B|2-------x-x---x-3-------x-x---x-6-------x-x---x---|
G|2-------x-x---x-3-------x-x---x-6-------x-x---x---|
D|2-------x-x---x-3-------x-x---x-6-------x-x---x---|
A|0-------x-x---x-1-------x-x---x-4-------x-x---x---|
D|--------------------------------------------------|

e|5---5---5---5---7-7-7---8-8-8-8-------------------|     -> Verse Outro 2
B|6---6---6---6---8-8-8---10101010------------------|
G|5---5---5---5---9-9-9---10101010------------------|
D|7---7---7---7---9-9-9---10101010------------------|
A|5---5---5---5---7-7-7---8-8-8-8-------------------|
D|--------------------------------------------------|



e|------------------------5-------------------------|
B|------------------------6-------------------------|
G|------------------------5-------------------------|
D|------------------------7-------------------------|
A|--------------------5---5-------------------------|
D|5-5---5-5-5-3h5-7p0-------------------------------|

e|--------------------5---5-5-----------------------|
B|--------------------6---6-6-----------------------|
G|--------------------5---5-5-----------------------|     -> Pre-chorus
D|--------------------7---7-7-----------------------|
A|--------------------5---5-5-----------------------|
D|5-5---5-5-5-3h5-7p0-------------------------------|

e|------------------------5-------------------------|
B|------------------------6-------------------------|
G|------------------------5-------------------------|
D|------------------------7-------------------------|
A|--------------------5---5-------------------------|
D|5-5---5-5-5-3h5-7p0-------------------------------|



e|--------------------------------------------------|     -> Transition 1
B|--------------------------------------------------|
G|9-9-9-9-9-9-9-9-1010101010101010------------------|
D|7-7-7-7-7-7-7-7-8-8-8-8-8-8-8-8-------------------|
A|7-7-7-7-7-7-7-7-8-8-8-8-8-8-8-8-------------------|
D|7-7-7-7-7-7-7-7-8-8-8-8-8-8-8-8-------------------|



e|5-------------------------------------------------|
B|6-------------------------------------------------|
G|5-------------------------------------------------|
D|7---0---3---7---5-------5-------------------------|
A|5---0---3---7---5-------5-------------------------|
D|----0---3---7---5-------5-------------------------|

e|--------------------------------------------------|     -> Chorus 1
B|--------------------------------------------------|
G|--------------------------------------------------|
D|--------------------------------------------------|
A|--------3p0---------------5p3p0-------------------|
D|5h7-7-7-----3---0-------0-------0-----------------|



e|5-------------------------------------------------|
B|6-------------------------------------------------|
G|5-------------------------------------------------|
D|7---0---3---7---5-------5-------------------------|
A|5---0---3---7---5-------5-------------------------|
D|----0---3---7---5-------5-------------------------|

e|--------------------------------------------------|     -> Chorus 1
B|--------------------------------------------------|
G|--------------------------------------------------|
D|--------------------------------------------------|
A|--------3p0---------------5p3p0-------------------|
D|5h7-7-7-----3---0-------0-------0-----------------|



e|5-------------------------------------------------|
B|6-------------------------------------------------|
G|5-------------------------------------------------|
D|7---0---3---7---5-------5-------------------------|
A|5---0---3---7---5-------5-------------------------|
D|----0---3---7---5-------5-------------------------|

e|--------------------------------------------------|     -> Chorus 1
B|--------------------------------------------------|
G|--------------------------------------------------|
D|--------------------------------------------------|
A|--------3p0---------------5p3p0-------------------|
D|5h7-7-7-----3---0-------0-------0-----------------|



e|5-------------------------------------------------|     -> Chorus 2
B|6-------------------------------------------------|
G|5-------------------------------------------------|
D|7---0---3---7---5-------5-------------------------|
A|5---0---3---7---5-------5-------------------------|
D|----0---3---7---5-------5-------------------------|



e|--------------------------------------------------|     -> Transition 2
B|--------------------------------------------------|
G|9-9-9-9-9-9-9-9-1010101010101010------------------|
D|7-7-7-7-7-7-7-7-8-8-8-8-8-8-8-8-------------------|
A|7-7-7-7-7-7-7-7-8-8-8-8-8-8-8-8-------------------|
D|7-7-7-7-7-7-7-7-8-8-8-8-8-8-8-8\------------------|



e|--------------------------------------------------|
B|--------10--------------8-------------------------|
G|--------7---------------6-------------------------|
D|--------7-----------------------------------------|
A|--------8---------------7-------------------------|
D|0-0---0---------0-0---0---------------------------| 

e|--------------------------------------------------|     -> Intro Riff 1
B|--------------------------------------------------|
G|--------------------------------------------------|
D|------------------------3-------------------------|
A|------5p3p0---------5p0---5~----------------------|
D|0-0---------3/5h7p0-------------------------------|



e|--------------------------------------------------|
B|--------10--------------8-------------------------|
G|--------7---------------6-------------------------|
D|--------7-----------------------------------------|
A|--------8---------------7-------------------------|
D|0-0---0---------0-0---0---------------------------|

e|--------------------------------------------------|     -> Intro Riff 2
B|--------------------------------------------------|
G|--------------------------------------------------|
D|------------------------3-------------------------|
A|------5p3p0---------5p0---------------------------|
D|0-0---------3/5h7p0------7^-----------------------|



e|--------------------------------------------------|     -> Verse Riff 1
B|2-------------x-3---------------6-----------------|
G|2-------------x-3---------------6-----------------|
D|2-------------x-3---------------6-----------------|
A|0-------------x-1---------------4-----------------|
D|--------------------------------------------------|

e|--------------------------------------------------|     -> Verse Outro 1
B|--------------------------------------------------|
G|--------------------------------------------------|
D|----------3---------------------------------------|
A|------5p0-----------------------------------------|
D|0h7p0-------7^------------------------------------|




e|--------------------------------------------------|     -> Verse Riff 1
B|2-------------x-3---------------6-----------------|
G|2-------------x-3---------------6-----------------|
D|2-------------x-3---------------6-----------------|
A|0-------------x-1---------------4-----------------|
D|--------------------------------------------------|

e|--------------------------------------------------|     -> Verse Outro 1
B|--------------------------------------------------|
G|--------------------------------------------------|
D|----------3---------------------------------------|
A|------5p0-----------------------------------------|
D|0h7p0-------7^------------------------------------|



e|--------------------------------------------------|     -> Verse Riff 2
B|2-------x-x---x-3-------x-x---x-6-------x-x-------|
G|2-------x-x---x-3-------x-x---x-6-------x-x-------|
D|2-------x-x---x-3-------x-x---x-6-------x-x-------|
A|0-------x-x---x-1-------x-x---x-4-------x-x-------|
D|--------------------------------------------------|

e|--------------------------------------------------|     -> Verse Outro 1
B|--------------------------------------------------|
G|--------------------------------------------------|
D|----------3---------------------------------------|
A|------5p0-----------------------------------------|
D|0h7p0-------7^------------------------------------|



e|--------------------------------------------------|     -> Verse Riff 2
B|2-------x-x---x-3-------x-x---x-6-------x-x---x---|
G|2-------x-x---x-3-------x-x---x-6-------x-x---x---|
D|2-------x-x---x-3-------x-x---x-6-------x-x---x---|
A|0-------x-x---x-1-------x-x---x-4-------x-x---x---|
D|--------------------------------------------------|

e|5---5---5---5---7-7-7---8-8-8-8-------------------|     -> Verse Outro 2
B|6---6---6---6---8-8-8---10101010------------------|
G|5---5---5---5---9-9-9---10101010------------------|
D|7---7---7---7---9-9-9---10101010------------------|
A|5---5---5---5---7-7-7---8-8-8-8-------------------|
D|--------------------------------------------------|



e|------------------------5-------------------------|
B|------------------------6-------------------------|
G|------------------------5-------------------------|
D|------------------------7-------------------------|
A|--------------------5---5-------------------------|
D|5-5---5-5-5-3h5-7p0-------------------------------|

e|--------------------5---5-5-----------------------|
B|--------------------6---6-6-----------------------|
G|--------------------5---5-5-----------------------|     -> Pre-chorus
D|--------------------7---7-7-----------------------|
A|--------------------5---5-5-----------------------|
D|5-5---5-5-5-3h5-7p0-------------------------------|

e|------------------------5-------------------------|
B|------------------------6-------------------------|
G|------------------------5-------------------------|
D|------------------------7-------------------------|
A|--------------------5---5-------------------------|
D|5-5---5-5-5-3h5-7p0-------------------------------|



e|--------------------------------------------------|     -> Transition 1
B|--------------------------------------------------|
G|9-9-9-9-9-9-9-9-1010101010101010------------------|
D|7-7-7-7-7-7-7-7-8-8-8-8-8-8-8-8-------------------|
A|7-7-7-7-7-7-7-7-8-8-8-8-8-8-8-8-------------------|
D|7-7-7-7-7-7-7-7-8-8-8-8-8-8-8-8-------------------|



e|5-------------------------------------------------|
B|6-------------------------------------------------|
G|5-------------------------------------------------|
D|7---0---3---7---5-------5-------------------------|
A|5---0---3---7---5-------5-------------------------|
D|----0---3---7---5-------5-------------------------|

e|--------------------------------------------------|     -> Chorus 1
B|--------------------------------------------------|
G|--------------------------------------------------|
D|--------------------------------------------------|
A|--------3p0---------------5p3p0-------------------|
D|5h7-7-7-----3---0-------0-------0-----------------|



e|5-------------------------------------------------|
B|6-------------------------------------------------|
G|5-------------------------------------------------|
D|7---0---3---7---5-------5-------------------------|
A|5---0---3---7---5-------5-------------------------|
D|----0---3---7---5-------5-------------------------|

e|--------------------------------------------------|     -> Chorus 1
B|--------------------------------------------------|
G|--------------------------------------------------|
D|--------------------------------------------------|
A|--------3p0---------------5p3p0-------------------|
D|5h7-7-7-----3---0-------0-------0-----------------|



e|5-------------------------------------------------|
B|6-------------------------------------------------|
G|5-------------------------------------------------|
D|7---0---3---7---5-------5-------------------------|
A|5---0---3---7---5-------5-------------------------|
D|----0---3---7---5-------5-------------------------|

e|--------------------------------------------------|     -> Chorus 1
B|--------------------------------------------------|
G|--------------------------------------------------|
D|--------------------------------------------------|
A|--------3p0---------------5p3p0-------------------|
D|5h7-7-7-----3---0-------0-------0-----------------|



e|5-------------------------------------------------|     -> Chorus 2
B|6-------------------------------------------------|
G|5-------------------------------------------------|
D|7---0---3---7---5-------5-------------------------|
A|5---0---3---7---5-------5-------------------------|
D|----0---3---7---5-------5-------------------------|



e|--------------------------------------------------|     -> Transition 1
B|--------------------------------------------------|
G|9-9-9-9-9-9-9-9-1010101010101010------------------|
D|7-7-7-7-7-7-7-7-8-8-8-8-8-8-8-8-------------------|
A|7-7-7-7-7-7-7-7-8-8-8-8-8-8-8-8-------------------|
D|7-7-7-7-7-7-7-7-8-8-8-8-8-8-8-8-------------------|



e|--------------------------------------------------|
B|----------10--15~------15~------------------------|
G|------10------------------------------------------|
D|/12-----------------------------------------------|
A|--------------------------------------------------|
D|--------------------------------------------------|

e|-----10-------------------------------------------|
B|---------13p10--10--------------------------------|
G|12^-----------12--12p10--12p10--------------------|
D|-----------------------12-----12p1012~------------|
A|--------------------------------------------------|
D|--------------------------------------------------|

e|--------------------------------------------------|
B|---------10--15~------18p15~----------------------|
G|-----10-------------------------------------------|
D|12~-----------------------------------------------|
A|--------------------------------------------------|
D|--------------------------------------------------|

e|-----10-------------------------------------------|
B|---------13p10--10--------------------------------|
G|12^-----------12--12p10-12-12^r------10-9~--------|
D|--------------------------------------------------|
A|--------------------------------------------------|
D|--------------------------------------------------|

e|--------------------------------------------------|     -> Guitar Solo
B|--------------------------------------------------|
G|9h10-10^r------9h10p9-7/10~-----------------------|
D|--------------------------------------------------|
A|--------------------------------------------------|
D|--------------------------------------------------|

e|--------------------------------------------------|
B|-----10h11p10-------------------------------------|
G|10-12--------12-10h12p10-7/9~---------------------|
D|--------------------------------------------------|
A|--------------------------------------------------|
D|--------------------------------------------------|

e|--------------------------------------------------|
B|--------------------------------------------------|
G|9h10-10^r------9h10p9-7/10~-----------------------|
D|--------------------------------------------------|
A|--------------------------------------------------|
D|--------------------------------------------------|

e|-----10-------------------------------------------|
B|---------13p10------------------------------------|
G|12^-----------12-10h12p10-7-----------------------|
D|--------------------------------------------------|
A|--------------------------------------------------|
D|--------------------------------------------------|



e|--------------------------------------------------|
B|2-2-2-2-2-2-2-2-3-3-3-3-3-3-----------------------|
G|2-2-2-2-2-2-2-2-3-3-3-3-3-3-----------------------|
D|2-2-2-2-2-2-2-2-3-3-3-3-3-3-3-3-0-0-0-0-----------|
A|0-0-0-0-0-0-0-0-1-1-1-1-1-1-3-3-0-0-0-0-----------|
D|----------------------------3-3-0-0-0-0-----------|

e|5-5-5-5-7-7-7-7-8-8-8-8---------------------------|     -> Breakdown 1
B|6-6-6-6-8-8-8-8-10101010--------------------------|
G|5-5-5-5-9-9-9-9-10101010--------------------------|
D|7-7-7-7-9-9-9-9-10101010--------------------------|
A|5-5-5-5-7-7-7-7-8-8-8-8---------------------------|
D|--------------------------------------------------|



e|--------------------------------------------------|
B|2-2-2-2-2-2-2-2-3-3-3-3-3-3-----------------------|
G|2-2-2-2-2-2-2-2-3-3-3-3-3-3-----------------------|
D|2-2-2-2-2-2-2-2-3-3-3-3-3-3-3-3-0-0-0-0-----------|
A|0-0-0-0-0-0-0-0-1-1-1-1-1-1-3-3-0-0-0-0-----------|
D|----------------------------3-3-0-0-0-0-----------|

e|5-5-5-5-7-7-7-7-8-8-8-8---------------------------|     -> Breakdown 2
B|6-6-6-6-8-8-8-8-10101010--------------------------|
G|5-5-5-5-9-9-9-9-10101010--------------------------|
D|7-7-7-7-9-9-9-9-10101010--------------------------|
A|0-0-0-0-7-7-7-7-8-8-8-8---------------------------|
D|0-0-0-0-------------------------------------------|



e|--------------------------------------------------|
B|2-2-2-2-2-2-2-2-3-3-3-3-3-3-----------------------|
G|2-2-2-2-2-2-2-2-3-3-3-3-3-3-----------------------|
D|2-2-2-2-2-2-2-2-3-3-3-3-3-3-3-3-0-0-0-0-----------|
A|0-0-0-0-0-0-0-0-1-1-1-1-1-1-3-3-0-0-0-0-----------|
D|----------------------------3-3-0-0-0-0-----------|

e|5-5-5-5-7-7-7-7-8-8-8-8---------------------------|     -> Breakdown 2
B|6-6-6-6-8-8-8-8-10101010--------------------------|
G|5-5-5-5-9-9-9-9-10101010--------------------------|
D|7-7-7-7-9-9-9-9-10101010--------------------------|
A|0-0-0-0-7-7-7-7-8-8-8-8---------------------------|
D|0-0-0-0-------------------------------------------|


e|--------------------------------------------------|
B|2-2-2-2-2-2-2-2-3-3-3-3-3-3-----------------------|
G|2-2-2-2-2-2-2-2-3-3-3-3-3-3-----------------------|
D|2-2-2-2-2-2-2-2-3-3-3-3-3-3-3-3-0-0-0-0-----------|
A|0-0-0-0-0-0-0-0-1-1-1-1-1-1-3-3-0-0-0-0-----------|
D|----------------------------3-3-0-0-0-0-----------|

e|5-5-5-5-7-7-7-7-8-8-8-8---------------------------|     -> Breakdown 2
B|6-6-6-6-8-8-8-8-10101010--------------------------|
G|5-5-5-5-9-9-9-9-10101010--------------------------|
D|7-7-7-7-9-9-9-9-10101010--------------------------|
A|0-0-0-0-7-7-7-7-8-8-8-8---------------------------|
D|0-0-0-0-------------------------------------------|



     -> Bass Line



e|5-------------------------------------------------|
B|6-------------------------------------------------|
G|5-------------------------------------------------|
D|7---0---3---7---5-------5-------------------------|
A|5---0---3---7---5-------5-------------------------|
D|----0---3---7---5-------5-------------------------|

e|--------------------------------------------------|     -> Chorus 1
B|--------------------------------------------------|
G|--------------------------------------------------|
D|--------------------------------------------------|
A|--------3p0---------------5p3p0-------------------|
D|5h7-7-7-----3---0-------0-------0-----------------|



e|5-------------------------------------------------|     -> Chorus 2
B|6-------------------------------------------------|
G|5-------------------------------------------------|
D|7---0---3---7---5-------5-------------------------|
A|5---0---3---7---5-------5-------------------------|
D|----0---3---7---5-------5-------------------------|



e|--------------------------------------------------|
B|--------------------------------------------------|
G|--------------------------------------------------|
D|------------------------------------3-------------|
A|--------3p0---------------5p3p0-3h5---5p3p0-------|
D|5h7-7-7-----3---0-------0-------------------------|

e|--------------------------------------------------|
B|--------------------------------------------------|
G|--------------------------------------------------|
D|------5-------5-----------------------------------|     -> Mid-Finale Riff
A|------5-------5---------------3p0-----------------|
D|0-3/7-5-------5-------5h7-7-7-----3---0-----------|

e|--------------------------------------------------|
B|--------------------------------------------------|
G|--------------------------------------------------|
D|--------------------------------------------------|
A|--5p3p0-------------------------------------------|
D|0-------0-----------------------------------------|



e|5-------------------------------------------------|     -> Chorus 2
B|6-------------------------------------------------|
G|5-------------------------------------------------|
D|7---0---3---7---5-------5-------------------------|
A|5---0---3---7---5-------5-------------------------|
D|----0---3---7---5-------5-------------------------|



e|--------------------------------------------------|     -> Transition 2
B|--------------------------------------------------|
G|9-9-9-9-9-9-9-9-1010101010101010------------------|
D|7-7-7-7-7-7-7-7-8-8-8-8-8-8-8-8-------------------|
A|7-7-7-7-7-7-7-7-8-8-8-8-8-8-8-8-------------------|
D|7-7-7-7-7-7-7-7-8-8-8-8-8-8-8-8\------------------|



e|--------------------------------------------------|
B|--------10--------------8-------------------------|
G|--------7---------------6-------------------------|
D|--------7-----------------------------------------|
A|--------8---------------7-------------------------|
D|0-0---0---------0-0---0---------------------------| 

e|--------------------------------------------------|     -> Intro Riff 1
B|--------------------------------------------------|
G|--------------------------------------------------|
D|------------------------3-------------------------|
A|------5p3p0---------5p0---5~----------------------|
D|0-0---------3/5h7p0-------------------------------|



e|--------------------------------------------------|
B|--------10--------------8-------------------------|
G|--------7---------------6-------------------------|
D|--------7-----------------------------------------|
A|--------8---------------7-------------------------|
D|0-0---0---------0-0---0---------------------------| 

e|--------------------------------------------------|     -> Outro Riff
B|--------------------------------------------------|
G|--------------------------------------------------|
D|--------------------------------------------------|
A|------5p3p0---------------------------------------|
D|0-0---------3/5h7p0-5p0-3p0-----------------------|
comments
We did not receive enough feedback on this tab! Please rate:
print report bad tab
1 2 3 4 5
1 comment total.
0 reply
Pumpkinpie07 wrote on October 13 2014, 11:48 am

Sorry about the SUPER elaborate tab people, I'm going to come back to it in the near future and clean it up; make it more compact + simple.

I want to post or [tab]
guest
You may want to rate the tab now too:
select rating
Please do not post tabs as comments. Select "correction" instead!