Oops, an error
Loading. Please wait.

Line And Sinker Tab

ver4
ver4

Whole song

Interactive

More versions @911Tabs.com
764 views 1 this week
no commentswrite comment
1 2 3 4 5
worth learning
x 1
Autoscroll
+/-
esc
set tempo
stop
Contributor
Hey! There's an official Ultimate Guitar app which is ideal
for learning songs when you're away from computer. Get the app
WARNING: You are trying to view
                                    content from Ultimate-Guitar.com
                                    in an unauthorized application,
                                    which is prohibited.

                                    Please use an official Ultimate
                                    Guitar Tabs application for iPhone,
                                    iPad or Android to access legitimate
                                    chords, guitar, bass, and drum tabs
                                    from Ultimate-Guitar.com database.

                                    Type "ultimate guitar tabs" in Apple
                                    App Store's or Android Market's
                                    search to find the application.
 Intro/Chorus
  Q=175
               F#5               A5        N.C.
 4/4
  Gtr I
  Wx2          E E E E E E E E   E E E E E E E E
|------------|-----------------|-----------------|
|------------|-----------------|-----------------|
|------------|-----------------|-2-2-2-2-2-------|
|------------|-4-4-4-4-4-4-4-4-|-2-2-2-2-2-------|
|------------|-4-4-4-4-4-4-4-4-|-0-0-0-0-0-4p2p0-|
|------------|-4-4-4-4-4-4-4-4-|-----------------|


  A/D              A/B     N.C.
                           ~~~~~~~
  E. Q.   S E Q    E. H    E. +E
|-0-----------0--|-0----------------|
|-2-----------2--|-2----------------|
|-2-----------2--|-2----------------|
|-0---------0-0--|-x----------------|
|----------------|-2-------5--(5)---|
|----------------|------------------|


                                        1.,2.
    F#5               A5        N.C.    A/D               A/B
    E E E E E E E E   E E E E E E E E   E E E E E E E E   E E E E E E E E  3x
||------------------|-----------------|-0-0-0-0-0-0-0-0-|-0-0-0-0-0-0-0-0--||
||o-----------------|-----------------|-2-2-2-2-2-2-2-2-|-2-2-2-2-2-2-2-2-o||
||------------------|-2-2-2-2-2-------|-2-2-2-2-2-2-2-2-|-2-2-2-2-2-2-2-2--||
||--4-4-4-4-4-4-4-4-|-2-2-2-2-2-------|-0-0-0-0-0-0-0-0-|-x-x-x-x-x-x-x-x--||
||o-4-4-4-4-4-4-4-4-|-0-0-0-0-0-4p2p0-|-----------------|-2-2-2-2-2-2-2-2-o||
||--4-4-4-4-4-4-4-4-|-----------------|-----------------|------------------||


   Verse
    2.
    A            A/B           A/F#         A
    Gtr II
    Q  Q  H      Q  Q  Q  Q    Q  Q  H      Q  Q  H
||--------0----|-------0-----|-------0----|-------0----|
||o-------2----|-------2-----|-------2----|-------2----|
||-----2-------|----2-----2--|----2-------|----2-------|
||-------------|-------------|------------|------------|
||o------------|-2-----------|------------|-0----------|
||--0----------|-------------|-4----------|------------|


  A            A/B           A/F#         A
                                                 ~~~
  Q  Q  H      Q  Q  Q  Q    Q  Q  H      Q  Q   H
|-------0----|-------0-----|-------0----|-------(0)-----||
|-------2----|-------2-----|-------2----|--------2-----o||
|----2-------|----2-----2--|----2-------|----2----------||
|------------|-------------|------------|---------------||
|------------|-2-----------|------------|-0------------o||
|-0----------|-------------|-4----------|---------------||


   Pre-Chorus
    Em                Dadd9             C#m               Dsus2/B
    Gtr I
    E E E E E E E E   E E E E E E E E   E E E E E E E E   E E E E E E E E  4x
||--0-0-0-0-0-0-0-0-|-0-0-0-0-0-0-0-0-|-0-0-0-0-0-0-0-0-|-0-0-0-0-0-0-0-0--||
||o-8-8-8-8-8-8-8-8-|-7-7-7-7-7-7-7-7-|-5-5-5-5-5-5-5-5-|-3-3-3-3-3-3-3-3-o||
||--9-9-9-9-9-9-9-9-|-7-7-7-7-7-7-7-7-|-6-6-6-6-6-6-6-6-|-4-4-4-4-4-4-4-4--||
||------------------|-----------------|-----------------|------------------||
||o-----------------|-----------------|-----------------|-----------------o||
||------------------|-----------------|-----------------|------------------||


   Chorus
    A/D              A/B     N.C.     F#5               A5        N.C.
                             ~~~~~~~
    E. Q.   S E Q    E. H    E. +E    E E E E E E E E   E E E E E E E E
||--0-----------0--|-0--------------|-----------------|-------------------||
||o-2-----------2--|-2--------------|-----------------|------------------o||
||--2-----------2--|-2--------------|-----------------|-2-2-2-2-2---------||
||--0---------0-0--|-x--------------|-4-4-4-4-4-4-4-4-|-2-2-2-2-2---------||
||o----------------|-2-------5--(5)-|-4-4-4-4-4-4-4-4-|-0-0-0-0-0-4p2p0--o||
||-----------------|----------------|-4-4-4-4-4-4-4-4-|-------------------||


    A/D               A/B               F#5               A5        N.C.
    E E E E E E E E   E E E E E E E E   E E E E E E E E   E E E E E E E E
||--0-0-0-0-0-0-0-0-|-0-0-0-0-0-0-0-0-|-----------------|------------------||
||o-2-2-2-2-2-2-2-2-|-2-2-2-2-2-2-2-2-|-----------------|-----------------o||
||--2-2-2-2-2-2-2-2-|-2-2-2-2-2-2-2-2-|-----------------|-2-2-2-2-2--------||
||--0-0-0-0-0-0-0-0-|-x-x-x-x-x-x-x-x-|-4-4-4-4-4-4-4-4-|-2-2-2-2-2--------||
||o-----------------|-2-2-2-2-2-2-2-2-|-4-4-4-4-4-4-4-4-|-0-0-0-0-0-4p2p0-o||
||------------------|-----------------|-4-4-4-4-4-4-4-4-|------------------||


   Verse
    A            A/B           A/F#         A
    Q  Q  H      Q  Q  Q  Q    Q  Q  H      Q  Q  H
||--------0----|-------0-----|-------0----|-------0----|
||o-------2----|-------2-----|-------2----|-------2----|
||-----2-------|----2-----2--|----2-------|----2-------|
||-------------|-------------|------------|------------|
||o------------|-2-----------|------------|-0----------|
||--0----------|-------------|-4----------|------------|


  A            A/B           A/F#         A
                                                 ~~~
  Q  Q  H      Q  Q  Q  Q    Q  Q  H      Q  Q   H
|-------0----|-------0-----|-------0----|-------(0)-----||
|-------2----|-------2-----|-------2----|--------2-----o||
|----2-------|----2-----2--|----2-------|----2----------||
|------------|-------------|------------|---------------||
|------------|-2-----------|------------|-0------------o||
|-0----------|-------------|-4----------|---------------||


   Pre-Chorus
    Em                Dadd9             C#m               Dsus2/B
    E E E E E E E E   E E E E E E E E   E E E E E E E E   E E E E E E E E  4x
||--0-0-0-0-0-0-0-0-|-0-0-0-0-0-0-0-0-|-0-0-0-0-0-0-0-0-|-0-0-0-0-0-0-0-0--||
||o-8-8-8-8-8-8-8-8-|-7-7-7-7-7-7-7-7-|-5-5-5-5-5-5-5-5-|-3-3-3-3-3-3-3-3-o||
||--9-9-9-9-9-9-9-9-|-7-7-7-7-7-7-7-7-|-6-6-6-6-6-6-6-6-|-4-4-4-4-4-4-4-4--||
||------------------|-----------------|-----------------|------------------||
||o-----------------|-----------------|-----------------|-----------------o||
||------------------|-----------------|-----------------|------------------||


   Chorus
    A/D              A/B     N.C.     F#5               A5        N.C.
                             ~~~~~~~
    E. Q.   S E Q    E. H    E. +E    E E E E E E E E   E E E E E E E E
||--0-----------0--|-0--------------|-----------------|-------------------||
||o-2-----------2--|-2--------------|-----------------|------------------o||
||--2-----------2--|-2--------------|-----------------|-2-2-2-2-2---------||
||--0---------0-0--|-x--------------|-4-4-4-4-4-4-4-4-|-2-2-2-2-2---------||
||o----------------|-2-------5--(5)-|-4-4-4-4-4-4-4-4-|-0-0-0-0-0-4p2p0--o||
||-----------------|----------------|-4-4-4-4-4-4-4-4-|-------------------||


    A/D               A/B               F#5               A5        N.C.
    E E E E E E E E   E E E E E E E E   E E E E E E E E   E E E E E E E E
||--0-0-0-0-0-0-0-0-|-0-0-0-0-0-0-0-0-|-----------------|------------------||
||o-2-2-2-2-2-2-2-2-|-2-2-2-2-2-2-2-2-|-----------------|-----------------o||
||--2-2-2-2-2-2-2-2-|-2-2-2-2-2-2-2-2-|-----------------|-2-2-2-2-2--------||
||--0-0-0-0-0-0-0-0-|-x-x-x-x-x-x-x-x-|-4-4-4-4-4-4-4-4-|-2-2-2-2-2--------||
||o-----------------|-2-2-2-2-2-2-2-2-|-4-4-4-4-4-4-4-4-|-0-0-0-0-0-4p2p0-o||
||------------------|-----------------|-4-4-4-4-4-4-4-4-|------------------||


   Interlude
    F#5   N.C.  D5                      A/D         A/B         N.C.
    PM|         PM------------------------------------------|   PM--|
    E E E E E E E E   E E E E E E E E   E E E E E E E E   E E E E E E E E
||------------------|-----------------|-0-0---0-0---0-0-|---0--------------||
||o-----------------|-----------------|-2-2---2-2---2-2-|---2-------------o||
||------------------|-----------------|-2-2---2-2---2-2-|---2--------------||
||------------------|-----------------|-0-0---0-0---x-x-|---x--------------||
||o-4-4---0h4p0-0-0-|---0-0---0-0-0-0-|-------------2-2-|---2---0h4p0-5-2-o||
||--4-4---------0-0-|---0-0---0-0-0-0-|-----------------|------------------||


  F#5     N.C.    D5
  Gtr I
   PM-|           PM-------------------------
   E  E E E  E  E E E    E  E E E  E  E E E
|---------------------|---------------------|
|---------------------|---------------------|
|---------------------|---------------------|
|---------------------|---------------------|
|--4--4---0h=4p=0-0-0-|-----0-0----0--0-0-0-|
|--4--4-----------0-0-|-----0-0----0--0-0-0-|
|
| Gtr II
|  Q    Q    Q    Q      Q    Q    Q    Q
|---------------------|---------------------|
|-------5---------7---|-------5-------------|
|---------------------|-----------------7---|
|---------------------|---------------------|
|-(7)-------(7)-------|-(7)-------(7)-------|
|---------------------|---------------------|


  A/D             A/B           N.C.
 ---------------------------|   PM----|
   E  E E E  E  E E E    E  E E E  E  E E E
|--0--0---0--0----0-0-|-----0----------------|
|--2--2---2--2----2-2-|-----2----------------|
|--2--2---2--2----2-2-|-----2----------------|
|--0--0---0--0----x-x-|-----x----------------|
|-----------------2-2-|-----2---0h=4p=0-5-2--|
|---------------------|----------------------|
|
|  Q    Q    Q    Q      Q    Q    Q    Q
|---------------------|----------------------|
|-------5---------7---|-------5--------------|
|---------------------|-----------------7----|
|---------------------|----------------------|
|-(7)-------(7)-------|-(7)-------(7)--------|
|---------------------|----------------------|


  F#5     N.C.    D5
   PM-|           PM-------------------------
   E  E E E  E  E E E    E  E E E  E  E E E
|---------------------|---------------------|
|---------------------|---------------------|
|---------------------|---------------------|
|---------------------|---------------------|
|--4--4---0h=4p=0-0-0-|-----0-0----0--0-0-0-|
|--4--4-----------0-0-|-----0-0----0--0-0-0-|
|
|  Q    Q    Q    Q      Q    Q    Q    Q
|---------------------|---------------------|
|-------5---------7---|-------5-------------|
|---------------------|-----------------7---|
|---------------------|---------------------|
|-(7)-------(7)-------|-(7)-------(7)-------|
|---------------------|---------------------|


  A/D         A/B         N.C.
 ---------------------|   PM--|
  E E E E E E E E   E E E E E E E E
|-0-0---0-0---0-0-|---0--------------|
|-2-2---2-2---2-2-|---2--------------|
|-2-2---2-2---2-2-|---2--------------|
|-0-0---0-0---x-x-|---x--------------|
|-------------2-2-|---2---0h4p0-5-2--|
|-----------------|------------------|
|
| E E E E E E E E   E E E E E E E E
|-0-0---0-0---0-0-|---0--------------|
|-2-2---2-2---2-2-|---2--------------|
|-2-2---2-2---2-2-|---2--------------|
|-0-0---0-0---x-x-|---x--------------|
|-------------2-2-|---2---0h4p0-5-2--|
|-----------------|------------------|


    F#5  N.C.  D5
    Gtr I
    E Q  E E E E E   +E  E Q  E E E E
||-----------------|------------------|
||o----------------|------------------|
||-----------------|------------------|
||--4-4--------0-0-|-(0)-0-0--0-0-0-0-|
||o-4-4--0h4p0-0-0-|-(0)-0-0--0-0-0-0-|
||--4-4--------0-0-|-(0)-0-0--0-0-0-0-|


  A/D       A/B          N.C.          A/D
  E Q  E Q  E E   +E  Q  E E E E E     E. H.      S
|-0-0--0-0--0-0-|-(0)-0-------------||-0-------------||
|-2-2--2-2--2-2-|-(2)-2------------o||-2-------------||
|-2-2--2-2--2-2-|-(2)-2-------------||-2-------------||
|-0-0--0-0--x-x-|-(x)-x-------------||-0-------------||
|-----------2-2-|-(2)-2--0h4p0-5-2-o||---------------||
|---------------|-------------------||---------------||


   Out-Chorus
    F#5               A5        N.C.    A/D               A/B
    E E E E E E E E   E E E E E E E E   E E E E E E E E   E E E E E E E E  3x
||------------------|-----------------|-0-0-0-0-0-0-0-0-|-0-0-0-0-0-0-0-0--||
||o-----------------|-----------------|-2-2-2-2-2-2-2-2-|-2-2-2-2-2-2-2-2-o||
||------------------|-2-2-2-2-2-------|-2-2-2-2-2-2-2-2-|-2-2-2-2-2-2-2-2--||
||--4-4-4-4-4-4-4-4-|-2-2-2-2-2-------|-0-0-0-0-0-0-0-0-|-x-x-x-x-x-x-x-x--||
||o-4-4-4-4-4-4-4-4-|-0-0-0-0-0-4p2p0-|-----------------|-2-2-2-2-2-2-2-2-o||
||--4-4-4-4-4-4-4-4-|-----------------|-----------------|------------------||


  F#5               A5        N.C.    A/D
  E E E E E E E E   E E E E E E E E   E. H.      S
|-----------------|-----------------|-0------------*|
|-----------------|-----------------|-2------------*|
|-----------------|-2-2-2-2-2-------|-2------------*|
|-4-4-4-4-4-4-4-4-|-2-2-2-2-2-------|-0------------*|
|-4-4-4-4-4-4-4-4-|-0-0-0-0-0-4p2p0-|--------------*|
|-4-4-4-4-4-4-4-4-|-----------------|--------------*|

comments
We did not receive enough feedback on this tab! Please rate:
print report bad tab
1 2 3 4 5
I want to post or [tab]
guest
You may want to rate the tab now too:
select rating
Please do not post tabs as comments. Select "correction" instead!