Oops, an error
Loading. Please wait.

Mutual Core Tab

1,130 views 3 this week
no commentswrite comment
1 2 3 4 5
please rate
Autoscroll
+/-
esc
set tempo
stop
Contributor
WARNING: You are trying to view
                                    content from Ultimate-Guitar.com
                                    in an unauthorized application,
                                    which is prohibited.

                                    Please use an official Ultimate
                                    Guitar Tabs application for iPhone,
                                    iPad or Android to access legitimate
                                    chords, guitar, bass, and drum tabs
                                    from Ultimate-Guitar.com database.

                                    Type "ultimate guitar tabs" in Apple
                                    App Store's or Android Market's
                                    search to find the application.
                              MUTUAL CORE - Bjork

Gtr I (E A D G B E) - 'Organ'

Capo 1

  Q=94     Q=94                Q=94                   Q=94
 2/4      3/4                 2/4                    3/4
  Gtr I
  E E Q    H.        H.        E. S +E  E   S E. Q    H.        H.
|--------|---------|---------|------------|---------|---------|-------|
|--------|---------|---------|------------|---------|---------|-------|
|-0-2-0--|---------|---------|-0--2-(2)---|-0-2--0--|---------|-------|
|-0-3-0--|-3-------|-0-------|-0--3-(3)---|-0-3--0--|-3-------|-0-----|
|-0-5-0--|-3-------|-0-------|-0--5-(5)---|-0-5--0--|-3-------|-0-----|
|--------|-3-------|-1-------|------------|---------|-3-------|-1-----|


  Q=94             Q=94                Q=94                Q=94
 2/4              3/4                 2/4                 3/4
  Q  Q    E E Q    H.        H.        Q  E E   E E E. S   +H.
|-------|--------|---------|---------|--------|----------|--------|
|-------|--------|---------|---------|--------|----------|--------|
|-0--2--|-0-2-0--|---------|---------|-0--2---|-0-2-0----|--------|
|-0--3--|-0-3-0--|-3-------|-0-------|-0--3---|-0-3-0--3-|-(3)----|
|-0--5--|-0-5-0--|-3-------|-0-------|-0--5---|-0-5-0--3-|-(3)----|
|-------|--------|-3-------|-1-------|--------|--------3-|-(3)----|


            Q=94              Q=94                    Q=94     Q=94
           2/4               3/4                     2/4      3/4
  H.        Q  E E   E E Q    H    +Q     H    +Q     E E Q    H.
|---------|--------|--------|-----------|-----------|--------|-------|
|---------|--------|--------|-----------|-----------|--------|-------|
|---------|-0--2---|-0-2-0--|-----------|-----------|-0-2-0--|-------|
|-0-------|-0--3---|-0-3-0--|-3----(3)--|-0----(0)--|-0-4-0--|-2-----|
|-0-------|-0--5---|-0-5-0--|-3----(3)--|-0----(0)--|-1-5-1--|-4-----|
|-1-------|--------|--------|-3----(3)--|-1----(1)--|--------|-5-----|


                       Q=94     Q=94
                      2/4      3/4
  H.        +H.        E E Q    H.        H.        +H     +E  E
|---------|----------|--------|---------|---------|--------------|
|---------|----------|--------|---------|---------|--------------|
|---------|----------|-0-2-0--|---------|---------|------------0-|
|-0-------|-(0)------|-0-4-0--|-2-------|-0-------|-(0)----(0)-0-|
|-1-------|-(1)------|-1-5-1--|-4-------|-1-------|-(1)----(1)-1-|
|-0-------|-(0)------|--------|-5-------|-0-------|-(0)----(0)---|


  Q=94        Q=94
 2/4         3/4
  E E +E  E   +H.        H.        +H.        +H.        +H     Q
|-----------|----------|---------|----------|----------|-----------|
|-----------|----------|---------|----------|----------|-----------|
|-2-0-(0)---|----------|---------|----------|----------|--------0--|
|-4-0-(0)-2-|-(2)------|-0-------|-(0)------|-(0)------|-(0)----0--|
|-5-1-(1)-4-|-(4)------|-1-------|-(1)------|-(1)------|-(1)----1--|
|---------5-|-(5)------|-0-------|-(0)------|-(0)------|-(0)-------|


                                              Q=94     Q=94
                                             2/4      3/4
  H.        +H.        +H.        +H     Q    E E Q    H.
|---------|----------|----------|-----------|--------|-------|
|---------|----------|----------|-----------|--------|-------|
|-2-------|-(2)------|-(2)------|-(2)-------|-0-2-0--|-------|
|-4-------|-(4)------|-(4)------|-(4)-------|-0-3-0--|-3-----|
|-5-------|-(5)------|-(5)------|-(5)-------|-0-5-0--|-3-----|
|---------|----------|----------|-----------|--------|-3-----|


            Q=94              Q=94                Q=94
           2/4               3/4                 2/4
  H.        Q  E E   E E Q    H.        H.        Q  E E   E E Q
|---------|--------|--------|---------|---------|--------|--------|
|---------|--------|--------|---------|---------|--------|--------|
|---------|-0--2---|-0-2-0--|---------|---------|-0--2---|-0-2-0--|
|-0-------|-0--3---|-0-3-0--|-3-------|-0-------|-0--3---|-0-3-0--|
|-0-------|-0--5---|-0-5-0--|-3-------|-0-------|-0--5---|-0-5-0--|
|-1-------|--------|--------|-3-------|-1-------|--------|--------|


  Q=94                Q=94              Q=94                   Q=94
 3/4                 2/4               3/4                    2/4
  H.        H.        Q  E E   E E Q    H.        H    +E. S   +Q   E E
|---------|---------|--------|--------|---------|------------|----------|
|---------|---------|--------|--------|---------|------------|----------|
|---------|---------|-0--2---|-0-2-0--|---------|----------0-|-(0)--2---|
|-3-------|-0-------|-0--3---|-0-3-0--|-3-------|-0----(0)-0-|-(0)--3---|
|-3-------|-0-------|-0--5---|-0-5-0--|-3-------|-0----(0)-0-|-(0)--5---|
|-3-------|-1-------|--------|--------|-3-------|-1----(1)---|----------|


           Q=94                     Q=94            Q=94
          3/4                      2/4             3/4
  E E Q    H    +E  E   H    +Q     E S S +E  S S   +H.        H.
|--------|------------|-----------|---------------|----------|-------|
|--------|------------|-----------|---------------|----------|-------|
|-0-2-0--|------------|-----------|-0-2-0-(0)-----|----------|-------|
|-0-3-0--|-3----(3)---|-0----(0)--|-0-4-0-(0)---2-|-(2)------|-0-----|
|-0-5-0--|-3----(3)---|-0----(0)--|-1-5-1-(1)---4-|-(4)------|-1-----|
|--------|-3----(3)---|-1----(1)--|-------------5-|-(5)------|-0-----|


             Q=94     Q=94                Q=94         Q=94
            2/4      3/4                 4/4          2/4
  +H.        E E Q    H.        H.        +W           E E E. S
|----------|--------|---------|---------|------------|----------|
|----------|--------|---------|---------|------------|----------|
|----------|-0-2-0--|---------|---------|------------|-0-2-0----|
|-(0)------|-0-4-0--|-2-------|-0-------|-(0)--------|-0-4-0--2-|
|-(1)------|-1-5-1--|-4-------|-1-------|-(1)--------|-1-5-1--4-|
|-(0)------|--------|-5-------|-0-------|-(0)--------|--------5-|


  Q=94
 3/4
  +H.        H.        +H.        +H.        +H     Q    H.
|----------|---------|----------|----------|-----------|-------|
|----------|---------|----------|----------|-----------|-------|
|----------|---------|----------|----------|--------0--|-2-----|
|-(2)------|-0-------|-(0)------|-(0)------|-(0)----0--|-4-----|
|-(4)------|-1-------|-(1)------|-(1)------|-(1)----1--|-5-----|
|-(5)------|-0-------|-(0)------|-(0)------|-(0)-------|-------|


                                   Q=94   Q=94
                                  1/4    2/4
  +H.        +H.        +H.        W      W      W      W      W
|----------|----------|----------|------|------|------|------|------|
|----------|----------|----------|------|------|------|------|------|
|-(2)------|-(2)------|-(2)------|------|------|------|------|------|
|-(4)------|-(4)------|-(4)------|------|------|------|------|------|
|-(5)------|-(5)------|-(5)------|------|------|------|------|------|
|----------|----------|----------|------|------|------|------|------|


  W      W      W      W      W      W      W      W      W
|------|------|------|------|------|------|------|------|------|
|------|------|------|------|------|------|------|------|------|
|------|------|------|------|------|------|------|------|------|
|------|------|------|------|------|------|------|------|------|
|------|------|------|------|------|------|------|------|------|
|------|------|------|------|------|------|------|------|------|


  W      W      W      W      W      W      W      W      W
|------|------|------|------|------|------|------|------|------|
|------|------|------|------|------|------|------|------|------|
|------|------|------|------|------|------|------|------|------|
|------|------|------|------|------|------|------|------|------|
|------|------|------|------|------|------|------|------|------|
|------|------|------|------|------|------|------|------|------|


  W      W      W      W      W      W      W      W      W
|------|------|------|------|------|------|------|------|------|
|------|------|------|------|------|------|------|------|------|
|------|------|------|------|------|------|------|------|------|
|------|------|------|------|------|------|------|------|------|
|------|------|------|------|------|------|------|------|------|
|------|------|------|------|------|------|------|------|------|


         Q=94   Q=94     Q=94       Q=94                Q=94
        3/4    1/4      2/4        3/4                 2/4
  W      W      W        W          H.        H.        Q  E E   E E Q
|------|------|--------|----------|---------|---------|--------|----------|
|------|------|--------|----------|---------|---------|--------|----------|
|------|------|--------|----------|---------|---------|-0--2---|-0-2-0----|
|------|------|--------|----------|-3-------|-0-------|-0--3---|-0-3-0----|
|------|------|--------|----------|-3-------|-0-------|-0--5---|-0-5-0----|
|------|------|--------|----------|-3-------|-1-------|--------|----------|


  Q=94                Q=94              Q=94                Q=94
 3/4                 2/4               3/4                 2/4
  H.        H.        Q  E E   E E Q    H.        H.        Q  E E
|---------|---------|--------|--------|---------|---------|--------|
|---------|---------|--------|--------|---------|---------|--------|
|---------|---------|-0--2---|-0-2-0--|---------|---------|-0--2---|
|-3-------|-0-------|-0--3---|-0-3-0--|-3-------|-0-------|-0--3---|
|-3-------|-0-------|-0--5---|-0-5-0--|-3-------|-0-------|-0--5---|
|-3-------|-1-------|--------|--------|-3-------|-1-------|--------|


           Q=94                Q=94              Q=94
          3/4                 2/4               3/4
  E E Q    H.        H.        Q  E E   E E Q    H.        H    +E. S
|--------|---------|---------|--------|--------|---------|-------------|
|--------|---------|---------|--------|--------|---------|-------------|
|-0-2-0--|---------|---------|-0--2---|-0-2-0--|---------|----------0--|
|-0-3-0--|-3-------|-0-------|-0--3---|-0-3-0--|-3-------|-0----(0)-0--|
|-0-5-0--|-3-------|-0-------|-0--5---|-0-5-0--|-3-------|-0----(0)-0--|
|--------|-3-------|-1-------|--------|--------|-3-------|-1----(1)----|


  Q=94                Q=94                     Q=94            Q=94
 2/4                 3/4                      2/4             3/4
  +Q   E E   E E Q    H    +E  E   H    +Q     E S S +E  S S   +H.
|----------|--------|------------|-----------|---------------|--------|
|----------|--------|------------|-----------|---------------|--------|
|-(0)--2---|-0-2-0--|------------|-----------|-0-2-0-(0)-----|--------|
|-(0)--3---|-0-3-0--|-3----(3)---|-0----(0)--|-0-4-0-(0)---2-|-(2)----|
|-(0)--5---|-0-5-0--|-3----(3)---|-0----(0)--|-1-5-1-(1)---4-|-(4)----|
|----------|--------|-3----(3)---|-1----(1)--|-------------5-|-(5)----|


                       Q=94     Q=94                Q=94
                      2/4      3/4                 4/4
  H.        +H.        E E Q    H.        H.        +W
|---------|----------|--------|---------|---------|--------|
|---------|----------|--------|---------|---------|--------|
|---------|----------|-0-2-0--|---------|---------|--------|
|-0-------|-(0)------|-0-4-0--|-2-------|-0-------|-(0)----|
|-1-------|-(1)------|-1-5-1--|-4-------|-1-------|-(1)----|
|-0-------|-(0)------|--------|-5-------|-0-------|-(0)----|


  Q=94       Q=94
 2/4        3/4
  E E E. S   +H.        H.        +H.        +H.        +H     Q
|----------|----------|---------|----------|----------|-----------|
|----------|----------|---------|----------|----------|-----------|
|-0-2-0----|----------|---------|----------|----------|--------0--|
|-0-4-0--2-|-(2)------|-0-------|-(0)------|-(0)------|-(0)----0--|
|-1-5-1--4-|-(4)------|-1-------|-(1)------|-(1)------|-(1)----1--|
|--------5-|-(5)------|-0-------|-(0)------|-(0)------|-(0)-------|


  H.        +H.        +H.        +H.        W        W
|---------|----------|----------|----------|--------|------|
|---------|----------|----------|----------|--------|------|
|-2-------|-(2)------|-(2)------|-(2)------|--------|------|
|-4-------|-(4)------|-(4)------|-(4)------|--------|------|
|-5-------|-(5)------|-(5)------|-(5)------|--------|------|
|---------|----------|----------|----------|--------|------|


  Q=94
 2/4
  W
|------*|
|------*|
|------*|
|------*|
|------*|
|------*|

Chorus: G5 ( 3-X-0-0-3-3 )

***************************************************************************************
* Generated using Power Tab Editor by Brad Larsen - http://powertab.guitarnetwork.org *
***************************************************************************************
comments
We did not receive enough feedback on this tab! Please rate:
1 2 3 4 5
I want to post or [tab]
guest
You may want to rate the tab now too:
select rating
Please do not post tabs as comments. Select "correction" instead!