Oops, an error
Loading. Please wait.

Sacrifice Tab

426 views 1 this week
1 commentread comment
1 2 3 4 5
please rate
Autoscroll
+/-
esc
set tempo
stop
Contributor
Tuning
D A D G B E
Hey! There's an official Ultimate Guitar app which is ideal
for learning songs when you're away from computer. Get the app
WARNING: You are trying to view
                                    content from Ultimate-Guitar.com
                                    in an unauthorized application,
                                    which is prohibited.

                                    Please use an official Ultimate
                                    Guitar Tabs application for iPhone,
                                    iPad or Android to access legitimate
                                    chords, guitar, bass, and drum tabs
                                    from Ultimate-Guitar.com database.

                                    Type "ultimate guitar tabs" in Apple
                                    App Store's or Android Market's
                                    search to find the application.
-------------------------------------------------------------------------------
                             SACRIFICE - Bjork
-------------------------------------------------------------------------------

Gtr I (D A D G B E) - 'Harpsichord'

Drop D


 4/4
  Gtr I
  H    H      Q.   E +E  E Q    H    H      Q.   E +E  E Q
|-----------|-----------------|-----------|------------------|
|-----------|-----------------|-----------|------------------|
|------2----|-----------------|------2----|------------------|
|-----------|-3----2-(2)-0----|-----------|-3----2-(2)-0-----|
|-0---------|--------------3--|-0---------|--------------3---|
|-----------|-----------------|-----------|------------------|


  Q  E E H      Q.   E +E  E Q    Q  E E H      Q.   E +E  E Q
|-------------|-----------------|-------------|-----------------|
|-------------|-----------------|-------------|-----------------|
|-------------|-----------------|----2---2----|-----------------|
|----5---5----|-3----2-(2)-0-0--|--------2----|-0---------------|
|-------------|--------------3--|--------0----|------3-(3)------|
|-5-----------|--------------0--|-3-----------|------------5-3--|


  Q  E E H      Q.   E +E  E Q    H    H      Q.   E +E  E E E
|-------------|-----------------|-----------|----------------0-|
|-------------|-----------------|------5----|------------3-----|
|----2---2----|-----------------|-2----2----|------------------|
|-2------2----|-0---------------|-----------|-3----2-(2)-0-----|
|-------------|------3-(3)------|-0---------|--------------3---|
|-------------|------------5-3--|-----------|------------------|


  Q  Q  H      Q.   E +E  E Q    Q  Q  H      Q.   E E E Q
|-3-----0----|-----------------|------------|---------------|
|------------|-----------------|-6-----3----|--------1------|
|----2--2----|-----------------|----0-------|---------------|
|------------|-3----2-(2)-0----|------------|-3----2---0----|
|-0----------|--------------3--|------------|------------3--|
|------------|-----------------|-5----------|---------------|


  Q  E E H      Q.   E +E  E Q    Q  E E H      Q.   E +E  E Q
|-------------|-----------------|-------------|-----------------|
|-------------|-----------------|-------------|-----------------|
|----2---2----|-----------------|----2---2----|-----------------|
|-2------2----|-0---------------|-2------2----|-0---------------|
|-------------|------3-(3)------|-------------|------3-(3)------|
|-3-----------|------------5-3--|-------------|------------5-3--|


  H    H      Q.   E +E  E E E   Q  Q  H      Q.   E +E  E Q
|-----------|----------------0-|-3-----0----|-----------------|
|------5----|------------3-----|------------|-----------------|
|-2----2----|------------------|----2--2----|-----------------|
|-----------|-3----2-(2)-0-----|------------|-3----2-(2)-0----|
|-0---------|--------------3---|-0----------|--------------3--|
|-----------|------------------|------------|-----------------|


  Q  Q  H      Q  E E H      Q.   E +E  E Q    Q  E E H
|------------|-------------|-----------------|-------------|
|------------|-------------|-----------------|-------------|
|-------7----|-5--2---2----|-----------------|----2---2----|
|----5--5----|-2----2------|-0---------------|-2------2----|
|-5----------|-------------|------3-(3)------|-------------|
|-5----------|-3-----------|------------5-3--|-3-----------|


  Q.   E +E  E E E   Q  Q  H      Q.   E +E  E Q    Q.   E E E Q
|------------------|----5--5----|--------------1--|-5----3---1-3--|
|------------3---1-|------------|-----------------|---------------|
|------------------|-7----------|------3-(3)---3--|--------3------|
|-0----------------|-------8----|-----------------|---------------|
|------3-(3)-------|------------|-1----------1----|---------------|
|------------5-3---|-8----------|-----------------|-8-------------|


  H    E E Q    Q   Q  E E Q     E E +E   E  +E  E  Q    H    E  E  +Q
|-------------|---------------|------------------------|-----------------|
|----------3--|-8----------6--|-10-8-(8)-10-(10)-8-----|-8---------------|
|------3---3--|----10----7----|--------------------10--|--------10-(10)--|
|-------------|--------8------|-----------8--(8)----8--|------8----------|
|-1------1----|---------------|------------------------|-----------------|
|-------------|-8-------------|--8---------------8-----|-8---------------|


  E  E  +E  E E  E Q    E E E E E  E  Q
|---------------------|------------------|
|-8---------8---------|-6----------------|
|---10-(10)-----10-9--|-7-7---7------10--|
|-------------8----8--|---------8-10-----|
|---------------------|------------------|
|-8--------------8----|-8----------------|


   E E +E   E  +E  E  Q    Q.   E +E   E E E
|------------------------|-------------------|
|-10-8-(8)-10-(10)-8-----|-8-----------------|
|--------------------10--|------------10---9-|
|-----------8--(8)----8--|------8-(8)----8---|
|------------------------|-------------------|
|--8---------------8-----|-8-----------8-----|


  E E +E  E E  E Q     Q.   E +E  E Q    H    H      Q.   E +E  E E E
|-------------------|------------------|-----------|----------------0-|
|-8-6-(6)-8---------|------------------|------5----|------------3-----|
|-7-7-(7)-7---10-9--|-10---------------|-2----2----|------------------|
|-----------8-10----|-------8-(8)---8--|-----------|-3----2-(2)-0-----|
|-------------------|------------------|-0---------|--------------3---|
|-8-----------------|--8----------8----|-----------|------------------|


  Q  Q  H      Q.   E +E  E Q    Q  Q  H      Q  E E H
|-3-----0----|-----------------|------------|-------------|
|------------|-----------------|------------|-------------|
|----2--2----|-----------------|-------7----|-5--2---2----|
|------------|-3----2-(2)-0----|----5-------|-2------2----|
|-0----------|--------------3--|-5----------|-------------|
|------------|-----------------|-5----------|-3-----------|


  Q.   E +E  E Q    Q  E E H      Q.   E +E  E Q    Q  Q  H
|-----------------|-------------|-----------------|----0--0----|
|-----------------|-------------|-----------------|------------|
|-2---------------|----2---2----|-----------------|-2-----2----|
|-0---------------|-2------2----|-0---------------|------------|
|------3-(3)------|-------------|------3-(3)------|-0----------|
|------------5-3--|-3-----------|------------5-3--|------------|


  Q.   E +E  E E E   Q  Q  H      Q.   E +E  E Q    Q  Q  H
|----------------0-|-3-----0----|-----------------|------------|
|------------3-----|------------|-----------------|------------|
|------------------|----2--2----|-----------------|-------7----|
|-3----2-(2)-0-----|------------|-3----2-(2)-0----|----5-------|
|--------------3---|-0----------|--------------3--|-------5----|
|------------------|------------|-----------------|-5----------|


  Q.   E E E Q    Q  E E Q.   E   Q.   E +E  E Q    Q  E E H
|---------------|---------------|------0-(0)------|-------------|
|-3------3---1--|-------------3-|-3---------------|-------------|
|--------0------|----2-2-2------|------2-(2)------|----2---2----|
|-3----2---0----|--------2------|-0---------------|-2------2----|
|------------3--|---------------|------3-(3)------|--------0----|
|------------3--|-3-------------|------------5-3--|-------------|


  Q.   E +E  E E E    E E  E  E  E E Q
|------------------|-10-8----10----8----|
|------------3---1-|------10----10---8--|
|------------------|--------------------|
|-0----------------|-------------8------|
|------3-(3)-------|--------------------|
|------------5-3---|--8-----------------|


  Q.   E +E  E  Q     E E +E   E E  E Q
|-8----------------|-10-8-(8)-10----8----|
|------------------|-10--------8------8--|
|--------------10--|---------------10----|
|------8-(8)----8--|-------------8-------|
|------------------|---------------------|
|-8----------8-----|--8------------------|


  Q.   E +E  E Q     E E E  E E E  Q    Q.   E +E  E Q     E E +E   E H
|-----------------|-10-8---10---8-----|-8---------------|-10-8-(8)-10-8----|
|-----------------|-10---8---------8--|-----------------|------------------|
|--------------7--|---------------10--|-----------------|------------------|
|------8-(8)---8--|-----------8-------|------8-(8)---8--|-------------8----|
|-----------------|-------------------|-----------------|------------------|
|-8----------8----|--8----------------|-8----------8----|--8---------------|


  Q.   E +E  E Q     Q  Q   Q  Q    Q.   E +E  E Q    Q  Q  H
|--------------9--|-11------------|-----------------|------------|
|-----------------|------------9--|-8----4-(4)------|------------|
|------3-(3)------|---------------|-0----6-(6)-6-6--|------------|
|--------------8--|--------11-----|-6----6-(6)---6--|----3--5----|
|-1----------1----|-----8---8-----|-8----------4-4--|-4-----8----|
|-----------------|-11------------|-----------------|-------5----|


  Q.   E +E  E Q    H    Q  Q    Q.   E +E  E Q    H    Q  Q
|------------3-1--|------------|-----------------|------------|
|------4-(4)------|-2----2-----|------2-(2)-6-4--|------2-----|
|------6-(6)---1--|------------|-1------------6--|------------|
|-6---------------|---------3--|------------6-3--|---------3--|
|-4----------4----|-4----------|-4----------4----|-4----------|
|-----------------|------------|-----------------|------------|


  Q  E E E E Q    E E Q  E E Q   E E Q E E Q   E E Q E E Q
|---------------|-----6------6-|-----6-----6-|-----6-----6----|
|------------4--|---6--------6-|-----6-----6-|-----6-----6----|
|------6-----6--|--------------|-------------|----------------|
|----5---6------|-8----------8-|-----8-----8-|-----8-----8----|
|-4--------4----|----------8---|---8-----8---|---8-----8------|
|---------------|--------8-----|-8-----8-----|-8-----8--------|


  E E Q  E E Q    H    H      Q.   E +E  E Q
|-----6------6--|-----------|-------------------|
|-----6------6--|-----------|-------------------|
|---------------|------2----|-------------------|
|-----8------8--|-----------|-3----2-(2)-0------|
|---8------8----|-0---------|--------------3----|
|-8------8------|-----------|-------------------|


  H    H      Q.   E +E  E Q    Q  E E H      Q.   E +E  E Q
|-----------|-----------------|-------------|-----------------|
|-----------|-----------------|-------------|-----------------|
|-2----2----|-----------------|-------------|-----------------|
|-----------|-3----2-(2)-0----|----5---5----|-3----2-(2)-0-3--|
|-0---------|--------------3--|-------------|--------------3--|
|-----------|-----------------|-5-----------|--------------0--|


  Q  E E H      Q.   E +E  E Q    Q  E E H      Q.   E +E  E Q
|-------------|-----------------|-------------|-----------------|
|-------------|-----------------|-------------|-----------------|
|----2---2----|-----------------|----2---2----|-----------------|
|--------2----|-0---------------|-2------2----|-0---------------|
|--------0----|------3-(3)------|-------------|------3-(3)------|
|-3-----------|------------5-3--|-------------|------------5-3--|


  Q  E E H      Q.   E +E  E Q    H    H      Q.   E +E  E Q
|-------------|-----------------|-----------|-----------------|
|-------------|-----------------|-----------|-----------------|
|----2---2----|-----------------|------2----|-----------------|
|-2------2----|-0---------------|-----------|-3----2-(2)-0----|
|--------0----|------3-(3)------|-0---------|--------------3--|
|-2-----------|------------5-3--|-----------|-----------------|

  H    H      Q.   E +E  E Q    Q  E E H      Q.   E +E  E Q
|-----------|-----------------|-------------|-----------------|
|-----------|-----------------|-------------|-----------------|
|-2----2----|-----------------|-------------|-----------------|
|-----------|-3----2-(2)-0----|----5---5----|-3----2-(2)-0-3--|
|-0---------|--------------3--|-------------|--------------3--|
|-----------|-----------------|-5-----------|--------------0--|


  Q  E E H      Q.   E +E  E Q    Q  E E H      Q.   E +E  E Q
|-------------|-----------------|-------------|-----------------|
|-------------|-----------------|-------------|-----------------|
|----2---2----|-----------------|----2---2----|-----------------|
|--------2----|-0---------------|-2------2----|-0---------------|
|--------0----|------3-(3)------|-------------|------3-(3)------|
|-3-----------|------------5-3--|-------------|------------5-3--|

  Q  E E H      Q.   E +E  E Q    Q  E E H      Q.   E +E  E Q
|-------------|-----------------|-------------|-----------------|
|-------------|-----------------|-------------|-----------------|
|----2---2----|-----------------|----2---2----|-----------------|
|-2------2----|-0---------------|-2------2----|-0---------------|
|-------------|------3-(3)------|-------------|------3-(3)------|
|-3-----------|------------5-3--|-------------|------------5-3--|


  Q  E E H      Q.   E +E  E Q    Q  E E H      Q.   E +E  E Q
|-------------|-----------------|-------------|-----------------|
|-------------|-----------------|-------------|-----------------|
|----2---2----|-----------------|----2---2----|-----------------|
|-2------2----|-0---------------|-2------2----|-0---------------|
|-------------|------3-(3)------|-------------|------3-(3)------|
|-3-----------|------------5-3--|-------------|------------5-3--|


|-|
|-|
|-|
|-|
|-|
|-|


***************************************************************************************
* Generated using Power Tab Editor by Brad Larsen - http://powertab.guitarnetwork.org *
***************************************************************************************
comments
We did not receive enough feedback on this tab! Please rate:
print report bad tab
1 2 3 4 5
1 comment total.
0 reply
Izaak247 wrote on May 19 2012, 08:43 am

AMAZING!!!! ty you god

I want to post or [tab]
guest
You may want to rate the tab now too:
select rating
Please do not post tabs as comments. Select "correction" instead!