Oops, an error
Loading. Please wait.

Livin In America Bass Tab

87 views 1 this week
no commentswrite comment
1 2 3 4 5
excellent!
x 1
add to favorites launch autoscroll
font size
0
reset
Autoscroll
+/-
esc
set tempo
stop
Contributor
Difficulty
intermediate
WARNING: You are trying to view
                                    content from Ultimate-Guitar.com
                                    in an unauthorized application,
                                    which is prohibited.

                                    Please use an official Ultimate
                                    Guitar Tabs application for iPhone,
                                    iPad or Android to access legitimate
                                    chords, guitar, bass, and drum tabs
                                    from Ultimate-Guitar.com database.

                                    Type "ultimate guitar tabs" in Apple
                                    App Store's or Android Market's
                                    search to find the application.
Verse 0:26
G|-----------------------------------------------------------------|
D|-------------0-----------5---2---0---0-----------------------0---|
A|---------2-------------------------------2---0-------------------|
E|-3---3-----------3---3---------------------------3---3---3-------|
   1 + 2 + 3 + 4 + 1 + 2 + 3 + 4 + 1 + 2 + 3 + 4 + 1 + 2 + 3 + 4 +

G|-----------------------------------------------------------------|
D|-------------------------0---------------------------------------|
A|-------------0---2---2-------2---0---0---0---2---3-3---3-5---2---|
E|-3---3---3-------------------------------------------------------|
   1 + 2 + 3 + 4 + 1 + 2 + 3 + 4 + 1 + 2 + 3 + 4 + 1 + 2 + 3 + 4 +

0:34
G|-----------------------------------------------------------------|
D|-----------------------------------------4---7-----------0---4---|
A|-------------2---------------2---5---5-----------2-2---2---------|
E|-0---0---3-------0---0---3---------------------------------------|
   1 + 2 + 3 + 4 + 1 + 2 + 3 + 4 + 1 + 2 + 3 + 4 + 1 + 2 + 3 + 4 +

G|-----------------------------------------------------------------|
D|-----------------------------------------------------------------|
A|-------------2---0-------0---2---------------2---------------2---|
E|-0-----0-3-------------3---------0-----0-3-------0---0---3-------|
   1 + 2 + 3 + 4 + 1 + 2 + 3 + 4 + 1 + 2 + 3 + 4 + 1 + 2 + 3 + 4 +

0:43
G|-----------------------------------------------------------------|
D|-----------------------------------------4---7-----------0---4---|
A|-------------2---------------9-\-5---5-----------2---2-----------|
E|-0---0---3-------0---0---3---------------------------------------|
   1 + 2 + 3 + 4 + 1 + 2 + 3 + 4 + 1 + 2 + 3 + 4 + 1 + 2 + 3 + 4 +

G|-----------------------------------------------------------------|
D|-----------------------------------------------------------------|
A|-------------2---0---0---0---2---------------2---------------2---|
E|-0---0---3-----------------------0-----0-3-------0---0---3-------|
   1 + 2 + 3 + 4 + 1 + 2 + 3 + 4 + 1 + 2 + 3 + 4 + 1 + 2 + 3 + 4 +

0:53
G|-----------------------------------------------------------------|
D|-----------------------------------------4---7-----------0---4---|
A|-------------2---------------2---5---5-----------2---2-----------|
E|-0---0---3-------0---0---3---------------------------------------|
   1 + 2 + 3 + 4 + 1 + 2 + 3 + 4 + 1 + 2 + 3 + 4 + 1 + 2 + 3 + 4 +

G|-----------------------------------------------------------------|
D|---------------------------------------------2-------------------|
A|-------------2---0---0---0---2-----------2-----------------------|
E|-0---0---3-----------------------0-0---0---------0---0---0---2---|
   1 + 2 + 3 + 4 + 1 + 2 + 3 + 4 + 1 + 2 + 3 + 4 + 1 + 2 + 3 + 4 +

Chorus 1:02
G|-----------------------------------------------------------------|
D|---------------------------------0---0---------------------------|
A|-----------------------------2-----------2---0---------------2---|
E|-3---3---3---3-3-3---3---3-----------------------3---3---3-------|
   1 + 2 + 3 + 4 + 1 + 2 + 3 + 4 + 1 + 2 + 3 + 4 + 1 + 2 + 3 + 4 +

G|-----------------------------------------------------------------|
D|-------------------------0---2-------------------------------0---|
A|-------------0---2---2-----------0-----0-0---2---3---3---3-------|
E|-3---3---3-------------------------------------------------------|
   1 + 2 + 3 + 4 + 1 + 2 + 3 + 4 + 1 + 2 + 3 + 4 + 1 + 2 + 3 + 4 +

1:10
G|-----------------------------------------------------------------|
D|-----------------------------------------4---7---------------0---|
A|-------------2---------------2---5---5-----------2---2---2-------|
E|-0---0---3-------0---0---3---------------------------------------|
   1 + 2 + 3 + 4 + 1 + 2 + 3 + 4 + 1 + 2 + 3 + 4 + 1 + 2 + 3 + 4 +

G|-----------------------------------------------------------------|
D|-----------------------------------------------------------------|
A|-------------2---0-------0---2---------------2---------------2---|
E|-0---0---3-------------3---------0-----0-3-------0---0---3-------|
   1 + 2 + 3 + 4 + 1 + 2 + 3 + 4 + 1 + 2 + 3 + 4 + 1 + 2 + 3 + 4 +

Interlude 1:20
G|-----------------------------------------------------------------|
D|-----------------------------------------4---7-----------0---4---|
A|-------------2---------------2---5---5-----------2---2-----------|
E|-0---0---3-------0---0---3---------------------------------------|
   1 + 2 + 3 + 4 + 1 + 2 + 3 + 4 + 1 + 2 + 3 + 4 + 1 + 2 + 3 + 4 +

G|-----------------------------------------------------------------|
D|-----------------------------------------------------------------|
A|-------------2---0-------0---2---------------2---------------2---|
E|-0---0---3-------------3---------0-----0-3-------0---0---3-------|
   1 + 2 + 3 + 4 + 1 + 2 + 3 + 4 + 1 + 2 + 3 + 4 + 1 + 2 + 3 + 4 +

Verse 1:29
G|-----------------------------------------------------------------|
D|-----------------------------------------4---7-----------0---4---|
A|-------------2---------------2---5---5-----------2---2-----------|
E|-0---0---3-------0---0---3---------------------------------------|
   1 + 2 + 3 + 4 + 1 + 2 + 3 + 4 + 1 + 2 + 3 + 4 + 1 + 2 + 3 + 4 +

G|-----------------------------------------------------------------|
D|-----------------------------------------------------------------|
A|-------------2---0---0---0---2---------------2---------------2---|
E|-0---0---3-----------------------0-----0-3-------0---0---3-------|
   1 + 2 + 3 + 4 + 1 + 2 + 3 + 4 + 1 + 2 + 3 + 4 + 1 + 2 + 3 + 4 +

1:39
G|-----------------------------------------------------------------|
D|-----------------------------------------4---7-----------0---4---|
A|-------------2---------------2---5---5-----------2---2-----------|
E|-0-----0-3-------0---0---3---------------------------------------|
   1 + 2 + 3 + 4 + 1 + 2 + 3 + 4 + 1 + 2 + 3 + 4 + 1 + 2 + 3 + 4 +

G|-----------------------------------------------------------------|
D|-----------------------------------------------------------------|
A|-----------------0---0---0---2-----------------------------------|
E|-0---0---0---3-------------------0-----------------------0---2---|
   1 + 2 + 3 + 4 + 1 + 2 + 3 + 4 + 1 + 2 + 3 + 4 + 1 + 2 + 3 + 4 +

Chorus 1:47
G|-----------------------------------------------------------------|
D|-------------0-----------2-------0---0---0---7---5---5---5---0---|
A|---------2-------------------3-----------------------------------|
E|-3---3-----------3---3-------------------------------------------|
   1 + 2 + 3 + 4 + 1 + 2 + 3 + 4 + 1 + 2 + 3 + 4 + 1 + 2 + 3 + 4 +

G|-----------------------------------------------------------------|
D|-------------------------0---2-----------7-----------------------|
A|-------------0---2---2-----------0-----0-----2---3---3---3---5---|
E|-3---3---3-------------------------------------------------------|
   1 + 2 + 3 + 4 + 1 + 2 + 3 + 4 + 1 + 2 + 3 + 4 + 1 + 2 + 3 + 4 +

1:57
G|-----------------------------------------------------------------|
D|-----------------------------------------4---7-----------0---4---|
A|-------------2---------------2---5---5-----------2---2-----------|
E|-0---0---3-------0---0---3---------------------------------------|
   1 + 2 + 3 + 4 + 1 + 2 + 3 + 4 + 1 + 2 + 3 + 4 + 1 + 2 + 3 + 4 +

G|-----------------------------------------------------------------|
D|-----------------------------------------------------------------|
A|-------------2---0---0---0---2---------------2---------------2---|
E|-0---0---3-----------------------0---0---3-------0---0---3-------|
   1 + 2 + 3 + 4 + 1 + 2 + 3 + 4 + 1 + 2 + 3 + 4 + 1 + 2 + 3 + 4 +

Verse 2:06
G|-----------------------------------------------------------------|
D|-----------------------------------------4---7-----------0---4---|
A|-----------------------------2---5---5-----------2---2-----------|
E|-0---0---3-------0---0---3---------------------------------------|
   1 + 2 + 3 + 4 + 1 + 2 + 3 + 4 + 1 + 2 + 3 + 4 + 1 + 2 + 3 + 4 +

G|-----------------------------------------------------------------|
D|-----------------------------------------------------------------|
A|-------------2---0-------0---2---------------2---------------2---|
E|-0---0---3-------------3---------0-----0-3-------0---0---3-------|
   1 + 2 + 3 + 4 + 1 + 2 + 3 + 4 + 1 + 2 + 3 + 4 + 1 + 2 + 3 + 4 +

2:15
G|-----------------------------------------------------------------|
D|-----------------------------------------4---7-----------0---4---|
A|-------------2---------------2---5---5-----------2---2-----------|
E|-0---0---3-------0---0---3---------------------------------------|
   1 + 2 + 3 + 4 + 1 + 2 + 3 + 4 + 1 + 2 + 3 + 4 + 1 + 2 + 3 + 4 +

G|-----------------------------------------------------------------|
D|-----------------------------------------------------------------|
A|-----------------0---0---0---2---------------2-------------------|
E|-0---0---0---3-------------------0---0---3-------0---0---0---2---|
   1 + 2 + 3 + 4 + 1 + 2 + 3 + 4 + 1 + 2 + 3 + 4 + 1 + 2 + 3 + 4 +

Chorus 2:24
G|-----------------------------------------------------------------|
D|-------------0-------------------0---0---0-----------------------|
A|-----------------------------3-------------------------------2---|
E|-3---3---3-------3---3---3-------------------2---3---3---3-------|
   1 + 2 + 3 + 4 + 1 + 2 + 3 + 4 + 1 + 2 + 3 + 4 + 1 + 2 + 3 + 4 +

G|-----------------------------------------------------------------|
D|-------------------------0---2---------------------------2---5---|
A|-------------0---2---2-----------0---0---0---2---3---3-----------|
E|-3---3---3-------------------------------------------------------|
   1 + 2 + 3 + 4 + 1 + 2 + 3 + 4 + 1 + 2 + 3 + 4 + 1 + 2 + 3 + 4 +

2:33
G|-----------------------------------------------------------------|
D|-----------------------------------------4---7-----------0---4---|
A|-------------2---------------2---5---5-----------2---2-----------|
E|-0---0---3-------0---0---3---------------------------------------|
   1 + 2 + 3 + 4 + 1 + 2 + 3 + 4 + 1 + 2 + 3 + 4 + 1 + 2 + 3 + 4 +

G|-----------------------------------------------------------------|
D|-----------------------------------------------------------------|
A|-----------------0---0---0---2---------------2---------------2---|
E|-0---0---0---3-------------------0---0---3-------0---0---3-------|
   1 + 2 + 3 + 4 + 1 + 2 + 3 + 4 + 1 + 2 + 3 + 4 + 1 + 2 + 3 + 4 +

Bridge 2:43
G|-----------------------------------------------------------------|
D|---------------------------------0---0-----------0---0---0---4---|
A|-3---3---2---0---3---3---3---3-----------2---0-------------------|
E|-----------------------------------------------------------------|
   1 + 2 + 3 + 4 + 1 + 2 + 3 + 4 + 1 + 2 + 3 + 4 + 1 + 2 + 3 + 4 +

G|-----------------------------------------------------------------|
D|-5-------------------------------0---0---0-------0---0---0---0---|
A|-----3---2---0---3---3---2---0---------------2-------------------|
E|-----------------------------------------------------------------|
   1 + 2 + 3 + 4 + 1 + 2 + 3 + 4 + 1 + 2 + 3 + 4 + 1 + 2 + 3 + 4 +

2:52
G|-----------------------------------------------------------------|
D|-2---2---2-------------------------------------------------------|
A|-------------2---------------2---3---3---2---0---3---3---3---3---|
E|-----------------0---0---3---------------------------------------|
   1 + 2 + 3 + 4 + 1 + 2 + 3 + 4 + 1 + 2 + 3 + 4 + 1 + 2 + 3 + 4 +

G|-----------------------------------------------------------------|
D|-----------------------------------------------------------------|
A|-5---------------------------------------------------------------|
E|-----------------------------------------------------------------|
   1 + 2 + 3 + 4 + 1 + 2 + 3 + 4 + 1 + 2 + 3 + 4 + 1 + 2 + 3 + 4 +

3:01
G|-----------------------------------------------------------------|
D|---------------------------------0---0---0-------0---0---4---5---|
A|-3---3---2---0---3---3---3---3---------------2-------------------|
E|-----------------------------------------------------------------|
   1 + 2 + 3 + 4 + 1 + 2 + 3 + 4 + 1 + 2 + 3 + 4 + 1 + 2 + 3 + 4 +

G|-----------------------------------------------------------------|
D|-----------------------------2---0---0-----------0---0-----------|
A|-3---3---2---0---3---3---3---------------3---2-----------3---2---|
E|-----------------------------------------------------------------|
   1 + 2 + 3 + 4 + 1 + 2 + 3 + 4 + 1 + 2 + 3 + 4 + 1 + 2 + 3 + 4 +

3:10
G|-------6-6-------------------------------------------------------|
D|-------------7-------------------------------------------2-------|
A|-0---------------7-------4---0---3---3---2---0---3---3-------3---|
E|-----------------------------------------------------------------|
   1 + 2 + 3 + 4 + 1 + 2 + 3 + 4 + 1 + 2 + 3 + 4 + 1 + 2 + 3 + 4 +

G|-----------------------------------------------------------------|
D|-0---0---0-------0---0---0---7---0---0-----------0-0-0-0---------|
A|-------------0---------------------------3---0-----------0-0-----|
E|-------------------------------------------------------------3-3-|
   1 + 2 + 3 + 4 + 1 + 2 + 3 + 4 + 1 + 2 + 3 + 4 + 1 + 2 + 3 + 4 +

Solo 3:18
G|-----------------------------------------------------------------|
D|---------2-------------------------------4---7-----------0---4---|
A|-------------2---------------2---5---5-----------2---2-----------|
E|-0---0-----------0---0---3---------------------------------------|
   1 + 2 + 3 + 4 + 1 + 2 + 3 + 4 + 1 + 2 + 3 + 4 + 1 + 2 + 3 + 4 +

G|-----------------------------------------------------------------|
D|-----------------------------------------------------------------|
A|-------------2---0-0-----0---2---------------2---------------2---|
E|-0---0---3-------------3---------0-----0-3-------0---0---3-------|
   1 + 2 + 3 + 4 + 1 + 2 + 3 + 4 + 1 + 2 + 3 + 4 + 1 + 2 + 3 + 4 +

G|-----------------------------------------------------------------|
D|-----------------------------------------4---7-----------0---4---|
A|-------------2-------------0-2---5---5-----------2---2-----------|
E|-0-----0-3-------0---0---3---------------------------------------|
   1 + 2 + 3 + 4 + 1 + 2 + 3 + 4 + 1 + 2 + 3 + 4 + 1 + 2 + 3 + 4 +

G|-----------------------------------------------------------------|
D|---------------------------------------------2-------------------|
A|-------------2---0-0-----0---2-----------------------------------|
E|-0-----0-3-------------3---------0-------0-------0-------0---2---|
   1 + 2 + 3 + 4 + 1 + 2 + 3 + 4 + 1 + 2 + 3 + 4 + 1 + 2 + 3 + 4 +

3:37
G|-----------------------------------------------------------------|
D|-------------0---5---5---5-------0---0---0-----------------------|
A|-----------------------------3-----------------------------------|
E|-3---3---3-----------------------------------2---3---3---3-------|
   1 + 2 + 3 + 4 + 1 + 2 + 3 + 4 + 1 + 2 + 3 + 4 + 1 + 2 + 3 + 4 +

G|-----------------------------------------------------------------|
D|-------------------------0---2-------------------------------0---|
A|-------------0---2---2-----------0---0---0---2---3---3---3-------|
E|-3---3---3-------------------------------------------------------|
   1 + 2 + 3 + 4 + 1 + 2 + 3 + 4 + 1 + 2 + 3 + 4 + 1 + 2 + 3 + 4 +

G|-----------------------------------------------------------------|
D|-----------------------------------------4---7-----------0---4---|
A|-------------2-------------0-2---5---5-----------2---2-----------|
E|-0-----0-3-------0---0---3---------------------------------------|
   1 + 2 + 3 + 4 + 1 + 2 + 3 + 4 + 1 + 2 + 3 + 4 + 1 + 2 + 3 + 4 +

G|-----------------------------------------------------------------|
D|-----------------------------------------2-----------------------|
A|-------------2---0-0-----0---2---------------2-------------------|
E|-0-----0-3-------------3---------0---------------0-------0---0---|
   1 + 2 + 3 + 4 + 1 + 2 + 3 + 4 + 1 + 2 + 3 + 4 + 1 + 2 + 3 + 4 +

Verse 3:55
G|-----------------------------------------------------------------|
D|-----------------------------------------4---7-----------0---4---|
A|-------------2-------------0-2---5---5-----------2---2-----------|
E|-0-----0-3-------0---0---3---------------------------------------|
   1 + 2 + 3 + 4 + 1 + 2 + 3 + 4 + 1 + 2 + 3 + 4 + 1 + 2 + 3 + 4 +

G|-----------------------------------------------------------------|
D|-----------------------------------------------------------------|
A|-------------2---0-------0---2---------------2-------------0-2---|
E|-0-----0-3-------------3---------0-----0-3-------0-----0-3-------|
   1 + 2 + 3 + 4 + 1 + 2 + 3 + 4 + 1 + 2 + 3 + 4 + 1 + 2 + 3 + 4 +

G|-----------------------------------------------------------------|
D|-----------------------------------------4---7-----------0---4---|
A|-------------2-------------0-2---5---5-----------2---2-----------|
E|-0-----0-3-------0---0---3---------------------------------------|
   1 + 2 + 3 + 4 + 1 + 2 + 3 + 4 + 1 + 2 + 3 + 4 + 1 + 2 + 3 + 4 +

G|-----------------------------------------------------------------|
D|-----------------------------------------------------------------|
A|-------------2---0-------0---2-------------0-2-0-----------0-2---|
E|-0-----0-3-------------3---------0-----0-3-------0-----0-3-------|
   1 + 2 + 3 + 4 + 1 + 2 + 3 + 4 + 1 + 2 + 3 + 4 + 1 + 2 + 3 + 4 +

Chorus 4:13
G|-----------------------------------------------------------------|
D|-------------0-------------------0---0---0-----------------------|
A|-----------------------------3-------------------------------2---|
E|-3---3---3-------3---3---3-------------------2---3---3---3-------|
   1 + 2 + 3 + 4 + 1 + 2 + 3 + 4 + 1 + 2 + 3 + 4 + 1 + 2 + 3 + 4 +

G|-----------------------------------------------------------------|
D|-------------------------0---2-----------------------------------|
A|-------------0---2---2-----------0---0---0---2---3---3-----------|
E|-3---3---3-----------------------------------------------3---2---|
   1 + 2 + 3 + 4 + 1 + 2 + 3 + 4 + 1 + 2 + 3 + 4 + 1 + 2 + 3 + 4 +

G|-----------------------------------------------------------------|
D|-----------------------------------------4---7---9---9-----------|
A|-------------2-------------0-2---5---5-----------------9---9-----|
E|-0-----0-3-------0---0---3-----------------------------------7-7-|
   1 + 2 + 3 + 4 + 1 + 2 + 3 + 4 + 1 + 2 + 3 + 4 + 1 + 2 + 3 + 4 +

G|-----------------------------------------------------------------|
D|---------------------------------------------------------2-------|
A|-------------2---0-------0---2-------------0-2-0-------------2---|
E|-0-----0-3-------------3---------0-----0-3-------0---------------|
   1 + 2 + 3 + 4 + 1 + 2 + 3 + 4 + 1 + 2 + 3 + 4 + 1 + 2 + 3 + 4 +

Verse 4:31
G|-----------------------------------------------------------------|
D|-----------------------------------------4---7-----------0---4-4-|
A|-------------2-------------0-2---5---5-----------2---2-----------|
E|-0-----0-3-------0---0---3---------------------------------------|
   1 + 2 + 3 + 4 + 1 + 2 + 3 + 4 + 1 + 2 + 3 + 4 + 1 + 2 + 3 + 4 +

G|-----------------------------------------------------------------|
D|-----------------------------------------------------------------|
A|-------------2---0---0---0-0-----------------2---------------2---|
E|-0-----0-3-------------------3-3-0-----0-3-3-----0-------3-3-----|
   1 + 2 + 3 + 4 + 1 + 2 + 3 + 4 + 1 + 2 + 3 + 4 + 1 + 2 + 3 + 4 +

G|-----------------------------------------------------------------|
D|-----------------------------------------4---7-----------0---4-4-|
A|-------------2-------------0-2---5---5-----------2---2-----------|
E|-0-----0-3-------0---0---3---------------------------------------|
   1 + 2 + 3 + 4 + 1 + 2 + 3 + 4 + 1 + 2 + 3 + 4 + 1 + 2 + 3 + 4 +

G|-----------------------------------------------------------------|
D|-----------------------------------------------------------------|
A|-------------2---0---0---0-0-----------------2-------------------|
E|-0-----0-3-3-----------------3-3-0-----0-3-3-----0---0---0---2---|
   1 + 2 + 3 + 4 + 1 + 2 + 3 + 4 + 1 + 2 + 3 + 4 + 1 + 2 + 3 + 4 +

Chorus 4:50
G|-----------------------------------------------------------------|
D|-------------0-------------------0---0---0-----------------------|
A|-----------------------------3-------------------------------2---|
E|-3---3---3-------3---3---3-------------------2---3---3---3-------|
   1 + 2 + 3 + 4 + 1 + 2 + 3 + 4 + 1 + 2 + 3 + 4 + 1 + 2 + 3 + 4 +

G|-----------------------------------------------------------------|
D|-------------------------0---2-----------------------------------|
A|-------------0---2---2-----------0---0---0---2---3---3-----------|
E|-3---3---3-----------------------------------------------3---2---|
   1 + 2 + 3 + 4 + 1 + 2 + 3 + 4 + 1 + 2 + 3 + 4 + 1 + 2 + 3 + 4 +

G|-----------------------------------------------------------------|
D|-----------------------------------------4---7---9---9-----------|
A|-------------2-------------0-2---5---5-----------------9-9-9-----|
E|-0-----0-3-------0---0---3-----------------------------------7-7-|
   1 + 2 + 3 + 4 + 1 + 2 + 3 + 4 + 1 + 2 + 3 + 4 + 1 + 2 + 3 + 4 +

G|-----------------------------------------------------------------|
D|-----------------------------------------------------------------|
A|-------------2---0-------0-0-2-2-----------0-2-0-----------------|
E|-0-----0-3-------------3---------0-----0-3-------0-------0-0-2---|
   1 + 2 + 3 + 4 + 1 + 2 + 3 + 4 + 1 + 2 + 3 + 4 + 1 + 2 + 3 + 4 +

Outro Chorus 5:09
G|-----------------------------------------------------------------|
D|---------------------------------------------4-------------------|
A|-------------2---------------2---5---5---5-------2---2---5---5---|
E|-0---0---3-------0---0---3---------------------------------------|
   1 + 2 + 3 + 4 + 1 + 2 + 3 + 4 + 1 + 2 + 3 + 4 + 1 + 2 + 3 + 4 +

G|-----------------------------------------------------------------|
D|-----------------------------------------------------------------|
A|-------------2---0-------0-0-2---------------2---------------2---|
E|-0-----0-3-------------3---------0-----0-3-3-----0-------3-3-----|
   1 + 2 + 3 + 4 + 1 + 2 + 3 + 4 + 1 + 2 + 3 + 4 + 1 + 2 + 3 + 4 +

5:17
G|-----------------------------------------------------------------|
D|-----------------------------------------4---7-----------0-0-4---|
A|-------------2-------------0-2---5---5-----------2---2-----------|
E|-0-----0-3-------0---0---3---------------------------------------|
   1 + 2 + 3 + 4 + 1 + 2 + 3 + 4 + 1 + 2 + 3 + 4 + 1 + 2 + 3 + 4 +

G|-----------------------------------------------------------------|
D|-----------------------------------------------------------------|
A|-------------2---0---0---0-0-----------------2---------------2---|
E|-0-----0-3-------------------3-3-0-----0-3-3-----0-------3-3-----|
   1 + 2 + 3 + 4 + 1 + 2 + 3 + 4 + 1 + 2 + 3 + 4 + 1 + 2 + 3 + 4 +

Fade out 5:26
G|-----------------------------------------------------------------|
D|-----------------------------------------4---7-----------0-0-4---|
A|-------------2-------------0-2---5---5-----------2---2-----------|
E|-0-----0-3-------0---0---3---------------------------------------|
   1 + 2 + 3 + 4 + 1 + 2 + 3 + 4 + 1 + 2 + 3 + 4 + 1 + 2 + 3 + 4 +

G|-----------------------------------------------------------------|
D|---------------------------------------------------------0-------|
A|-------------2---0---0---0-0-----------------2---------------2---|
E|-0-----0-3-------------------3-3-0-----0-3-3-----0---------------|
   1 + 2 + 3 + 4 + 1 + 2 + 3 + 4 + 1 + 2 + 3 + 4 + 1 + 2 + 3 + 4 +
Tabbed by Dave Vucko


comments
We did not receive enough feedback on this tab! Please rate:
print report bad tab
1 2 3 4 5
I want to post or [tab]
guest
You may want to rate the tab now too:
select rating
Please do not post tabs as comments. Select "correction" instead!