Oops, an error
Loading. Please wait.

Magic Travel Tab

504 views 1 this week
no commentswrite comment
1 2 3 4 5
please rate
Autoscroll
+/-
esc
set tempo
stop
Contributor
Difficulty
Tuning
intermediate
C G C F A D
WARNING: You are trying to view
                                    content from Ultimate-Guitar.com
                                    in an unauthorized application,
                                    which is prohibited.

                                    Please use an official Ultimate
                                    Guitar Tabs application for iPhone,
                                    iPad or Android to access legitimate
                                    chords, guitar, bass, and drum tabs
                                    from Ultimate-Guitar.com database.

                                    Type "ultimate guitar tabs" in Apple
                                    App Store's or Android Market's
                                    search to find the application.
-------------------------------------------------------------------------------
                             Magic Travel - Black Drawing Chalks
-------------------------------------------------------------------------------
Tabbed by: Lucas Couto (coutoriando)
Email: something_lc@Live.co.uk

Tuning: Drop C


D|---------------------------------------------------------------------------|
A|---------------------------------------------------------------------------|      
F|---------------------------------------------------------------------------|    (2x)
C|-5--5-5(5)-5-5(5)---3--3-3(3)-3-3(3)---------------------------------------|
G|-5--5-5(5)-5-5(5)---3--3-3(3)-3-3(3)---3--3-3(3)-3-3-3----0-0-------3------|
C|-5--5-5(5)-5-5(5)---3--3-3(3)-3-3(3)---2--2-2(2)-2-2-2----0-0---3-5---5-3--|       

D|------------------------------------------------|
A|------------------------------------------------|
F|------------------------------------------------|
C|------------------------------------------------|
G|-0-0------3b----0-0------3b-----0-0------3b-----|
C|-0-0--3-5-------0-0--3-5--------0-0--3-5--------|

D|---------------------------------------------------------------------------|
A|---------------------------------------------------------------------------|      
F|---------------------------------------------------------------------------|    (4x)
C|-5--5-5(5)-5-5(5)---3--3-3(3)-3-3(3)---------------------------------------|
G|-5--5-5(5)-5-5(5)---3--3-3(3)-3-3(3)---3--3-3(3)-3-3-3----0-0-------3------|
C|-5--5-5(5)-5-5(5)---3--3-3(3)-3-3(3)---2--2-2(2)-2-2-2----0-0---3-5---5-3--|        

D|------------------------------------------------|
A|------------------------------------------------|
F|------------------------------------------------|
C|------------------------------------------------|
G|-0-0------3b----0-0------3b-----0-0------3b-----|
C|-0-0--3-5-------0-0--3-5--------0-0--3-5--------|

D|------------------------------------------------------|
A|------------------------------------------------------|
F|-7-7--------5--5-5-5-5---3-3--------------------------|  (2x)
C|-7-7--------5--5-5-5-5---3-3-----------5--5-5-5-5-----|
G|-5-5--------3--3-3-3-3---1-1-----------5--5-5-5-5-----|
C|------3-5---------------------2-3-2----5--5-5-5-5-----|

D|--------------------------------------|
A|--------------------------------------|
F|--------------------------------------|
C|---------3-5-0~----------------3-5----|
G|-3-3(3)--3-5-0~--------3-3(3)--3-5----|
C|-2-2(2)--3-5-0~--------2-2(2)--3-5----|

D|---------------------------------------------------------------------------|
A|---------------------------------------------------------------------------|      
F|---------------------------------------------------------------------------|  (4x)
C|-5--5-5(5)-5-5(5)---3--3-3(3)-3-3(3)---------------------------------------|
G|-5--5-5(5)-5-5(5)---3--3-3(3)-3-3(3)---3--3-3(3)-3-3-3----0-0-------3------|
C|-5--5-5(5)-5-5(5)---3--3-3(3)-3-3(3)---2--2-2(2)-2-2-2----0-0---3-5---5-3--|

D|------------------------------------------------|
A|------------------------------------------------|
F|------------------------------------------------|
C|------------------------------------------------|
G|-0-0------3b----0-0------3b-----0-0------3b-----|
C|-0-0--3-5-------0-0--3-5--------0-0--3-5--------|

D|------------------------------------------------------|
A|------------------------------------------------------|
F|-7-7--------5--5-5-5-5---3-3--------------------------|  (4x)
C|-7-7--------5--5-5-5-5---3-3-----------5--5-5-5-5-----|
G|-5-5--------3--3-3-3-3---1-1-----------5--5-5-5-5-----|
C|------3-5---------------------2-3-2----5--5-5-5-5-----|

D|---------------------------------------------------------------------------|
A|---------------------------------------------------------------------------|
F|-----------------------10-12-12b-------------------------------------------|
C|---------3-5-0~---3/12-----------12----------------------------------------|
G|-3-3(3)--3-5-0~-----------------------3-3(3)--3-5-8~-----------------------|
C|-2-2(2)--3-5-0~-----------------------2-2(2)--3-5-8~-----------------------|

D|---------------------------------------------------------------------------|
A|-----------------12-12-12-12b----------------------------------------------|
F|-----------------12-12-12-12b--10h12p10----10~-----------------------------|
C|---------3-5-0~--12-12-12-12b-----------12---------------------------------|
G|-3-3(3)--3-5-0~------------------------------------------------------------|
C|-2-2(2)--3-5-0~------------------------------------------------------------|

D|-------------------------------------|
A|-------------------------------------|      
F|-------------------------------------|   
C|-------------------------------------|
G|--3--3-3(3)-3-3-3----0-0-------3-----|
C|--2--2-2(2)-2-2-2----0-0---3-5---5-3-| 

D|---------------------------------------------------------------------------|
A|---------------------------------------------------------------------------|      
F|---------------------------------------------------------------------------|   (3x)
C|-5--5-5(5)-5-5(5)---3--3-3(3)-3-3(3)---------------------------------------|
G|-5--5-5(5)-5-5(5)---3--3-3(3)-3-3(3)---3--3-3(3)-3-3-3----0-0-------3------|
C|-5--5-5(5)-5-5(5)---3--3-3(3)-3-3(3)---2--2-2(2)-2-2-2----0-0---3-5---5-3--|

D|--------------------------------------------|
A|--------------------------------------------|
F|-12b----10-------------12b-----10-----------|   (2x)
C|-----12----12-12-12--------12-----12-12-12--|
G|--------------------------------------------|
C|--------------------------------------------|

D|---------------------------------------------------------------------------|
A|---------------------------------------------------------------------------|
F|-12b----10-------------12b-----10------------12b----10---------------------|  
C|-----12----12-12-10--------12-----12-12-9--------12----12-12-8-------------|
G|---------------------------------------------------------------------------|
C|---------------------------------------------------------------------------|

D|----------------------|
A|----------------------|
F|---10--------10-------|   
C|------11-12-----11-12-| 
G|----------------------|
C|----------------------|

D|---------------------------------------------------------------------------|
A|---------------------------------------------------------------------------|
F|---10--10-10(10)--10-10(10)---10--10-10(10)--10-10(10)---------------------|   
C|---12--12-12(12)--12-12(12)---10--10-10(10)--10-10(10)---------------------|
G|---------------------------------------------------------------------------|
C|---------------------------------------------------------------------------|

D|---------------------------------------------------------------------------|
A|---------------------------------------------------------------------------|
F|--12--12-12(12)--12-12(12)----10--10-10(10)---10--------10-----------------|
C|--9---9--9(9)----9--9(9)------8---8--8(8)--------11-12-----11-12-----------|
G|---------------------------------------------------------------------------|
C|---------------------------------------------------------------------------|

D|---------------------------------------------------------------------------|
A|---------------------------------------------------------------------------|
F|---10--10-10(10)--10-10(10)---10--10-10(10)--10-10(10)---------------------|   
C|---12--12-12(12)--12-12(12)---10--10-10(10)--10-10(10)---------------------|
G|---------------------------------------------------------------------------|
C|---------------------------------------------------------------------------|

D|---------------------------------------------------------------------------|
A|---------------------------------------------------------------------------|
F|--12--12-12(12)--12-12(12)----13--13-13-13-13-13---------------------------|
C|--9---9--9(9)----9--9(9)------10--10-10-10-10-10---------------------------|
G|---------------------------------------------------------------------------|
C|---------------------------------------------------------------------------|

D|------------------------------------------------------|
A|------------------------------------------------------|
F|-7-7--------5--5-5-5-5---3-3--------------------------|  
C|-7-7--------5--5-5-5-5---3-3-----------5--5-5-5-5-----| (3x)
G|-5-5--------3--3-3-3-3---1-1-----------5--5-5-5-5-----|
C|------3-5---------------------2-3-2----5--5-5-5-5-----|

D|--------------------------|
A|--------------------------|
F|-7-7--------5~------------|
C|-7-7--------5~------------|
G|-5-5--------3~-----3(3)---|
C|------3-5----------2(2)---|

D|---------------------------------------------------------------------------|
A|---------------------------------------------------------------------------|      
F|---------------------------------------------------------------------------|   (4x)
C|-5--5-5(5)-5-5(5)---3--3-3(3)-3-3(3)---------------------------------------|
G|-5--5-5(5)-5-5(5)---3--3-3(3)-3-3(3)---3--3-3(3)-3-3-3----0-0-------3------|
C|-5--5-5(5)-5-5(5)---3--3-3(3)-3-3(3)---2--2-2(2)-2-2-2----0-0---3-5---5-3--|

D|---------------------------------------------------------------------------|
A|---------------------------------------------------------------------------|      
F|---------------------------------------------------------------------------|   
C|-5~--5(5)--3~-------------------------------0(0)---------------------------|
G|-5~--5(5)--3~---3~--3(3)---0-0-------3------0(0)---------------------------|
C|-5~--5(5)--3~---2~--2(2)---0-0---3-5---5-3--0(0)---------------------------|

http://www.blackdrawingchalks.tnb.art.br/

************************************

| /   slide up
| \   slide down
| h   hammer-on
| p   pull-off
| ~   vibrato
| +   harmonic
| x   Mute note
| b   Bend
| pb  Pre-bend
| br  Bend release
| pbr Pre-bend release
| brb Bend release bend

************************************
comments
We did not receive enough feedback on this tab! Please rate:
print report bad tab
1 2 3 4 5
I want to post or [tab]
guest
You may want to rate the tab now too:
select rating
Please do not post tabs as comments. Select "correction" instead!