Oops, an error
Loading. Please wait.

My War Tab

ver2
ver2

Intro

Whole song

More versions @911Tabs.com
1,973 views 9 this week
no commentswrite comment
1 2 3 4 5
please rate
Autoscroll
+/-
esc
set tempo
stop
WARNING: You are trying to view
                                    content from Ultimate-Guitar.com
                                    in an unauthorized application,
                                    which is prohibited.

                                    Please use an official Ultimate
                                    Guitar Tabs application for iPhone,
                                    iPad or Android to access legitimate
                                    chords, guitar, bass, and drum tabs
                                    from Ultimate-Guitar.com database.

                                    Type "ultimate guitar tabs" in Apple
                                    App Store's or Android Market's
                                    search to find the application.
Black Flag/My War

Here's what I hear...

		\   --- slide down to note
		/   --- slide up to note    

================================================================================
 

INTRO:

	 C#m                                 D                 F
	 1                 1                 1     4      3    1      
	|--------|--------|--------|--------|--------|--------|--------|--------|
	|5-------|--------|\2------|--------|-------3|----1---|--------|--------|
	|--------|--------|--------|--------|-0------|--------|--------|--------|
	|--------|--------|--------|--------|-0------|--------|/3------|--------|
	|--------|--------|--------|--------|--------|--------|--------|--------|
	|--------|--------|--------|--------|--------|--------|--------|--------|

	 C                 C#                D                 D#
	 1      4      3   1                 1      4      3   1      4      3
	|--------|--------|--------|--------|--------|--------|--------|--------|
	|--------|--------|--------|--------|--------|--------|--------|--------|
	|-------5|-----3--|--------|--------|------7-|----5---|8-----6-|--------|
	|--------|--------|--------|--------|--------|--------|--------|--------|
	|/3------|--------|/4------|--------|/5------|--------|--------|-----6--|
	|--------|--------|--------|--------|--------|--------|--------|--------|

	 E                 G                 D
	 1      4     3    1                 1
	|--------|--------|--------|--------|--------|--------|--------|
	|--------|--------|--------|--------|--------|--------|--------|
	|/9----7-|--------|--------|--------|/7------|--------|--------|
	|--------|--------|/5------|--------|--------|--------|--------|
	|--------|-----7--|--------|--------|--------|--------|--------|
	|--------|--------|--------|--------|--------|--------|--------|
	


	

VERSE/ CHORUS:

	   F#	
	|| -----------------|-----------------|-----------------|-----------------|
	|| -----------------|-----------------|-----------------|-----------------|
	||*-----------------|-----------------|-----------------|-----------------|
	||*-----------------|-----------------|-----------------|-----------------|
	|| -----------------|-----------------|-----------------|-----------------|
	|| -5-2-2-2-2-2-2-2-|-5-2-2-2-2-2-2-2-|-5-2-2-2-2-2-2-2-|-5-2-2-2-2-2-2-2-|

	 F#                                  G#
	|-----------------|-----------------|-----------------|-----------------|
	|-----------------|-----------------|-----------------|-----------------|
	|-----------------|-----------------|-----------------|-----------------|
	|-----------------|-----------------|-6---X-X--X-X---6|-6---------------|
	|-----------------|-----------------|-6---X-X--X-X---6|-6---------------|
	|-5-2-2-2-5-2-2-2-|-5-2-2-2-5-2-2-2-|-4---X-X--X-X---4|-4---------------|



	 B
	|-----------------|-----------------|-----------------|-----------------|
	|-----------------|-----------------|-----------------|-----------------|
	|-----------------|-----------------|-----------------|-----------------|
	|-----------------|-----------------|-----------------|-----------------|
	|-----------------|-----------------|-----------------|-----------------|
	|10-7-7-7-7-7-7-7-|10-7-7-7-7-7-7-7-|10-7-7-7-7-7-7-7-|10-7-7-7-7-7-7-7-|

	 B                                   C#
	|-----------------|-----------------|-----------------|-----------------|
	|-----------------|-----------------|-----------------|-----------------|
	|-----------------|-----------------|-----------------|-----------------|
	|-----------------|-----------------|12---X-X--X-X--12|12---------------|
	|-----------------|-----------------|12---X-X--X-X--12|12---------------|
	|10-7-7-7-10-7-7-7|10-7-7-7-10-7-7-7|10---X-X--X-X--10|10---------------|




	 F#
	|-----------------|-----------------|-----------------|-----------------|
	|-----------------|-----------------|-----------------|-----------------|
	|-----------------|-----------------|-----------------|-----------------|
	|-----------------|-----------------|-----------------|-----------------|
	|-----------------|-----------------|-----------------|-----------------|
	|-5-2-2-2-2-2-2-2-|-5-2-2-2-2-2-2-2-|-5-2-2-2-2-2-2-2-|-5-2-2-2-2-2-2-2-|

	 F#                                  G#
	|-----------------|-----------------|-----------------|-----------------|
	|-----------------|-----------------|-----------------|-----------------|
	|-----------------|-----------------|-----------------|-----------------|
	|-----------------|-----------------|-6---X-X--X-X---6|-6---------------|
	|-----------------|-----------------|-6---X-X--X-X---6|-6---------------|
	|-5-2-2-2-5-2-2-2-|-5-2-2-2-5-2-2-2-|-4---X-X--X-X---4|-4---------------|




	 D                 C#                C                 A   B   A   B
	|-----------------|-----------------|-----------------|-----------------|
	|-----------------|-----------------|-----------------|-----------------|
	|-----------------|-----------------|-----------------|-----------------|
	|------------4-5--|------------3-4--|------------2-3--|-----------------|
	|5-5-5-5-5-5------|4-4-4-4-4-4------|3-3-3-3-3-3------|0---2---0---2----|
	|-----------------|-----------------|-----------------|-----------------|

	 D                 C#                C
	|-----------------|-----------------|-----------------|
	|-----------------|-----------------|-----------------|
	|-----------------|-----------------|-----------------|
	|------------4-5--|------------3-4--|------------2-3--|
	|5-5-5-5-5-5------|4-4-4-4-4-4------|3-3-3-3-3-3------|
	|-----------------|-----------------|-----------------|



1st & 2nd times (3rd time go to ending):

	(4/4 time)        (2/4)    (4/4)            (2/4)     
	 A   B   A   B              A   B   A   B             
	|-----------------|--------|-----------------|--------|
	|-----------------|--------|-----------------|--------|
	|-----------------|--------|-----------------|--------|
	|-----------------|--------|-----------------|--------|
	|0---2---0---2----|--------|0---2---0---2----|--------|
	|-----------------|--------|-----------------|--------|
	
	
	                            ------------------|
	                            |1.
			
	(4/4)            (2/4)      (4/4)
	 A   B   A   B             |  E
	|-----------------|--------|----------------- ||
	|-----------------|--------|----------------- ||
	|-----------------|--------|-----------------*||
	|-----------------|--------|-----------------*||
	|0---2---0---2----|--------|----------------- ||
	|-----------------|--------|0---------------- ||
	                           |


BRIDGE:

	--------------------------------------------------------------------------
	|2.
	
	 1                 1          2      1      4   2      1
	|
	|--------|--------|--------|--------|--------|--------|--------|--------|
	|-5------|--------|--------|--------|-------3|--------|--------|--------|
	|--------|--------|--------|--------|--------|--------|--------|--------|
	|--------|--------|5-------|---1----|0-------|--------|3-------|---3----|
	|--------|--------|--------|--------|--------|--------|--------|--------|
	|--------|--------|--------|--------|--------|--------|--------|--------|
	|

	 1      4      3   1                 1      4          1   3             
	|--------|--------|--------|--------|--------|--------|--------|--------|
	|--------|--------|--------|--------|--------|--------|--------|--------|
	|------5-|-----3--|--------|--------|------7-|--------|-----8--|--------|
	|--------|--------|--------|--------|--------|--------|--------|--------|
	|3-------|--------|/4------|--------|/5------|--------|/6------|--------|
	|--------|--------|--------|--------|--------|--------|--------|--------|

	 1   3             1                 1                 1  2
	|--------|--------|--------|--------|--------|--------|--------|-------- ||
	|--------|--------|--------|--------|--------|--------|--------|-------- ||
	|-----9--|--------|6-------|--------|7-------|--------|6---4---|--------*||
	|--------|--------|--------|--------|--------|--------|--------|--------*||
	|/7------|--------|--------|--------|--------|--------|--------|-------- ||
	|--------|--------|--------|--------|--------|--------|--------|-------- ||


1. repeate VERSE/CHORUS
	2. to BRIDGE



ENDING:

	(4/4)             (2/4)    (4/4)             (2/4)     (4/4)            
     A   B   A   B              A   B   A   B              A   B   A   B
	|-----------------|--------|-----------------|--------|-----------------|
	|-----------------|--------|-----------------|--------|-----------------|
	|-----------------|--------|-----------------|--------|-----------------|
	|-----------------|--------|-----------------|--------|-----------------|
	|0---2---0---2----|--------|0---2---0---2----|--------|0---2---0---2----|
	|-----------------|--------|-----------------|--------|-----------------|
	
	(2/4)     (4/4)             (2/4)
	          A   B   A   B
	|--------|-----------------|--------|
	|--------|-----------------|--------|
	|--------|-----------------|--------|
	|--------|-----------------|--------|
	|--------|0---2---0---2----|--------|
	|--------|-----------------|--------|
	
	

	(4/4)             (2/4)     (4/4)            (2/4)    (4/4)             
     E   F#  E   F#             E   F#  E   F#             E   F#  E   F#
	|-----------------|--------|-----------------|--------|-----------------|
	|-----------------|--------|-----------------|--------|-----------------|
	|-----------------|--------|-----------------|--------|-----------------|
	|-----------------|--------|-----------------|--------|-----------------|
	|-----------------|--------|-----------------|--------|-----------------|
	|0---2---0---2----|--------|0---2---0---2----|--------|0---2---0---2----|
	
	
	(2/4)    (4/4)             (2/4)
	          E   F#  E   F#
	|--------|-----------------|--------|
	|--------|-----------------|--------|
	|--------|-----------------|--------|
	|--------|-----------------|--------|
	|--------|-----------------|--------|
	|--------|0---2---0---2----|--------|
	
	

	(4/4)             (2/4)    (4/4)             (2/4)    (4/4)
     A   B   A   B              A   B   A   B              A   B   A   B
	|-----------------|--------|-----------------|--------|-----------------|
	|-----------------|--------|-----------------|--------|-----------------|
	|-----------------|--------|-----------------|--------|-----------------|
	|-----------------|--------|-----------------|--------|-----------------|
	|0---2---0---2----|--------|0---2---0---2----|--------|0---2---0---2----|
	|-----------------|--------|-----------------|--------|-----------------|

	(4/4) 
                       E
	|-----------------|-----------------|
	|-----------------|-----------------|
	|-----------------|-----------------|
	|-----------------|-----------------|
	|-----------------|-----------------|
	|-----------------|0----------------|



	

	- Return to VERSE/CHORUS

comments
We did not receive enough feedback on this tab! Please rate:
print report bad tab
1 2 3 4 5
I want to post or [tab]
guest
You may want to rate the tab now too:
select rating
Please do not post tabs as comments. Select "correction" instead!