Oops, an error
Loading. Please wait.

Everywhere I Go Tab

ver2
ver2

Whole song

More versions @911Tabs.com
26,907 views 51 this week
no commentswrite comment
1 2 3 4 5
excellent!
x 7
Autoscroll
+/-
esc
set tempo
stop
Hey! There's an official Ultimate Guitar app which is ideal
for learning songs when you're away from computer. Get the app
WARNING: You are trying to view
                                    content from Ultimate-Guitar.com
                                    in an unauthorized application,
                                    which is prohibited.

                                    Please use an official Ultimate
                                    Guitar Tabs application for iPhone,
                                    iPad or Android to access legitimate
                                    chords, guitar, bass, and drum tabs
                                    from Ultimate-Guitar.com database.

                                    Type "ultimate guitar tabs" in Apple
                                    App Store's or Android Market's
                                    search to find the application.
E||-----------5--------|-------------------------|---------------------------|
B||-----------5--------|--8p5--------------------|---------------------------|
G||--------------------|--------7----------------|---------------------------|
D||--------------------|-------(0)---------------|---------7-----5h7--5h7----|
A||--------------------|-------------------------|------------0---------0----|
E||--------------------|-------------------------|---------------------------|


 
-----5-------------------|---------------------|------------------------|
-----5----7h5------------|---------------------|------------------------|
--------------------5----|--5p7----------------|--5----5----------------|
--------------------7----|----7----------------|-------7----5----5h7----|
---------------0----0----|---------------------|------------0------0----|
-------------------------|---------------------|------------------------|



------------------5------|------------------------|-----------------------|
------------------8------|---------5--------------|-----------------------|
-------------------------|------------5h7----5----|-----------------------|
--7---7----7-------------|------------------------|--7----7----5h7--------|
------0----0----0--------|------------------------|-----------------------|
-------------------------|------------------------|-----------------------|


           PM                                                               
---------------------|--------------------------|--------------------------|
---------------------|-------5------------------|--------------------------|
---------------------|----------7--------5h7----|-------(5)----------------|
-----------5---------|----------------7---------|--------------7----5h--7--|
-----------0---------|-------0-----0-------0----|--0-----0-----0----0------|
---------------------|--------------------------|--------------------------|


  
--------------------------|------------------------|--------------------------|
-------5------------------|------------------------|-------5------------------|
----------7--------5h7----|-------5----------------|----------7--------5h7----|
----------------7---------|------------7----5h--7--|----------------7---------|
--0----0-----0-------0----|--0----0----0----0------|--0----0-----0-------0----|
--------------------------|------------------------|--------------------------|


     
------------------------|-------------------|--------------------|
------------------------|-------------------|--------------------|
-------5----------------|-------------------|--------------------|
------------7----5h--7--|--Let ring---------|--------------------|
--0----0----0----0------|--Let ring---------|--------------------|
------------------------|-------------------|--------------------|


  
--------------------------|------------------------|--------------------------|
-------5------------------|------------------------|-------5------------------|
----------7--------5h7----|-------5----------------|----------7--------5h7----|
----------------7---------|------------7----5h--7--|----------------7---------|
--0----0-----0-------0----|--0----0----0----0------|--0----0-----0-------0----|
--------------------------|------------------------|--------------------------|


  
-------5--------------------|--------------------------|
----------8\----------------|-------5------------------|
-----------------7br-----5--|----------7--------5h7----|
----------------------------|----------------7---------|
--0----0------0-------0-----|--0----0-----0-------0----|
----------------------------|--------------------------|



------------------------|--------------------------|------------------------|
------------------------|-------5------------------|------------------------|
-------5----------------|----------7--------5h7----|-------5----------------|
------------7----5h--7--|----------------7---------|------------7----5h--7--|
--0----0----0----0------|--0----0-----0-------0----|--0----0----0----0------|
------------------------|--------------------------|------------------------|


  
----------------------|----------------------|--------------------------|
----------------------|----------------------|-------5------------------|
------------5----7----|--7---------7---------|--7-------7--------5h7----|
-------7--------------|----------------------|----------------7---------|
--0----0----0----0----|--0----0----0----0----|--0----0-----0-------0----|
----------------------|----------------------|--------------------------|


 
------------------------|----------------------|------------------------|
------------------------|----------------------|------------------------|
-------5----------------|------------5----7----|--7p-------5------------|
------------7----5h--7--|-------7--------------|--------------7----7----|
--0----0----0----0------|--0----0----0----0----|--0-----0-----0----0----|
------------------------|----------------------|------------------------|


 
--------------------------|------------------------|----------------------|
-------5------------------|------------------------|----------------------|
----------7--------5h7----|-------5----------------|------------5----7----|
----------------7---------|------------7----5h--7--|-------7--------------|
--0----0-----0-------0----|--0----0----0----0------|--0----0----0----0----|
--------------------------|------------------------|----------------------|


  
----------------------|--------------------------|------------------------|
----------------------|--------------------------|------------------------|
--7---------7---------|--7-------7--5-----5h7----|-------5----------------|
----------------------|----------------7---------|------------7----5h--7--|
--0----0----0----0----|--0----0-----0-------0----|--0----0----0----0------|
----------------------|--------------------------|------------------------|


   
----------------------|------------------------|--------------------------|
----------------------|------------------------|-------5------------------|
------------5----7----|--7p-------5------------|----------7--------5h7----|
-------7--------------|--------------7----7----|----------------7---------|
--0----0----0----0----|--0-----0-----0----0----|--0----0-----0-------0----|
----------------------|------------------------|--------------------------|


   
-------------------------|-------------------------|--8--------------------|
--------------8-----8----|--8h10-------------------|-------10--------------|
-------7s--9-----9-------|-------------------------|-----------------------|
-------------------------|-------------------------|-----------------------|
--0----0------0-----0----|-----0----0----0----0----|--0-----0----0----0----|
-------------------------|-------------------------|-----------------------|


    
--------------8----10----|--10h--11p--10p--8--------8h10----|
--------10---------------|--------------------10------------|
-------------------------|----------------------------------|
-------------------------|----------------------------------|
---0-----0----0-----0----|---0---------0-------0-------0----|
-------------------------|----------------------------------|



-------------8------8----|-------------------8----|------------------------|
----------------10-------|--10----10--------------|------------------------|
-------------------------|------------------------|-----------------9s7----|
-------------------------|------------------------|------------------------|
---0----0----0------0----|---0-----0----0----0----|--0----0----0------0----|
-------------------------|------------------------|------------------------|


   
-------------------------|--------------------------|------------------------|
-------------------------|-------5------------------|------------------------|
-------5h7-------5-------|----------7--------5h7----|-------5----------------|
--------------------7----|----------------7---------|------------7----5h--7--|
--0------0----0-----0----|--0----0-----0-------0----|--0----0----0----0------|
-------------------------|--------------------------|------------------------|


  
--------------------------|--------------------------|
-------5------------------|-------5s--7-------7s5----|
----------7--------5h7----|-------5s--7-------7s5----|
----------------7---------|--------------------------|
--0----0-----0-------0----|--0----0------0------0----|
--------------------------|--------------------------|


    
--------------------------|------------------------|--------------------------|
-------5------------------|------------------------|-------5------------------|
----------7--------5h7----|-------5----------------|----------7--------5h7----|
----------------7---------|------------7----5h--7--|----------------7---------|
--0----0-----0-------0----|--0----0----0----0------|--0----0-----0-------0----|
--------------------------|------------------------|--------------------------|


   
------------------------|----------------------|------------------------|
------------------------|----------------------|--8---------------------|
-------5----------------|------------5----7----|-----------------8s7----|
------------7----5h--7--|-------7--------------|------------------------|
--0----0----0----0------|--0----0----0----0----|--0----0----0------0----|
------------------------|----------------------|------------------------|


 
--------------------------|------------------------|----------------------|
-------5------------------|------------------------|----------------------|
----------7--------5h7----|-------5----------------|------------5----7----|
----------------7---------|------------7----5h--7--|-------7--------------|
--0----0-----0-------0----|--0----0----0----0------|--0----0----0----0----|
--------------------------|------------------------|----------------------|


   
----------------------|--------------------------|------------------------|
--8----5--------------|--------------------------|-------5----------------|
------------7----5----|--5h7p-------5------------|----------7--------5----|
----------------------|----------------7----7----|----------------7-------|
--0----0----0----0----|----0-----0-----0----0----|--0----0-----0-----0----|
----------------------|--------------------------|------------------------|


    
----------------------|------------------------|--------------------------|
----------------------|--8---------------------|-------5------------------|
------------5----7----|-----------------8s7----|----------7-----5--5h7----|
-------7--------------|------------------------|--------------------------|
--0----0----0----0----|--0----0----0------0----|--0----0-----0-------0----|
----------------------|------------------------|--------------------------|


    
------------------------|----------------------|----------------------|
------------------------|----------------------|--8----5--------------|
-------5----------------|------------5----7----|------------7----5----|
------------7----5h--7--|-------7--------------|----------------------|
--0----0----0----0------|--0----0----0----0----|--0----0----0----0----|
------------------------|----------------------|----------------------|


    
--------------------------|------------------------|--------------------------|
--------------------------|-------5----------------|-------5------------------|
--5h7p-------5------------|----------7--------5----|----------7--------5h7----|
----------------7----7----|----------------7-------|----------------7---------|
----0-----0-----0----0----|--0----0-----0-----0----|--0----0-----0-------0----|
--------------------------|------------------------|--------------------------|


 
------------------------|--------------------------|-------0----------------|
------------------------|-------5------------------|-------5----------------|
-------5----------------|----------7--------5h7----|-------0-------------5--|
------------7----5h--7--|----------------7---------|---------------5--7-----|
--0----0----0----0------|--0----0-----0-------0----|--0----0----0-----0-----|
------------------------|--------------------------|------------------------|


  
--------------------------|------------------------|------------------------|
-------5------------------|------------------------|-------5----------------|
----------7--------5h7----|-------5----------------|----------7--------5----|
----------------7---------|------------7----5h--7--|----------------7-------|
--0----0-----0-------0----|--0----0----0----0------|--0----0-----0-----0----|
--------------------------|------------------------|------------------------|


   
-------------------------|----------------------|-------------------------|
-----------------8-------|--8-------------------|-----------------8-------|
-------7s--9-------------|--9-------------------|-------7s--9-------------|
-------------------------|----------------------|-------------------------|
--0----0------0-----0----|--0----0----0----0----|--0----0------0-----0----|
-------------------------|----------------------|-------------------------|


     
------------------------|-------------------------|-------------------------|
------------------------|-----------------8-------|--8h10-------------------|
--9s7-------------------|-------7S--9-------------|-------------------------|
------------------------|-------------------------|-------------------------|
----0----0----0----0----|--0----0------0-----0----|-----0----0----0----0----|
------------------------|-------------------------|-------------------------|


    
-------------------------|------------------------|
-----------------8-------|------------------------|
-------7S--9-------------|--9s7-------------------|
-------------------------|------------------------|
--0----0------0-----0----|----0----0----0----0----|
-------------------------|------------------------|


  |--3--|   |-3|    |--3-|  |-3|                                   
------------------------------------|--------------------------|
------------------------------------|-------5------------------|
--5s----9s-----5--------------------|----------7--------5h7----|
--------------------7----5-----0----|----------------7---------|
--0---------0-------0-------0-------|--0----0-----0-------0----|
------------------------------------|--------------------------|


     
------------------------|--------------------------|--------------------------|
------------------------|-------5------------------|-------5s--7-------7s5----|
-------5----------------|----------7--------5h7----|-------5s--7-------7s5----|
------------7----5h--7--|----------------7---------|--------------------------|
--0----0----0----0------|--0----0-----0-------0----|--0----0------0------0----|
------------------------|--------------------------|--------------------------|


    
--------------------------|------------------------|------------------------|
-------5------------------|------------------------|-------5----------------|
----------7--------5h7----|-------5----------------|----------7--------5----|
----------------7---------|------------7----5h--7--|----------------7-------|
--0----0-----0-------0----|--0----0----0----0------|--0----0-----0-----0----|
--------------------------|------------------------|------------------------|

comments
print report bad tab
I want to post or [tab]
guest
You may want to rate the tab now too:
select rating
Please do not post tabs as comments. Select "correction" instead!